ISO-10303-21;
HEADER;
FILE_DESCRIPTION (( 'STEP AP214' ),
    '1' );
FILE_NAME ('06063.STEP',
    '2023-07-05T16:00:32',
    ( '' ),
    ( '' ),
    'SwSTEP 2.0',
    'SolidWorks 2023',
    '' );
FILE_SCHEMA (( 'AUTOMOTIVE_DESIGN' ));
ENDSEC;

DATA;
#1 = FILL_AREA_STYLE_COLOUR ( '', #213 ) ;
#2 = PRODUCT_RELATED_PRODUCT_CATEGORY ( 'part', '', ( #149 ) ) ;
#3 = ADVANCED_BREP_SHAPE_REPRESENTATION ( '06063', ( #217, #115, #191 ), #253 ) ;
#4 = DIRECTION ( 'NONE',  ( -1.483045034828085136E-16, 1.000000000000000000, 0.000000000000000000 ) ) ;
#5 = DIMENSIONAL_EXPONENTS ( 1.000000000000000000, 0.000000000000000000, 0.000000000000000000, 0.000000000000000000, 0.000000000000000000, 0.000000000000000000, 0.000000000000000000 ) ;
#6 = VERTEX_POINT ( 'NONE', #64 ) ;
#7 = AXIS2_PLACEMENT_3D ( 'NONE', #242, #88, #12 ) ;
#8 = FACE_OUTER_BOUND ( 'NONE', #46, .T. ) ;
#9 = DIRECTION ( 'NONE',  ( -1.483045034828085136E-16, 1.000000000000000000, -0.000000000000000000 ) ) ;
#10 =( CONVERSION_BASED_UNIT ( 'INCH', #127 ) LENGTH_UNIT ( ) NAMED_UNIT ( #101 ) );
#11 = DIRECTION ( 'NONE',  ( -1.483045034828085136E-16, 1.000000000000000000, -0.000000000000000000 ) ) ;
#12 = DIRECTION ( 'NONE',  ( -1.000000000000000000, -1.821231995776178437E-16, 0.000000000000000000 ) ) ;
#13 = CARTESIAN_POINT ( 'NONE',  ( 0.000000000000000000, 0.000000000000000000, 0.000000000000000000 ) ) ;
#14 = DIRECTION ( 'NONE',  ( 0.000000000000000000, 1.000000000000000000, 0.000000000000000000 ) ) ;
#15 = PRESENTATION_STYLE_ASSIGNMENT (( #67 ) ) ;
#16 = DIRECTION ( 'NONE',  ( 8.659560562354948882E-17, 0.7071067811865462405, -0.7071067811865487940 ) ) ;
#17 = PRESENTATION_LAYER_ASSIGNMENT (  '', '', ( #199 ) ) ;
#18 = CARTESIAN_POINT ( 'NONE',  ( 0.000000000000000000, 0.1874999999999993061, 0.000000000000000000 ) ) ;
#19 = PRODUCT_DEFINITION_SHAPE ( 'NONE', 'NONE',  #169 ) ;
#20 = APPLICATION_CONTEXT ( 'automotive_design' ) ;
#21 = PRODUCT_DEFINITION_FORMATION_WITH_SPECIFIED_SOURCE ( 'ANY', '', #149, .NOT_KNOWN. ) ;
#22 = APPLICATION_PROTOCOL_DEFINITION ( 'draft international standard', 'automotive_design', 1998, #129 ) ;
#23 = VERTEX_POINT ( 'NONE', #205 ) ;
#24 = VECTOR ( 'NONE', #223, 39.37007874015748143 ) ;
#25 = VERTEX_POINT ( 'NONE', #42 ) ;
#26 = EDGE_LOOP ( 'NONE', ( #82, #156, #128, #103 ) ) ;
#27 = ORIENTED_EDGE ( 'NONE', *, *, #173, .T. ) ;
#28 = DIRECTION ( 'NONE',  ( 1.483045034828085136E-16, -1.000000000000000000, 0.000000000000000000 ) ) ;
#29 = VERTEX_POINT ( 'NONE', #131 ) ;
#30 = CARTESIAN_POINT ( 'NONE',  ( 0.000000000000000000, 39.37007874015748143, 0.000000000000000000 ) ) ;
#31 = DIRECTION ( 'NONE',  ( 0.000000000000000000, 0.000000000000000000, 1.000000000000000000 ) ) ;
#32 = FACE_OUTER_BOUND ( 'NONE', #233, .T. ) ;
#33 = ADVANCED_FACE ( 'NONE', ( #123 ), #99, .F. ) ;
#34 = CARTESIAN_POINT ( 'NONE',  ( 0.000000000000000000, 0.1874999999999993061, 0.000000000000000000 ) ) ;
#35 = SURFACE_STYLE_USAGE ( .BOTH. , #57 ) ;
#36 = FILL_AREA_STYLE ('',( #147 ) ) ;
#37 =( NAMED_UNIT ( * ) SI_UNIT ( $, .STERADIAN. ) SOLID_ANGLE_UNIT ( ) );
#38 = COLOUR_RGB ( '',0.7921568627450980005, 0.8196078431372548767, 0.9333333333333333481 ) ;
#39 = EDGE_CURVE ( 'NONE', #25, #251, #226, .T. ) ;
#40 = ADVANCED_FACE ( 'NONE', ( #32 ), #71, .T. ) ;
#41 = CIRCLE ( 'NONE', #247, 0.1874999999999996947 ) ;
#42 = CARTESIAN_POINT ( 'NONE',  ( -0.1875000000000001110, 2.500000000000000000, 0.000000000000000000 ) ) ;
#43 = VERTEX_POINT ( 'NONE', #224 ) ;
#44 = DIMENSIONAL_EXPONENTS ( 1.000000000000000000, 0.000000000000000000, 0.000000000000000000, 0.000000000000000000, 0.000000000000000000, 0.000000000000000000, 0.000000000000000000 ) ;
#45 = VERTEX_POINT ( 'NONE', #68 ) ;
#46 = EDGE_LOOP ( 'NONE', ( #176, #155 ) ) ;
#47 = ADVANCED_FACE ( 'NONE', ( #256 ), #63, .T. ) ;
#48 = AXIS2_PLACEMENT_3D ( 'NONE', #30, #197, #102 ) ;
#49 = DIRECTION ( 'NONE',  ( 0.000000000000000000, -0.000000000000000000, 1.000000000000000000 ) ) ;
#50 = DIRECTION ( 'NONE',  ( 1.000000000000000000, 0.000000000000000000, 0.000000000000000000 ) ) ;
#51 = DIRECTION ( 'NONE',  ( 0.000000000000000000, 1.000000000000000000, 0.000000000000000000 ) ) ;
#52 = LINE ( 'NONE', #118, #126 ) ;
#53 = LINE ( 'NONE', #240, #24 ) ;
#54 = AXIS2_PLACEMENT_3D ( 'NONE', #182, #258, #220 ) ;
#55 = CYLINDRICAL_SURFACE ( 'NONE', #54, 0.1874999999999998890 ) ;
#56 = UNCERTAINTY_MEASURE_WITH_UNIT (LENGTH_MEASURE( 1.000000000000000082E-05 ), #10, 'distance_accuracy_value', 'NONE');
#57 = SURFACE_SIDE_STYLE ('',( #204 ) ) ;
#58 = COLOUR_RGB ( '',1.000000000000000000, 0.000000000000000000, 0.000000000000000000 ) ;
#59 = COLOUR_RGB ( '',1.000000000000000000, 0.000000000000000000, 0.000000000000000000 ) ;
#60 = CIRCLE ( 'NONE', #7, 0.1874999999999996947 ) ;
#61 = SURFACE_SIDE_STYLE ('',( #246 ) ) ;
#62 = ORIENTED_EDGE ( 'NONE', *, *, #117, .F. ) ;
#63 = CONICAL_SURFACE ( 'NONE', #80, 39.37007874015762354, 0.7853981633974501664 ) ;
#64 = CARTESIAN_POINT ( 'NONE',  ( 0.000000000000000000, 0.000000000000000000, 0.000000000000000000 ) ) ;
#65 = DIRECTION ( 'NONE',  ( -1.483045034828085136E-16, 1.000000000000000000, -0.000000000000000000 ) ) ;
#66 = DIRECTION ( 'NONE',  ( -1.483045034828085136E-16, 1.000000000000000000, -0.000000000000000000 ) ) ;
#67 = SURFACE_STYLE_USAGE ( .BOTH. , #165 ) ;
#68 = CARTESIAN_POINT ( 'NONE',  ( 0.1874999999999999722, 0.1874999999999993339, 2.296212748401286801E-17 ) ) ;
#69 = DIRECTION ( 'NONE',  ( 0.000000000000000000, 0.7071067811865462405, 0.7071067811865487940 ) ) ;
#70 = LINE ( 'NONE', #13, #195 ) ;
#71 = PLANE ( 'NONE',  #164 ) ;
#72 = PRESENTATION_LAYER_ASSIGNMENT (  '', '', ( #177 ) ) ;
#73 = FILL_AREA_STYLE ('',( #1 ) ) ;
#74 =( GEOMETRIC_REPRESENTATION_CONTEXT ( 3 ) GLOBAL_UNCERTAINTY_ASSIGNED_CONTEXT ( ( #56 ) ) GLOBAL_UNIT_ASSIGNED_CONTEXT ( ( #10, #104, #215 ) ) REPRESENTATION_CONTEXT ( 'NONE', 'WORKASPACE' ) );
#75 = EDGE_CURVE ( 'NONE', #45, #43, #41, .T. ) ;
#76 = EDGE_LOOP ( 'NONE', ( #81, #206, #100, #62 ) ) ;
#77 = CARTESIAN_POINT ( 'NONE',  ( 0.000000000000000000, 0.1874999999999993061, 0.000000000000000000 ) ) ;
#78 = ORIENTED_EDGE ( 'NONE', *, *, #75, .F. ) ;
#79 = DIRECTION ( 'NONE',  ( -1.000000000000000000, 0.000000000000000000, 0.000000000000000000 ) ) ;
#80 = AXIS2_PLACEMENT_3D ( 'NONE', #137, #51, #31 ) ;
#81 = ORIENTED_EDGE ( 'NONE', *, *, #184, .F. ) ;
#82 = ORIENTED_EDGE ( 'NONE', *, *, #192, .T. ) ;
#83 = EDGE_CURVE ( 'NONE', #6, #29, #70, .T. ) ;
#84 = CARTESIAN_POINT ( 'NONE',  ( 0.1874999999999998057, 2.500000000000000000, 2.296212748401285877E-17 ) ) ;
#85 =( NAMED_UNIT ( * ) PLANE_ANGLE_UNIT ( ) SI_UNIT ( $, .RADIAN. ) );
#86 =( NAMED_UNIT ( * ) PLANE_ANGLE_UNIT ( ) SI_UNIT ( $, .RADIAN. ) );
#87 = MECHANICAL_DESIGN_GEOMETRIC_PRESENTATION_REPRESENTATION (  '', ( #200 ), #230 ) ;
#88 = DIRECTION ( 'NONE',  ( -1.483045034828085136E-16, 1.000000000000000000, -0.000000000000000000 ) ) ;
#89 = FACE_OUTER_BOUND ( 'NONE', #76, .T. ) ;
#90 =( CONVERSION_BASED_UNIT ( 'INCH', #262 ) LENGTH_UNIT ( ) NAMED_UNIT ( #44 ) );
#91 = CARTESIAN_POINT ( 'NONE',  ( 0.000000000000000000, 0.000000000000000000, 0.000000000000000000 ) ) ;
#92 = CARTESIAN_POINT ( 'NONE',  ( -6.123233995736764803E-17, 2.500000000000000000, 0.000000000000000000 ) ) ;
#93 = MECHANICAL_DESIGN_GEOMETRIC_PRESENTATION_REPRESENTATION (  '', ( #214 ), #146 ) ;
#94 = ADVANCED_FACE ( 'NONE', ( #89 ), #183, .T. ) ;
#95 = DIRECTION ( 'NONE',  ( 0.000000000000000000, 0.000000000000000000, -1.000000000000000000 ) ) ;
#96 = EDGE_CURVE ( 'NONE', #43, #25, #53, .T. ) ;
#97 = CIRCLE ( 'NONE', #122, 0.1874999999999999722 ) ;
#98 = UNCERTAINTY_MEASURE_WITH_UNIT (LENGTH_MEASURE( 1.000000000000000082E-05 ), #244, 'distance_accuracy_value', 'NONE');
#99 = PLANE ( 'NONE',  #252 ) ;
#100 = ORIENTED_EDGE ( 'NONE', *, *, #96, .T. ) ;
#101 = DIMENSIONAL_EXPONENTS ( 1.000000000000000000, 0.000000000000000000, 0.000000000000000000, 0.000000000000000000, 0.000000000000000000, 0.000000000000000000, 0.000000000000000000 ) ;
#102 = DIRECTION ( 'NONE',  ( 0.000000000000000000, 0.000000000000000000, 1.000000000000000000 ) ) ;
#103 = ORIENTED_EDGE ( 'NONE', *, *, #96, .F. ) ;
#104 =( NAMED_UNIT ( * ) PLANE_ANGLE_UNIT ( ) SI_UNIT ( $, .RADIAN. ) );
#105 = FILL_AREA_STYLE_COLOUR ( '', #58 ) ;
#106 =( GEOMETRIC_REPRESENTATION_CONTEXT ( 3 ) GLOBAL_UNCERTAINTY_ASSIGNED_CONTEXT ( ( #98 ) ) GLOBAL_UNIT_ASSIGNED_CONTEXT ( ( #244, #85, #216 ) ) REPRESENTATION_CONTEXT ( 'NONE', 'WORKASPACE' ) );
#107 = VECTOR ( 'NONE', #65, 39.37007874015748143 ) ;
#108 = ORIENTED_EDGE ( 'NONE', *, *, #192, .F. ) ;
#109 = DIRECTION ( 'NONE',  ( -0.000000000000000000, -1.000000000000000000, -0.000000000000000000 ) ) ;
#110 = CARTESIAN_POINT ( 'NONE',  ( 2.817218243466271259E-16, 0.1874999999999993061, 0.000000000000000000 ) ) ;
#111 = SURFACE_STYLE_USAGE ( .BOTH. , #112 ) ;
#112 = SURFACE_SIDE_STYLE ('',( #219 ) ) ;
#113 = MECHANICAL_DESIGN_GEOMETRIC_PRESENTATION_REPRESENTATION (  '', ( #199 ), #74 ) ;
#114 = UNCERTAINTY_MEASURE_WITH_UNIT (LENGTH_MEASURE( 1.000000000000000082E-05 ), #254, 'distance_accuracy_value', 'NONE');
#115 = MANIFOLD_SOLID_BREP ( 'Revolve - Tool Body (Pointed)', #245 ) ;
#116 = FILL_AREA_STYLE ('',( #145 ) ) ;
#117 = EDGE_CURVE ( 'NONE', #251, #25, #119, .T. ) ;
#118 = CARTESIAN_POINT ( 'NONE',  ( 0.000000000000000000, 0.000000000000000000, 0.000000000000000000 ) ) ;
#119 = CIRCLE ( 'NONE', #207, 0.1875000000000000555 ) ;
#120 = APPLICATION_PROTOCOL_DEFINITION ( 'draft international standard', 'automotive_design', 1998, #20 ) ;
#121 = SHAPE_DEFINITION_REPRESENTATION ( #19, #3 ) ;
#122 = AXIS2_PLACEMENT_3D ( 'NONE', #77, #109, #193 ) ;
#123 = FACE_OUTER_BOUND ( 'NONE', #232, .T. ) ;
#124 = EDGE_LOOP ( 'NONE', ( #159, #210, #194 ) ) ;
#125 = MECHANICAL_DESIGN_GEOMETRIC_PRESENTATION_REPRESENTATION (  '', ( #152 ), #106 ) ;
#126 = VECTOR ( 'NONE', #16, 39.37007874015748143 ) ;
#127 = LENGTH_MEASURE_WITH_UNIT ( LENGTH_MEASURE( 0.02539999999999999897 ), #180 );
#128 = ORIENTED_EDGE ( 'NONE', *, *, #39, .F. ) ;
#129 = APPLICATION_CONTEXT ( 'automotive_design' ) ;
#130 = LINE ( 'NONE', #84, #107 ) ;
#131 = CARTESIAN_POINT ( 'NONE',  ( 0.000000000000000000, 0.1874999999999993061, 0.1874999999999999722 ) ) ;
#132 = ORIENTED_EDGE ( 'NONE', *, *, #228, .F. ) ;
#133 = DIMENSIONAL_EXPONENTS ( 1.000000000000000000, 0.000000000000000000, 0.000000000000000000, 0.000000000000000000, 0.000000000000000000, 0.000000000000000000, 0.000000000000000000 ) ;
#134 = SURFACE_SIDE_STYLE ('',( #218 ) ) ;
#135 = AXIS2_PLACEMENT_3D ( 'NONE', #92, #9, #221 ) ;
#136 = CIRCLE ( 'NONE', #227, 0.1874999999999999722 ) ;
#137 = CARTESIAN_POINT ( 'NONE',  ( 0.000000000000000000, 39.37007874015748143, 0.000000000000000000 ) ) ;
#138 =( NAMED_UNIT ( * ) PLANE_ANGLE_UNIT ( ) SI_UNIT ( $, .RADIAN. ) );
#139 =( LENGTH_UNIT ( ) NAMED_UNIT ( * ) SI_UNIT ( $, .METRE. ) );
#140 = UNCERTAINTY_MEASURE_WITH_UNIT (LENGTH_MEASURE( 1.000000000000000082E-05 ), #170, 'distance_accuracy_value', 'NONE');
#141 = PRESENTATION_STYLE_ASSIGNMENT (( #35 ) ) ;
#142 =( LENGTH_UNIT ( ) NAMED_UNIT ( * ) SI_UNIT ( $, .METRE. ) );
#143 = LENGTH_MEASURE_WITH_UNIT ( LENGTH_MEASURE( 0.02539999999999999897 ), #265 );
#144 = DIRECTION ( 'NONE',  ( -1.000000000000000000, 0.000000000000000000, 0.000000000000000000 ) ) ;
#145 = FILL_AREA_STYLE_COLOUR ( '', #59 ) ;
#146 =( GEOMETRIC_REPRESENTATION_CONTEXT ( 3 ) GLOBAL_UNCERTAINTY_ASSIGNED_CONTEXT ( ( #140 ) ) GLOBAL_UNIT_ASSIGNED_CONTEXT ( ( #170, #261, #37 ) ) REPRESENTATION_CONTEXT ( 'NONE', 'WORKASPACE' ) );
#147 = FILL_AREA_STYLE_COLOUR ( '', #236 ) ;
#148 =( LENGTH_UNIT ( ) NAMED_UNIT ( * ) SI_UNIT ( $, .METRE. ) );
#149 = PRODUCT ( '06063', '06063', '', ( #186 ) ) ;
#150 = MECHANICAL_DESIGN_GEOMETRIC_PRESENTATION_REPRESENTATION (  '', ( #177 ), #188 ) ;
#151 = PRESENTATION_LAYER_ASSIGNMENT (  '', '', ( #214 ) ) ;
#152 = STYLED_ITEM ( 'NONE', ( #241 ), #40 ) ;
#153 = SURFACE_STYLE_USAGE ( .BOTH. , #61 ) ;
#154 = ADVANCED_FACE ( 'NONE', ( #8 ), #211, .F. ) ;
#155 = ORIENTED_EDGE ( 'NONE', *, *, #117, .T. ) ;
#156 = ORIENTED_EDGE ( 'NONE', *, *, #184, .T. ) ;
#157 = ADVANCED_FACE ( 'NONE', ( #209 ), #248, .T. ) ;
#158 =( LENGTH_UNIT ( ) NAMED_UNIT ( * ) SI_UNIT ( $, .METRE. ) );
#159 = ORIENTED_EDGE ( 'NONE', *, *, #83, .F. ) ;
#160 = DIMENSIONAL_EXPONENTS ( 1.000000000000000000, 0.000000000000000000, 0.000000000000000000, 0.000000000000000000, 0.000000000000000000, 0.000000000000000000, 0.000000000000000000 ) ;
#161 = SURFACE_STYLE_USAGE ( .BOTH. , #134 ) ;
#162 =( NAMED_UNIT ( * ) PLANE_ANGLE_UNIT ( ) SI_UNIT ( $, .RADIAN. ) );
#163 = CARTESIAN_POINT ( 'NONE',  ( 0.1874999999999999722, 2.500000000000000000, 0.000000000000000000 ) ) ;
#164 = AXIS2_PLACEMENT_3D ( 'NONE', #34, #14, #49 ) ;
#165 = SURFACE_SIDE_STYLE ('',( #202 ) ) ;
#166 = FACE_OUTER_BOUND ( 'NONE', #26, .T. ) ;
#167 = CARTESIAN_POINT ( 'NONE',  ( 0.1874999999999999722, 2.500000000000000000, 2.296212748401286801E-17 ) ) ;
#168 = DIRECTION ( 'NONE',  ( -1.483045034828085136E-16, 1.000000000000000000, -0.000000000000000000 ) ) ;
#169 = PRODUCT_DEFINITION ( 'UNKNOWN', '', #21, #257 ) ;
#170 =( CONVERSION_BASED_UNIT ( 'INCH', #203 ) LENGTH_UNIT ( ) NAMED_UNIT ( #5 ) );
#171 = FILL_AREA_STYLE ('',( #225 ) ) ;
#172 =( CONVERSION_BASED_UNIT ( 'INCH', #143 ) LENGTH_UNIT ( ) NAMED_UNIT ( #179 ) );
#173 = EDGE_CURVE ( 'NONE', #29, #23, #97, .T. ) ;
#174 = AXIS2_PLACEMENT_3D ( 'NONE', #163, #28, #234 ) ;
#175 = PRESENTATION_STYLE_ASSIGNMENT (( #153 ) ) ;
#176 = ORIENTED_EDGE ( 'NONE', *, *, #39, .T. ) ;
#177 = STYLED_ITEM ( 'NONE', ( #15 ), #47 ) ;
#178 = FILL_AREA_STYLE ('',( #105 ) ) ;
#179 = DIMENSIONAL_EXPONENTS ( 1.000000000000000000, 0.000000000000000000, 0.000000000000000000, 0.000000000000000000, 0.000000000000000000, 0.000000000000000000, 0.000000000000000000 ) ;
#180 =( LENGTH_UNIT ( ) NAMED_UNIT ( * ) SI_UNIT ( $, .METRE. ) );
#181 = UNCERTAINTY_MEASURE_WITH_UNIT (LENGTH_MEASURE( 1.000000000000000082E-05 ), #90, 'distance_accuracy_value', 'NONE');
#182 = CARTESIAN_POINT ( 'NONE',  ( -6.123233995736766036E-17, 2.500000000000000000, 0.000000000000000000 ) ) ;
#183 = CYLINDRICAL_SURFACE ( 'NONE', #263, 0.1874999999999998890 ) ;
#184 = EDGE_CURVE ( 'NONE', #45, #251, #130, .T. ) ;
#185 = UNCERTAINTY_MEASURE_WITH_UNIT (LENGTH_MEASURE( 1.000000000000000082E-05 ), #172, 'distance_accuracy_value', 'NONE');
#186 = PRODUCT_CONTEXT ( 'NONE', #20, 'mechanical' ) ;
#187 = PRESENTATION_LAYER_ASSIGNMENT (  '', '', ( #200 ) ) ;
#188 =( GEOMETRIC_REPRESENTATION_CONTEXT ( 3 ) GLOBAL_UNCERTAINTY_ASSIGNED_CONTEXT ( ( #181 ) ) GLOBAL_UNIT_ASSIGNED_CONTEXT ( ( #90, #162, #239 ) ) REPRESENTATION_CONTEXT ( 'NONE', 'WORKASPACE' ) );
#189 = CARTESIAN_POINT ( 'NONE',  ( -6.123233995736764803E-17, 2.500000000000000000, 0.000000000000000000 ) ) ;
#190 = CARTESIAN_POINT ( 'NONE',  ( 2.817218243466271259E-16, 0.1874999999999993061, 0.000000000000000000 ) ) ;
#191 = AXIS2_PLACEMENT_3D ( 'NONE', #91, #238, #50 ) ;
#192 = EDGE_CURVE ( 'NONE', #43, #45, #60, .T. ) ;
#193 = DIRECTION ( 'NONE',  ( 0.000000000000000000, 0.000000000000000000, -1.000000000000000000 ) ) ;
#194 = ORIENTED_EDGE ( 'NONE', *, *, #255, .T. ) ;
#195 = VECTOR ( 'NONE', #69, 39.37007874015748143 ) ;
#196 = ADVANCED_FACE ( 'NONE', ( #166 ), #55, .T. ) ;
#197 = DIRECTION ( 'NONE',  ( 0.000000000000000000, 1.000000000000000000, 0.000000000000000000 ) ) ;
#198 = DIRECTION ( 'NONE',  ( -1.000000000000000000, -1.483045034828085136E-16, 0.000000000000000000 ) ) ;
#199 = STYLED_ITEM ( 'NONE', ( #175 ), #115 ) ;
#200 = STYLED_ITEM ( 'NONE', ( #250 ), #157 ) ;
#201 = LENGTH_MEASURE_WITH_UNIT ( LENGTH_MEASURE( 0.02539999999999999897 ), #139 );
#202 = SURFACE_STYLE_FILL_AREA ( #36 ) ;
#203 = LENGTH_MEASURE_WITH_UNIT ( LENGTH_MEASURE( 0.02539999999999999897 ), #148 );
#204 = SURFACE_STYLE_FILL_AREA ( #171 ) ;
#205 = CARTESIAN_POINT ( 'NONE',  ( 2.296212748401287109E-17, 0.1874999999999993061, -0.1874999999999999722 ) ) ;
#206 = ORIENTED_EDGE ( 'NONE', *, *, #75, .T. ) ;
#207 = AXIS2_PLACEMENT_3D ( 'NONE', #189, #66, #79 ) ;
#208 =( NAMED_UNIT ( * ) SI_UNIT ( $, .STERADIAN. ) SOLID_ANGLE_UNIT ( ) );
#209 = FACE_OUTER_BOUND ( 'NONE', #235, .T. ) ;
#210 = ORIENTED_EDGE ( 'NONE', *, *, #228, .T. ) ;
#211 = PLANE ( 'NONE',  #174 ) ;
#212 = ORIENTED_EDGE ( 'NONE', *, *, #255, .F. ) ;
#213 = COLOUR_RGB ( '',0.7921568627450980005, 0.8196078431372548767, 0.9333333333333333481 ) ;
#214 = STYLED_ITEM ( 'NONE', ( #141 ), #217 ) ;
#215 =( NAMED_UNIT ( * ) SI_UNIT ( $, .STERADIAN. ) SOLID_ANGLE_UNIT ( ) );
#216 =( NAMED_UNIT ( * ) SI_UNIT ( $, .STERADIAN. ) SOLID_ANGLE_UNIT ( ) );
#217 = MANIFOLD_SOLID_BREP ( 'Revolve - Cutting Edge', #229 ) ;
#218 = SURFACE_STYLE_FILL_AREA ( #178 ) ;
#219 = SURFACE_STYLE_FILL_AREA ( #116 ) ;
#220 = DIRECTION ( 'NONE',  ( -1.000000000000000000, 0.000000000000000000, 0.000000000000000000 ) ) ;
#221 = DIRECTION ( 'NONE',  ( -1.000000000000000000, 0.000000000000000000, 0.000000000000000000 ) ) ;
#222 =( NAMED_UNIT ( * ) SI_UNIT ( $, .STERADIAN. ) SOLID_ANGLE_UNIT ( ) );
#223 = DIRECTION ( 'NONE',  ( -1.483045034828085136E-16, 1.000000000000000000, -0.000000000000000000 ) ) ;
#224 = CARTESIAN_POINT ( 'NONE',  ( -0.1874999999999994449, 0.1874999999999992506, 0.000000000000000000 ) ) ;
#225 = FILL_AREA_STYLE_COLOUR ( '', #38 ) ;
#226 = CIRCLE ( 'NONE', #135, 0.1875000000000000555 ) ;
#227 = AXIS2_PLACEMENT_3D ( 'NONE', #18, #264, #95 ) ;
#228 = EDGE_CURVE ( 'NONE', #6, #23, #52, .T. ) ;
#229 = CLOSED_SHELL ( 'NONE', ( #47, #40, #157 ) ) ;
#230 =( GEOMETRIC_REPRESENTATION_CONTEXT ( 3 ) GLOBAL_UNCERTAINTY_ASSIGNED_CONTEXT ( ( #114 ) ) GLOBAL_UNIT_ASSIGNED_CONTEXT ( ( #254, #138, #208 ) ) REPRESENTATION_CONTEXT ( 'NONE', 'WORKASPACE' ) );
#231 = ORIENTED_EDGE ( 'NONE', *, *, #173, .F. ) ;
#232 = EDGE_LOOP ( 'NONE', ( #108, #78 ) ) ;
#233 = EDGE_LOOP ( 'NONE', ( #231, #212 ) ) ;
#234 = DIRECTION ( 'NONE',  ( 1.000000000000000000, 1.483045034828085136E-16, 0.000000000000000000 ) ) ;
#235 = EDGE_LOOP ( 'NONE', ( #132, #249, #27 ) ) ;
#236 = COLOUR_RGB ( '',1.000000000000000000, 0.000000000000000000, 0.000000000000000000 ) ;
#237 = LENGTH_MEASURE_WITH_UNIT ( LENGTH_MEASURE( 0.02539999999999999897 ), #158 );
#238 = DIRECTION ( 'NONE',  ( 0.000000000000000000, 0.000000000000000000, 1.000000000000000000 ) ) ;
#239 =( NAMED_UNIT ( * ) SI_UNIT ( $, .STERADIAN. ) SOLID_ANGLE_UNIT ( ) );
#240 = CARTESIAN_POINT ( 'NONE',  ( -0.1874999999999999445, 2.500000000000000000, 0.000000000000000000 ) ) ;
#241 = PRESENTATION_STYLE_ASSIGNMENT (( #111 ) ) ;
#242 = CARTESIAN_POINT ( 'NONE',  ( 2.817218243466271259E-16, 0.1874999999999993061, 0.000000000000000000 ) ) ;
#243 = PRESENTATION_LAYER_ASSIGNMENT (  '', '', ( #152 ) ) ;
#244 =( CONVERSION_BASED_UNIT ( 'INCH', #201 ) LENGTH_UNIT ( ) NAMED_UNIT ( #133 ) );
#245 = CLOSED_SHELL ( 'NONE', ( #196, #33, #94, #154 ) ) ;
#246 = SURFACE_STYLE_FILL_AREA ( #73 ) ;
#247 = AXIS2_PLACEMENT_3D ( 'NONE', #110, #11, #260 ) ;
#248 = CONICAL_SURFACE ( 'NONE', #48, 39.37007874015762354, 0.7853981633974501664 ) ;
#249 = ORIENTED_EDGE ( 'NONE', *, *, #83, .T. ) ;
#250 = PRESENTATION_STYLE_ASSIGNMENT (( #161 ) ) ;
#251 = VERTEX_POINT ( 'NONE', #167 ) ;
#252 = AXIS2_PLACEMENT_3D ( 'NONE', #190, #4, #198 ) ;
#253 =( GEOMETRIC_REPRESENTATION_CONTEXT ( 3 ) GLOBAL_UNCERTAINTY_ASSIGNED_CONTEXT ( ( #185 ) ) GLOBAL_UNIT_ASSIGNED_CONTEXT ( ( #172, #86, #222 ) ) REPRESENTATION_CONTEXT ( 'NONE', 'WORKASPACE' ) );
#254 =( CONVERSION_BASED_UNIT ( 'INCH', #237 ) LENGTH_UNIT ( ) NAMED_UNIT ( #160 ) );
#255 = EDGE_CURVE ( 'NONE', #23, #29, #136, .T. ) ;
#256 = FACE_OUTER_BOUND ( 'NONE', #124, .T. ) ;
#257 = PRODUCT_DEFINITION_CONTEXT ( 'detailed design', #129, 'design' ) ;
#258 = DIRECTION ( 'NONE',  ( -1.483045034828085136E-16, 1.000000000000000000, -0.000000000000000000 ) ) ;
#259 = CARTESIAN_POINT ( 'NONE',  ( -6.123233995736766036E-17, 2.500000000000000000, 0.000000000000000000 ) ) ;
#260 = DIRECTION ( 'NONE',  ( -1.000000000000000000, -1.821231995776178437E-16, 0.000000000000000000 ) ) ;
#261 =( NAMED_UNIT ( * ) PLANE_ANGLE_UNIT ( ) SI_UNIT ( $, .RADIAN. ) );
#262 = LENGTH_MEASURE_WITH_UNIT ( LENGTH_MEASURE( 0.02539999999999999897 ), #142 );
#263 = AXIS2_PLACEMENT_3D ( 'NONE', #259, #168, #144 ) ;
#264 = DIRECTION ( 'NONE',  ( -0.000000000000000000, -1.000000000000000000, -0.000000000000000000 ) ) ;
#265 =( LENGTH_UNIT ( ) NAMED_UNIT ( * ) SI_UNIT ( $, .METRE. ) );
ENDSEC;
END-ISO-10303-21;
