ISO-10303-21;
HEADER;
FILE_DESCRIPTION (( 'STEP AP214' ),
    '1' );
FILE_NAME ('59678.STEP',
    '2023-07-24T15:22:58',
    ( '' ),
    ( '' ),
    'SwSTEP 2.0',
    'SolidWorks 2023',
    '' );
FILE_SCHEMA (( 'AUTOMOTIVE_DESIGN' ));
ENDSEC;

DATA;
#1 = SURFACE_SIDE_STYLE ('',( #253 ) ) ;
#2 =( NAMED_UNIT ( * ) SI_UNIT ( $, .STERADIAN. ) SOLID_ANGLE_UNIT ( ) );
#3 = CARTESIAN_POINT ( 'NONE',  ( -8.000000000000000000, 89.00000000000000000, 0.000000000000000000 ) ) ;
#4 = PLANE ( 'NONE',  #220 ) ;
#5 = AXIS2_PLACEMENT_3D ( 'NONE', #189, #134, #336 ) ;
#6 =( LENGTH_UNIT ( ) NAMED_UNIT ( * ) SI_UNIT ( .MILLI., .METRE. ) );
#7 = ORIENTED_EDGE ( 'NONE', *, *, #170, .T. ) ;
#8 = PRODUCT_DEFINITION ( 'UNKNOWN', '', #90, #139 ) ;
#9 = CARTESIAN_POINT ( 'NONE',  ( 0.000000000000000000, 0.000000000000000000, -8.000000000000000000 ) ) ;
#10 = STYLED_ITEM ( 'NONE', ( #192 ), #148 ) ;
#11 = DIRECTION ( 'NONE',  ( 0.000000000000000000, 0.000000000000000000, -1.000000000000000000 ) ) ;
#12 = SURFACE_STYLE_USAGE ( .BOTH. , #347 ) ;
#13 = CARTESIAN_POINT ( 'NONE',  ( -1.714505518806293849E-15, 89.00000000000000000, 0.000000000000000000 ) ) ;
#14 =( NAMED_UNIT ( * ) PLANE_ANGLE_UNIT ( ) SI_UNIT ( $, .RADIAN. ) );
#15 = UNCERTAINTY_MEASURE_WITH_UNIT (LENGTH_MEASURE( 1.000000000000000082E-05 ), #181, 'distance_accuracy_value', 'NONE');
#16 = CIRCLE ( 'NONE', #225, 8.000000000000001776 ) ;
#17 = ORIENTED_EDGE ( 'NONE', *, *, #244, .T. ) ;
#18 = AXIS2_PLACEMENT_3D ( 'NONE', #108, #169, #130 ) ;
#19 = SURFACE_SIDE_STYLE ('',( #119 ) ) ;
#20 = ORIENTED_EDGE ( 'NONE', *, *, #214, .F. ) ;
#21 = DIRECTION ( 'NONE',  ( -1.224646799147353454E-16, 0.000000000000000000, -1.000000000000000000 ) ) ;
#22 = ADVANCED_FACE ( 'NONE', ( #123 ), #240, .T. ) ;
#23 = DIRECTION ( 'NONE',  ( -1.279215233315390572E-16, 1.000000000000000000, -0.000000000000000000 ) ) ;
#24 = PRESENTATION_STYLE_ASSIGNMENT (( #334 ) ) ;
#25 = AXIS2_PLACEMENT_3D ( 'NONE', #350, #320, #204 ) ;
#26 = AXIS2_PLACEMENT_3D ( 'NONE', #133, #282, #255 ) ;
#27 = DIRECTION ( 'NONE',  ( 0.000000000000000000, 0.000000000000000000, -1.000000000000000000 ) ) ;
#28 = DIRECTION ( 'NONE',  ( -1.279215233315390572E-16, 1.000000000000000000, -0.000000000000000000 ) ) ;
#29 =( NAMED_UNIT ( * ) SI_UNIT ( $, .STERADIAN. ) SOLID_ANGLE_UNIT ( ) );
#30 =( GEOMETRIC_REPRESENTATION_CONTEXT ( 3 ) GLOBAL_UNCERTAINTY_ASSIGNED_CONTEXT ( ( #117 ) ) GLOBAL_UNIT_ASSIGNED_CONTEXT ( ( #234, #140, #175 ) ) REPRESENTATION_CONTEXT ( 'NONE', 'WORKASPACE' ) );
#31 = DIRECTION ( 'NONE',  ( -1.000000000000000000, 0.000000000000000000, 0.000000000000000000 ) ) ;
#32 = DIRECTION ( 'NONE',  ( -0.000000000000000000, -1.000000000000000000, -0.000000000000000000 ) ) ;
#33 = PRESENTATION_LAYER_ASSIGNMENT (  '', '', ( #98 ) ) ;
#34 = DIRECTION ( 'NONE',  ( 0.000000000000000000, 0.000000000000000000, -1.000000000000000000 ) ) ;
#35 = PRODUCT_DEFINITION_SHAPE ( 'NONE', 'NONE',  #8 ) ;
#36 = FILL_AREA_STYLE_COLOUR ( '', #103 ) ;
#37 = VECTOR ( 'NONE', #32, 1000.000000000000000 ) ;
#38 = SURFACE_SIDE_STYLE ('',( #294 ) ) ;
#39 = TOROIDAL_SURFACE ( 'NONE', #325, 7.000000000000000000, 1.000000000000000000 ) ;
#40 = CARTESIAN_POINT ( 'NONE',  ( 0.000000000000000000, 0.000000000000000000, 0.000000000000000000 ) ) ;
#41 = EDGE_CURVE ( 'NONE', #271, #151, #180, .T. ) ;
#42 = EDGE_LOOP ( 'NONE', ( #272, #174, #235, #210 ) ) ;
#43 = FILL_AREA_STYLE ('',( #300 ) ) ;
#44 = AXIS2_PLACEMENT_3D ( 'NONE', #248, #339, #281 ) ;
#45 = ORIENTED_EDGE ( 'NONE', *, *, #317, .F. ) ;
#46 = ADVANCED_FACE ( 'NONE', ( #333 ), #351, .T. ) ;
#47 = DIRECTION ( 'NONE',  ( -0.000000000000000000, -1.000000000000000000, -0.000000000000000000 ) ) ;
#48 = ORIENTED_EDGE ( 'NONE', *, *, #105, .T. ) ;
#49 =( NAMED_UNIT ( * ) SI_UNIT ( $, .STERADIAN. ) SOLID_ANGLE_UNIT ( ) );
#50 =( NAMED_UNIT ( * ) PLANE_ANGLE_UNIT ( ) SI_UNIT ( $, .RADIAN. ) );
#51 = SURFACE_SIDE_STYLE ('',( #270 ) ) ;
#52 = AXIS2_PLACEMENT_3D ( 'NONE', #194, #78, #310 ) ;
#53 = AXIS2_PLACEMENT_3D ( 'NONE', #316, #101, #74 ) ;
#54 = DIRECTION ( 'NONE',  ( -1.000000000000000000, 0.000000000000000000, 0.000000000000000000 ) ) ;
#55 = AXIS2_PLACEMENT_3D ( 'NONE', #100, #273, #223 ) ;
#56 = APPLICATION_PROTOCOL_DEFINITION ( 'draft international standard', 'automotive_design', 1998, #122 ) ;
#57 = DIRECTION ( 'NONE',  ( -0.000000000000000000, -1.000000000000000000, -0.000000000000000000 ) ) ;
#58 = EDGE_CURVE ( 'NONE', #219, #93, #257, .T. ) ;
#59 = CIRCLE ( 'NONE', #264, 7.000000000000000000 ) ;
#60 = CIRCLE ( 'NONE', #18, 8.000000000000000000 ) ;
#61 =( NAMED_UNIT ( * ) SI_UNIT ( $, .STERADIAN. ) SOLID_ANGLE_UNIT ( ) );
#62 = FILL_AREA_STYLE ('',( #142 ) ) ;
#63 = CARTESIAN_POINT ( 'NONE',  ( 9.184850993605147944E-16, 0.000000000000000000, 7.000000000000000000 ) ) ;
#64 = CIRCLE ( 'NONE', #275, 7.999999999999994671 ) ;
#65 = ORIENTED_EDGE ( 'NONE', *, *, #146, .F. ) ;
#66 = CARTESIAN_POINT ( 'NONE',  ( 0.000000000000000000, 0.000000000000000000, 0.000000000000000000 ) ) ;
#67 = ORIENTED_EDGE ( 'NONE', *, *, #191, .F. ) ;
#68 = ORIENTED_EDGE ( 'NONE', *, *, #163, .T. ) ;
#69 = UNCERTAINTY_MEASURE_WITH_UNIT (LENGTH_MEASURE( 1.000000000000000082E-05 ), #358, 'distance_accuracy_value', 'NONE');
#70 = STYLED_ITEM ( 'NONE', ( #243 ), #46 ) ;
#71 = EDGE_LOOP ( 'NONE', ( #346, #7, #20, #67 ) ) ;
#72 =( NAMED_UNIT ( * ) PLANE_ANGLE_UNIT ( ) SI_UNIT ( $, .RADIAN. ) );
#73 = FILL_AREA_STYLE ('',( #274 ) ) ;
#74 = DIRECTION ( 'NONE',  ( 1.000000000000000000, 0.000000000000000000, 0.000000000000000000 ) ) ;
#75 = ADVANCED_FACE ( 'NONE', ( #164 ), #79, .F. ) ;
#76 = SURFACE_STYLE_USAGE ( .BOTH. , #1 ) ;
#77 =( GEOMETRIC_REPRESENTATION_CONTEXT ( 3 ) GLOBAL_UNCERTAINTY_ASSIGNED_CONTEXT ( ( #267 ) ) GLOBAL_UNIT_ASSIGNED_CONTEXT ( ( #102, #50, #285 ) ) REPRESENTATION_CONTEXT ( 'NONE', 'WORKASPACE' ) );
#78 = DIRECTION ( 'NONE',  ( -0.000000000000000000, -1.000000000000000000, -0.000000000000000000 ) ) ;
#79 = PLANE ( 'NONE',  #136 ) ;
#80 = PLANE ( 'NONE',  #26 ) ;
#81 = MECHANICAL_DESIGN_GEOMETRIC_PRESENTATION_REPRESENTATION (  '', ( #246 ), #296 ) ;
#82 = PRESENTATION_STYLE_ASSIGNMENT (( #12 ) ) ;
#83 = EDGE_CURVE ( 'NONE', #151, #182, #340, .T. ) ;
#84 = ORIENTED_EDGE ( 'NONE', *, *, #41, .T. ) ;
#85 = SURFACE_STYLE_FILL_AREA ( #87 ) ;
#86 = CARTESIAN_POINT ( 'NONE',  ( 8.000000000000000000, 40.00000000000000000, 9.797174393178825657E-16 ) ) ;
#87 = FILL_AREA_STYLE ('',( #318 ) ) ;
#88 = EDGE_LOOP ( 'NONE', ( #48, #120 ) ) ;
#89 = PRESENTATION_LAYER_ASSIGNMENT (  '', '', ( #10 ) ) ;
#90 = PRODUCT_DEFINITION_FORMATION_WITH_SPECIFIED_SOURCE ( 'ANY', '', #361, .NOT_KNOWN. ) ;
#91 = CARTESIAN_POINT ( 'NONE',  ( 7.999999999999996447, 89.00000000000000000, 9.797174393178823685E-16 ) ) ;
#92 = DIRECTION ( 'NONE',  ( 0.000000000000000000, 0.000000000000000000, -1.000000000000000000 ) ) ;
#93 = VERTEX_POINT ( 'NONE', #106 ) ;
#94 = DIRECTION ( 'NONE',  ( -1.000000000000000000, 0.000000000000000000, 0.000000000000000000 ) ) ;
#95 = ORIENTED_EDGE ( 'NONE', *, *, #363, .T. ) ;
#96 = VERTEX_POINT ( 'NONE', #227 ) ;
#97 = AXIS2_PLACEMENT_3D ( 'NONE', #277, #249, #338 ) ;
#98 = STYLED_ITEM ( 'NONE', ( #24 ), #301 ) ;
#99 = CARTESIAN_POINT ( 'NONE',  ( 0.000000000000000000, 0.000000000000000000, 0.000000000000000000 ) ) ;
#100 = CARTESIAN_POINT ( 'NONE',  ( -1.714505518806293652E-15, 89.00000000000000000, 0.000000000000000000 ) ) ;
#101 = DIRECTION ( 'NONE',  ( 0.000000000000000000, 0.000000000000000000, 1.000000000000000000 ) ) ;
#102 =( LENGTH_UNIT ( ) NAMED_UNIT ( * ) SI_UNIT ( .MILLI., .METRE. ) );
#103 = COLOUR_RGB ( '',1.000000000000000000, 0.000000000000000000, 0.000000000000000000 ) ;
#104 = MECHANICAL_DESIGN_GEOMETRIC_PRESENTATION_REPRESENTATION (  '', ( #110 ), #150 ) ;
#105 = EDGE_CURVE ( 'NONE', #182, #151, #16, .T. ) ;
#106 = CARTESIAN_POINT ( 'NONE',  ( 9.797174393178825657E-16, 1.000000000000000000, 8.000000000000000000 ) ) ;
#107 = CARTESIAN_POINT ( 'NONE',  ( 8.000000000000000000, 89.00000000000000000, 9.797174393178825657E-16 ) ) ;
#108 = CARTESIAN_POINT ( 'NONE',  ( 0.000000000000000000, 1.000000000000000000, 0.000000000000000000 ) ) ;
#109 = CIRCLE ( 'NONE', #212, 8.000000000000000000 ) ;
#110 = STYLED_ITEM ( 'NONE', ( #327 ), #313 ) ;
#111 =( GEOMETRIC_REPRESENTATION_CONTEXT ( 3 ) GLOBAL_UNCERTAINTY_ASSIGNED_CONTEXT ( ( #241 ) ) GLOBAL_UNIT_ASSIGNED_CONTEXT ( ( #342, #165, #29 ) ) REPRESENTATION_CONTEXT ( 'NONE', 'WORKASPACE' ) );
#112 =( NAMED_UNIT ( * ) PLANE_ANGLE_UNIT ( ) SI_UNIT ( $, .RADIAN. ) );
#113 = FACE_OUTER_BOUND ( 'NONE', #118, .T. ) ;
#114 = CIRCLE ( 'NONE', #159, 8.000000000000000000 ) ;
#115 = AXIS2_PLACEMENT_3D ( 'NONE', #183, #364, #329 ) ;
#116 =( NAMED_UNIT ( * ) PLANE_ANGLE_UNIT ( ) SI_UNIT ( $, .RADIAN. ) );
#117 = UNCERTAINTY_MEASURE_WITH_UNIT (LENGTH_MEASURE( 1.000000000000000082E-05 ), #234, 'distance_accuracy_value', 'NONE');
#118 = EDGE_LOOP ( 'NONE', ( #215, #326, #357, #45 ) ) ;
#119 = SURFACE_STYLE_FILL_AREA ( #73 ) ;
#120 = ORIENTED_EDGE ( 'NONE', *, *, #83, .T. ) ;
#121 = UNCERTAINTY_MEASURE_WITH_UNIT (LENGTH_MEASURE( 1.000000000000000082E-05 ), #265, 'distance_accuracy_value', 'NONE');
#122 = APPLICATION_CONTEXT ( 'automotive_design' ) ;
#123 = FACE_OUTER_BOUND ( 'NONE', #178, .T. ) ;
#124 = DIRECTION ( 'NONE',  ( -1.000000000000000000, 0.000000000000000000, 0.000000000000000000 ) ) ;
#125 = PLANE ( 'NONE',  #115 ) ;
#126 = FACE_OUTER_BOUND ( 'NONE', #260, .T. ) ;
#127 = COLOUR_RGB ( '',1.000000000000000000, 0.000000000000000000, 0.000000000000000000 ) ;
#128 = FILL_AREA_STYLE_COLOUR ( '', #238 ) ;
#129 = DIRECTION ( 'NONE',  ( 0.000000000000000000, 0.000000000000000000, -1.000000000000000000 ) ) ;
#130 = DIRECTION ( 'NONE',  ( 0.000000000000000000, 0.000000000000000000, -1.000000000000000000 ) ) ;
#131 = CARTESIAN_POINT ( 'NONE',  ( 0.000000000000000000, 40.00000000000000000, 0.000000000000000000 ) ) ;
#132 = DIRECTION ( 'NONE',  ( -1.279215233315390572E-16, 1.000000000000000000, -0.000000000000000000 ) ) ;
#133 = CARTESIAN_POINT ( 'NONE',  ( 0.000000000000000000, 40.00000000000000000, 0.000000000000000000 ) ) ;
#134 = DIRECTION ( 'NONE',  ( -1.279215233315390572E-16, 1.000000000000000000, -0.000000000000000000 ) ) ;
#135 = ORIENTED_EDGE ( 'NONE', *, *, #163, .F. ) ;
#136 = AXIS2_PLACEMENT_3D ( 'NONE', #196, #254, #187 ) ;
#137 = CIRCLE ( 'NONE', #324, 1.000000000000000000 ) ;
#138 = PRESENTATION_STYLE_ASSIGNMENT (( #259 ) ) ;
#139 = PRODUCT_DEFINITION_CONTEXT ( 'detailed design', #262, 'design' ) ;
#140 =( NAMED_UNIT ( * ) PLANE_ANGLE_UNIT ( ) SI_UNIT ( $, .RADIAN. ) );
#141 = LINE ( 'NONE', #236, #176 ) ;
#142 = FILL_AREA_STYLE_COLOUR ( '', #366 ) ;
#143 = MECHANICAL_DESIGN_GEOMETRIC_PRESENTATION_REPRESENTATION (  '', ( #98 ), #276 ) ;
#144 = CARTESIAN_POINT ( 'NONE',  ( 0.000000000000000000, 0.000000000000000000, 0.000000000000000000 ) ) ;
#145 = ORIENTED_EDGE ( 'NONE', *, *, #317, .T. ) ;
#146 = EDGE_CURVE ( 'NONE', #349, #182, #229, .T. ) ;
#147 = DIRECTION ( 'NONE',  ( -0.000000000000000000, -1.000000000000000000, -0.000000000000000000 ) ) ;
#148 = MANIFOLD_SOLID_BREP ( 'Revolve - Cutting Edge', #369 ) ;
#149 = COLOUR_RGB ( '',0.7921568627450980005, 0.8196078431372548767, 0.9333333333333333481 ) ;
#150 =( GEOMETRIC_REPRESENTATION_CONTEXT ( 3 ) GLOBAL_UNCERTAINTY_ASSIGNED_CONTEXT ( ( #15 ) ) GLOBAL_UNIT_ASSIGNED_CONTEXT ( ( #181, #303, #152 ) ) REPRESENTATION_CONTEXT ( 'NONE', 'WORKASPACE' ) );
#151 = VERTEX_POINT ( 'NONE', #107 ) ;
#152 =( NAMED_UNIT ( * ) SI_UNIT ( $, .STERADIAN. ) SOLID_ANGLE_UNIT ( ) );
#153 = UNCERTAINTY_MEASURE_WITH_UNIT (LENGTH_MEASURE( 1.000000000000000082E-05 ), #6, 'distance_accuracy_value', 'NONE');
#154 = ORIENTED_EDGE ( 'NONE', *, *, #105, .F. ) ;
#155 = EDGE_CURVE ( 'NONE', #96, #217, #109, .T. ) ;
#156 =( NAMED_UNIT ( * ) SI_UNIT ( $, .STERADIAN. ) SOLID_ANGLE_UNIT ( ) );
#157 =( NAMED_UNIT ( * ) SI_UNIT ( $, .STERADIAN. ) SOLID_ANGLE_UNIT ( ) );
#158 =( GEOMETRIC_REPRESENTATION_CONTEXT ( 3 ) GLOBAL_UNCERTAINTY_ASSIGNED_CONTEXT ( ( #121 ) ) GLOBAL_UNIT_ASSIGNED_CONTEXT ( ( #265, #116, #156 ) ) REPRESENTATION_CONTEXT ( 'NONE', 'WORKASPACE' ) );
#159 = AXIS2_PLACEMENT_3D ( 'NONE', #221, #47, #288 ) ;
#160 =( GEOMETRIC_REPRESENTATION_CONTEXT ( 3 ) GLOBAL_UNCERTAINTY_ASSIGNED_CONTEXT ( ( #218 ) ) GLOBAL_UNIT_ASSIGNED_CONTEXT ( ( #344, #161, #2 ) ) REPRESENTATION_CONTEXT ( 'NONE', 'WORKASPACE' ) );
#161 =( NAMED_UNIT ( * ) PLANE_ANGLE_UNIT ( ) SI_UNIT ( $, .RADIAN. ) );
#162 = CARTESIAN_POINT ( 'NONE',  ( -7.999999999999989342, 40.00000000000000000, 0.000000000000000000 ) ) ;
#163 = EDGE_CURVE ( 'NONE', #271, #349, #64, .T. ) ;
#164 = FACE_OUTER_BOUND ( 'NONE', #88, .T. ) ;
#165 =( NAMED_UNIT ( * ) PLANE_ANGLE_UNIT ( ) SI_UNIT ( $, .RADIAN. ) );
#166 = CARTESIAN_POINT ( 'NONE',  ( -1.714505518806293652E-15, 89.00000000000000000, 0.000000000000000000 ) ) ;
#167 = PRESENTATION_LAYER_ASSIGNMENT (  '', '', ( #70 ) ) ;
#168 = PRESENTATION_LAYER_ASSIGNMENT (  '', '', ( #184 ) ) ;
#169 = DIRECTION ( 'NONE',  ( -0.000000000000000000, -1.000000000000000000, -0.000000000000000000 ) ) ;
#170 = EDGE_CURVE ( 'NONE', #93, #205, #137, .T. ) ;
#171 = SURFACE_SIDE_STYLE ('',( #290 ) ) ;
#172 = STYLED_ITEM ( 'NONE', ( #195 ), #322 ) ;
#173 = SURFACE_STYLE_USAGE ( .BOTH. , #321 ) ;
#174 = ORIENTED_EDGE ( 'NONE', *, *, #155, .T. ) ;
#175 =( NAMED_UNIT ( * ) SI_UNIT ( $, .STERADIAN. ) SOLID_ANGLE_UNIT ( ) );
#176 = VECTOR ( 'NONE', #291, 1000.000000000000000 ) ;
#177 = COLOUR_RGB ( '',1.000000000000000000, 0.000000000000000000, 0.000000000000000000 ) ;
#178 = EDGE_LOOP ( 'NONE', ( #239, #68, #330, #208 ) ) ;
#179 = EDGE_CURVE ( 'NONE', #217, #96, #114, .T. ) ;
#180 = LINE ( 'NONE', #91, #263 ) ;
#181 =( LENGTH_UNIT ( ) NAMED_UNIT ( * ) SI_UNIT ( .MILLI., .METRE. ) );
#182 = VERTEX_POINT ( 'NONE', #224 ) ;
#183 = CARTESIAN_POINT ( 'NONE',  ( 4.553649124439118623E-15, 40.00000000000000000, 0.000000000000000000 ) ) ;
#184 = STYLED_ITEM ( 'NONE', ( #82 ), #202 ) ;
#185 = EDGE_LOOP ( 'NONE', ( #362, #355 ) ) ;
#186 = ADVANCED_FACE ( 'NONE', ( #126 ), #201, .T. ) ;
#187 = DIRECTION ( 'NONE',  ( 1.000000000000000000, 1.279215233315390572E-16, 0.000000000000000000 ) ) ;
#188 = SURFACE_STYLE_USAGE ( .BOTH. , #19 ) ;
#189 = CARTESIAN_POINT ( 'NONE',  ( -1.714505518806293849E-15, 89.00000000000000000, 0.000000000000000000 ) ) ;
#190 = PRODUCT_CONTEXT ( 'NONE', #122, 'mechanical' ) ;
#191 = EDGE_CURVE ( 'NONE', #219, #304, #356, .T. ) ;
#192 = PRESENTATION_STYLE_ASSIGNMENT (( #76 ) ) ;
#193 = FILL_AREA_STYLE ('',( #128 ) ) ;
#194 = CARTESIAN_POINT ( 'NONE',  ( 0.000000000000000000, 0.000000000000000000, 0.000000000000000000 ) ) ;
#195 = PRESENTATION_STYLE_ASSIGNMENT (( #197 ) ) ;
#196 = CARTESIAN_POINT ( 'NONE',  ( 8.000000000000000000, 89.00000000000000000, 0.000000000000000000 ) ) ;
#197 = SURFACE_STYLE_USAGE ( .BOTH. , #287 ) ;
#198 = MECHANICAL_DESIGN_GEOMETRIC_PRESENTATION_REPRESENTATION (  '', ( #70 ), #158 ) ;
#199 = DIRECTION ( 'NONE',  ( -0.000000000000000000, -1.000000000000000000, -0.000000000000000000 ) ) ;
#200 = PRESENTATION_LAYER_ASSIGNMENT (  '', '', ( #110 ) ) ;
#201 = CYLINDRICAL_SURFACE ( 'NONE', #5, 7.999999999999998224 ) ;
#202 = ADVANCED_FACE ( 'NONE', ( #256 ), #4, .T. ) ;
#203 = DIRECTION ( 'NONE',  ( 0.000000000000000000, -1.000000000000000000, -0.000000000000000000 ) ) ;
#204 = DIRECTION ( 'NONE',  ( 0.000000000000000000, 0.000000000000000000, -1.000000000000000000 ) ) ;
#205 = VERTEX_POINT ( 'NONE', #63 ) ;
#206 = MECHANICAL_DESIGN_GEOMETRIC_PRESENTATION_REPRESENTATION (  '', ( #370 ), #242 ) ;
#207 = CYLINDRICAL_SURFACE ( 'NONE', #315, 8.000000000000000000 ) ;
#208 = ORIENTED_EDGE ( 'NONE', *, *, #83, .F. ) ;
#209 = PRESENTATION_STYLE_ASSIGNMENT (( #173 ) ) ;
#210 = ORIENTED_EDGE ( 'NONE', *, *, #335, .F. ) ;
#211 = COLOUR_RGB ( '',1.000000000000000000, 0.000000000000000000, 0.000000000000000000 ) ;
#212 = AXIS2_PLACEMENT_3D ( 'NONE', #131, #280, #129 ) ;
#213 = CIRCLE ( 'NONE', #247, 7.000000000000000000 ) ;
#214 = EDGE_CURVE ( 'NONE', #304, #205, #59, .T. ) ;
#215 = ORIENTED_EDGE ( 'NONE', *, *, #170, .F. ) ;
#216 = FACE_OUTER_BOUND ( 'NONE', #359, .T. ) ;
#217 = VERTEX_POINT ( 'NONE', #266 ) ;
#218 = UNCERTAINTY_MEASURE_WITH_UNIT (LENGTH_MEASURE( 1.000000000000000082E-05 ), #344, 'distance_accuracy_value', 'NONE');
#219 = VERTEX_POINT ( 'NONE', #292 ) ;
#220 = AXIS2_PLACEMENT_3D ( 'NONE', #40, #203, #34 ) ;
#221 = CARTESIAN_POINT ( 'NONE',  ( 0.000000000000000000, 40.00000000000000000, 0.000000000000000000 ) ) ;
#222 = DIRECTION ( 'NONE',  ( -1.279215233315390572E-16, 1.000000000000000000, -0.000000000000000000 ) ) ;
#223 = DIRECTION ( 'NONE',  ( -1.000000000000000000, 0.000000000000000000, 0.000000000000000000 ) ) ;
#224 = CARTESIAN_POINT ( 'NONE',  ( -8.000000000000003553, 89.00000000000000000, 0.000000000000000000 ) ) ;
#225 = AXIS2_PLACEMENT_3D ( 'NONE', #166, #28, #31 ) ;
#226 = MECHANICAL_DESIGN_GEOMETRIC_PRESENTATION_REPRESENTATION (  '', ( #10 ), #77 ) ;
#227 = CARTESIAN_POINT ( 'NONE',  ( 9.797174393178825657E-16, 40.00000000000000000, 8.000000000000000000 ) ) ;
#228 = DIRECTION ( 'NONE',  ( 0.000000000000000000, 0.000000000000000000, -1.000000000000000000 ) ) ;
#229 = LINE ( 'NONE', #3, #232 ) ;
#230 = SURFACE_STYLE_FILL_AREA ( #193 ) ;
#231 = ORIENTED_EDGE ( 'NONE', *, *, #179, .T. ) ;
#232 = VECTOR ( 'NONE', #337, 1000.000000000000000 ) ;
#233 = CIRCLE ( 'NONE', #332, 7.999999999999994671 ) ;
#234 =( LENGTH_UNIT ( ) NAMED_UNIT ( * ) SI_UNIT ( .MILLI., .METRE. ) );
#235 = ORIENTED_EDGE ( 'NONE', *, *, #250, .T. ) ;
#236 = CARTESIAN_POINT ( 'NONE',  ( 9.797174393178825657E-16, 0.000000000000000000, 8.000000000000000000 ) ) ;
#237 = PRESENTATION_LAYER_ASSIGNMENT (  '', '', ( #370 ) ) ;
#238 = COLOUR_RGB ( '',1.000000000000000000, 0.000000000000000000, 0.000000000000000000 ) ;
#239 = ORIENTED_EDGE ( 'NONE', *, *, #41, .F. ) ;
#240 = CYLINDRICAL_SURFACE ( 'NONE', #295, 7.999999999999998224 ) ;
#241 = UNCERTAINTY_MEASURE_WITH_UNIT (LENGTH_MEASURE( 1.000000000000000082E-05 ), #342, 'distance_accuracy_value', 'NONE');
#242 =( GEOMETRIC_REPRESENTATION_CONTEXT ( 3 ) GLOBAL_UNCERTAINTY_ASSIGNED_CONTEXT ( ( #69 ) ) GLOBAL_UNIT_ASSIGNED_CONTEXT ( ( #358, #72, #157 ) ) REPRESENTATION_CONTEXT ( 'NONE', 'WORKASPACE' ) );
#243 = PRESENTATION_STYLE_ASSIGNMENT (( #245 ) ) ;
#244 = EDGE_CURVE ( 'NONE', #96, #93, #141, .T. ) ;
#245 = SURFACE_STYLE_USAGE ( .BOTH. , #38 ) ;
#246 = STYLED_ITEM ( 'NONE', ( #138 ), #283 ) ;
#247 = AXIS2_PLACEMENT_3D ( 'NONE', #99, #199, #228 ) ;
#248 = CARTESIAN_POINT ( 'NONE',  ( 0.000000000000000000, 1.000000000000000000, 0.000000000000000000 ) ) ;
#249 = DIRECTION ( 'NONE',  ( -1.000000000000000000, 0.000000000000000000, 0.000000000000000000 ) ) ;
#250 = EDGE_CURVE ( 'NONE', #217, #219, #348, .T. ) ;
#251 = CARTESIAN_POINT ( 'NONE',  ( 4.553649124439119412E-15, 40.00000000000000000, 0.000000000000000000 ) ) ;
#252 = CARTESIAN_POINT ( 'NONE',  ( 0.000000000000000000, 1.000000000000000000, 0.000000000000000000 ) ) ;
#253 = SURFACE_STYLE_FILL_AREA ( #314 ) ;
#254 = DIRECTION ( 'NONE',  ( 1.279215233315390572E-16, -1.000000000000000000, 0.000000000000000000 ) ) ;
#255 = DIRECTION ( 'NONE',  ( 0.000000000000000000, -0.000000000000000000, 1.000000000000000000 ) ) ;
#256 = FACE_OUTER_BOUND ( 'NONE', #302, .T. ) ;
#257 = CIRCLE ( 'NONE', #44, 8.000000000000000000 ) ;
#258 = ORIENTED_EDGE ( 'NONE', *, *, #214, .T. ) ;
#259 = SURFACE_STYLE_USAGE ( .BOTH. , #171 ) ;
#260 = EDGE_LOOP ( 'NONE', ( #95, #84, #154, #65 ) ) ;
#261 = FILL_AREA_STYLE ('',( #36 ) ) ;
#262 = APPLICATION_CONTEXT ( 'automotive_design' ) ;
#263 = VECTOR ( 'NONE', #222, 1000.000000000000000 ) ;
#264 = AXIS2_PLACEMENT_3D ( 'NONE', #144, #57, #11 ) ;
#265 =( LENGTH_UNIT ( ) NAMED_UNIT ( * ) SI_UNIT ( .MILLI., .METRE. ) );
#266 = CARTESIAN_POINT ( 'NONE',  ( 0.000000000000000000, 40.00000000000000000, -8.000000000000000000 ) ) ;
#267 = UNCERTAINTY_MEASURE_WITH_UNIT (LENGTH_MEASURE( 1.000000000000000082E-05 ), #102, 'distance_accuracy_value', 'NONE');
#268 = ORIENTED_EDGE ( 'NONE', *, *, #250, .F. ) ;
#269 = CARTESIAN_POINT ( 'NONE',  ( 0.000000000000000000, 0.000000000000000000, -7.000000000000000000 ) ) ;
#270 = SURFACE_STYLE_FILL_AREA ( #360 ) ;
#271 = VERTEX_POINT ( 'NONE', #86 ) ;
#272 = ORIENTED_EDGE ( 'NONE', *, *, #244, .F. ) ;
#273 = DIRECTION ( 'NONE',  ( -1.279215233315390572E-16, 1.000000000000000000, -0.000000000000000000 ) ) ;
#274 = FILL_AREA_STYLE_COLOUR ( '', #177 ) ;
#275 = AXIS2_PLACEMENT_3D ( 'NONE', #251, #367, #94 ) ;
#276 =( GEOMETRIC_REPRESENTATION_CONTEXT ( 3 ) GLOBAL_UNCERTAINTY_ASSIGNED_CONTEXT ( ( #353 ) ) GLOBAL_UNIT_ASSIGNED_CONTEXT ( ( #331, #14, #49 ) ) REPRESENTATION_CONTEXT ( 'NONE', 'WORKASPACE' ) );
#277 = CARTESIAN_POINT ( 'NONE',  ( 0.000000000000000000, 1.000000000000000000, -7.000000000000000000 ) ) ;
#278 = MECHANICAL_DESIGN_GEOMETRIC_PRESENTATION_REPRESENTATION (  '', ( #172 ), #111 ) ;
#279 = SHAPE_DEFINITION_REPRESENTATION ( #35, #289 ) ;
#280 = DIRECTION ( 'NONE',  ( -0.000000000000000000, -1.000000000000000000, -0.000000000000000000 ) ) ;
#281 = DIRECTION ( 'NONE',  ( 0.000000000000000000, 0.000000000000000000, -1.000000000000000000 ) ) ;
#282 = DIRECTION ( 'NONE',  ( 0.000000000000000000, 1.000000000000000000, 0.000000000000000000 ) ) ;
#283 = ADVANCED_FACE ( 'NONE', ( #113 ), #345, .T. ) ;
#284 = COLOUR_RGB ( '',0.7921568627450980005, 0.8196078431372548767, 0.9333333333333333481 ) ;
#285 =( NAMED_UNIT ( * ) SI_UNIT ( $, .STERADIAN. ) SOLID_ANGLE_UNIT ( ) );
#286 = MANIFOLD_SOLID_BREP ( 'Revolve - Tool Body (Straight Shanked)', #365 ) ;
#287 = SURFACE_SIDE_STYLE ('',( #230 ) ) ;
#288 = DIRECTION ( 'NONE',  ( 0.000000000000000000, 0.000000000000000000, -1.000000000000000000 ) ) ;
#289 = ADVANCED_BREP_SHAPE_REPRESENTATION ( '59678', ( #148, #286, #53 ), #160 ) ;
#290 = SURFACE_STYLE_FILL_AREA ( #261 ) ;
#291 = DIRECTION ( 'NONE',  ( -0.000000000000000000, -1.000000000000000000, -0.000000000000000000 ) ) ;
#292 = CARTESIAN_POINT ( 'NONE',  ( 0.000000000000000000, 1.000000000000000000, -8.000000000000000000 ) ) ;
#293 = PRODUCT_RELATED_PRODUCT_CATEGORY ( 'part', '', ( #361 ) ) ;
#294 = SURFACE_STYLE_FILL_AREA ( #43 ) ;
#295 = AXIS2_PLACEMENT_3D ( 'NONE', #13, #23, #124 ) ;
#296 =( GEOMETRIC_REPRESENTATION_CONTEXT ( 3 ) GLOBAL_UNCERTAINTY_ASSIGNED_CONTEXT ( ( #153 ) ) GLOBAL_UNIT_ASSIGNED_CONTEXT ( ( #6, #112, #61 ) ) REPRESENTATION_CONTEXT ( 'NONE', 'WORKASPACE' ) );
#297 = SURFACE_STYLE_FILL_AREA ( #62 ) ;
#298 = PRESENTATION_LAYER_ASSIGNMENT (  '', '', ( #172 ) ) ;
#299 = ORIENTED_EDGE ( 'NONE', *, *, #363, .F. ) ;
#300 = FILL_AREA_STYLE_COLOUR ( '', #211 ) ;
#301 = ADVANCED_FACE ( 'NONE', ( #305 ), #207, .T. ) ;
#302 = EDGE_LOOP ( 'NONE', ( #258, #145 ) ) ;
#303 =( NAMED_UNIT ( * ) PLANE_ANGLE_UNIT ( ) SI_UNIT ( $, .RADIAN. ) );
#304 = VERTEX_POINT ( 'NONE', #269 ) ;
#305 = FACE_OUTER_BOUND ( 'NONE', #42, .T. ) ;
#306 = DIRECTION ( 'NONE',  ( 1.000000000000000000, 0.000000000000000000, -1.224646799147353207E-16 ) ) ;
#307 = FACE_OUTER_BOUND ( 'NONE', #71, .T. ) ;
#308 = ADVANCED_FACE ( 'NONE', ( #216 ), #125, .F. ) ;
#309 = APPLICATION_PROTOCOL_DEFINITION ( 'draft international standard', 'automotive_design', 1998, #262 ) ;
#310 = DIRECTION ( 'NONE',  ( 0.000000000000000000, 0.000000000000000000, -1.000000000000000000 ) ) ;
#311 = FILL_AREA_STYLE_COLOUR ( '', #284 ) ;
#312 = CARTESIAN_POINT ( 'NONE',  ( 4.553649124439119412E-15, 40.00000000000000000, 0.000000000000000000 ) ) ;
#313 = ADVANCED_FACE ( 'NONE', ( #307 ), #39, .T. ) ;
#314 = FILL_AREA_STYLE ('',( #311 ) ) ;
#315 = AXIS2_PLACEMENT_3D ( 'NONE', #66, #147, #92 ) ;
#316 = CARTESIAN_POINT ( 'NONE',  ( 0.000000000000000000, 0.000000000000000000, 0.000000000000000000 ) ) ;
#317 = EDGE_CURVE ( 'NONE', #205, #304, #213, .T. ) ;
#318 = FILL_AREA_STYLE_COLOUR ( '', #149 ) ;
#319 = PRESENTATION_LAYER_ASSIGNMENT (  '', '', ( #246 ) ) ;
#320 = DIRECTION ( 'NONE',  ( -0.000000000000000000, -1.000000000000000000, -0.000000000000000000 ) ) ;
#321 = SURFACE_SIDE_STYLE ('',( #85 ) ) ;
#322 = ADVANCED_FACE ( 'NONE', ( #368 ), #80, .T. ) ;
#323 = EDGE_LOOP ( 'NONE', ( #231, #17, #328, #268 ) ) ;
#324 = AXIS2_PLACEMENT_3D ( 'NONE', #354, #306, #21 ) ;
#325 = AXIS2_PLACEMENT_3D ( 'NONE', #252, #343, #27 ) ;
#326 = ORIENTED_EDGE ( 'NONE', *, *, #335, .T. ) ;
#327 = PRESENTATION_STYLE_ASSIGNMENT (( #188 ) ) ;
#328 = ORIENTED_EDGE ( 'NONE', *, *, #58, .F. ) ;
#329 = DIRECTION ( 'NONE',  ( -1.000000000000000000, -1.279215233315390572E-16, 0.000000000000000000 ) ) ;
#330 = ORIENTED_EDGE ( 'NONE', *, *, #146, .T. ) ;
#331 =( LENGTH_UNIT ( ) NAMED_UNIT ( * ) SI_UNIT ( .MILLI., .METRE. ) );
#332 = AXIS2_PLACEMENT_3D ( 'NONE', #312, #132, #54 ) ;
#333 = FACE_OUTER_BOUND ( 'NONE', #323, .T. ) ;
#334 = SURFACE_STYLE_USAGE ( .BOTH. , #51 ) ;
#335 = EDGE_CURVE ( 'NONE', #93, #219, #60, .T. ) ;
#336 = DIRECTION ( 'NONE',  ( -1.000000000000000000, 0.000000000000000000, 0.000000000000000000 ) ) ;
#337 = DIRECTION ( 'NONE',  ( -1.279215233315390572E-16, 1.000000000000000000, -0.000000000000000000 ) ) ;
#338 = DIRECTION ( 'NONE',  ( 0.000000000000000000, 0.000000000000000000, 1.000000000000000000 ) ) ;
#339 = DIRECTION ( 'NONE',  ( -0.000000000000000000, -1.000000000000000000, -0.000000000000000000 ) ) ;
#340 = CIRCLE ( 'NONE', #55, 8.000000000000001776 ) ;
#341 = MECHANICAL_DESIGN_GEOMETRIC_PRESENTATION_REPRESENTATION (  '', ( #184 ), #30 ) ;
#342 =( LENGTH_UNIT ( ) NAMED_UNIT ( * ) SI_UNIT ( .MILLI., .METRE. ) );
#343 = DIRECTION ( 'NONE',  ( -0.000000000000000000, -1.000000000000000000, -0.000000000000000000 ) ) ;
#344 =( LENGTH_UNIT ( ) NAMED_UNIT ( * ) SI_UNIT ( .MILLI., .METRE. ) );
#345 = TOROIDAL_SURFACE ( 'NONE', #25, 7.000000000000000000, 1.000000000000000000 ) ;
#346 = ORIENTED_EDGE ( 'NONE', *, *, #58, .T. ) ;
#347 = SURFACE_SIDE_STYLE ('',( #297 ) ) ;
#348 = LINE ( 'NONE', #9, #37 ) ;
#349 = VERTEX_POINT ( 'NONE', #162 ) ;
#350 = CARTESIAN_POINT ( 'NONE',  ( 0.000000000000000000, 1.000000000000000000, 0.000000000000000000 ) ) ;
#351 = CYLINDRICAL_SURFACE ( 'NONE', #52, 8.000000000000000000 ) ;
#352 = FILL_AREA_STYLE_COLOUR ( '', #127 ) ;
#353 = UNCERTAINTY_MEASURE_WITH_UNIT (LENGTH_MEASURE( 1.000000000000000082E-05 ), #331, 'distance_accuracy_value', 'NONE');
#354 = CARTESIAN_POINT ( 'NONE',  ( 8.572527594031473190E-16, 1.000000000000000000, 7.000000000000000000 ) ) ;
#355 = ORIENTED_EDGE ( 'NONE', *, *, #155, .F. ) ;
#356 = CIRCLE ( 'NONE', #97, 1.000000000000000000 ) ;
#357 = ORIENTED_EDGE ( 'NONE', *, *, #191, .T. ) ;
#358 =( LENGTH_UNIT ( ) NAMED_UNIT ( * ) SI_UNIT ( .MILLI., .METRE. ) );
#359 = EDGE_LOOP ( 'NONE', ( #299, #135 ) ) ;
#360 = FILL_AREA_STYLE ('',( #352 ) ) ;
#361 = PRODUCT ( '59678', '59678', '', ( #190 ) ) ;
#362 = ORIENTED_EDGE ( 'NONE', *, *, #179, .F. ) ;
#363 = EDGE_CURVE ( 'NONE', #349, #271, #233, .T. ) ;
#364 = DIRECTION ( 'NONE',  ( -1.279215233315390572E-16, 1.000000000000000000, 0.000000000000000000 ) ) ;
#365 = CLOSED_SHELL ( 'NONE', ( #186, #308, #22, #75 ) ) ;
#366 = COLOUR_RGB ( '',1.000000000000000000, 0.000000000000000000, 0.000000000000000000 ) ;
#367 = DIRECTION ( 'NONE',  ( -1.279215233315390572E-16, 1.000000000000000000, -0.000000000000000000 ) ) ;
#368 = FACE_OUTER_BOUND ( 'NONE', #185, .T. ) ;
#369 = CLOSED_SHELL ( 'NONE', ( #46, #313, #202, #283, #301, #322 ) ) ;
#370 = STYLED_ITEM ( 'NONE', ( #209 ), #286 ) ;
ENDSEC;
END-ISO-10303-21;
