ISO-10303-21;
HEADER;
FILE_DESCRIPTION (( 'STEP AP214' ),
    '1' );
FILE_NAME ('Micro_GEM-031-2X.STEP',
    '2021-09-01T18:45:55',
    ( '' ),
    ( '' ),
    'SwSTEP 2.0',
    'SolidWorks 2020',
    '' );
FILE_SCHEMA (( 'AUTOMOTIVE_DESIGN' ));
ENDSEC;

DATA;
#1 = AXIS2_PLACEMENT_3D ( 'NONE', #54, #239, #8 ) ;
#2 = VERTEX_POINT ( 'NONE', #11 ) ;
#3 = ORIENTED_EDGE ( 'NONE', *, *, #201, .F. ) ;
#4 = CIRCLE ( 'NONE', #51, 0.01558440000000000519 ) ;
#5 = CARTESIAN_POINT ( 'NONE',  ( 0.0000000000000000000, 0.0000000000000000000, 0.0000000000000000000 ) ) ;
#6 =( NAMED_UNIT ( * ) PLANE_ANGLE_UNIT ( ) SI_UNIT ( $, .RADIAN. ) );
#7 = UNCERTAINTY_MEASURE_WITH_UNIT (LENGTH_MEASURE( 1.000000000000000082E-05 ), #170, 'distance_accuracy_value', 'NONE');
#8 = DIRECTION ( 'NONE',  ( 1.000000000000000000, 0.0000000000000000000, 0.0000000000000000000 ) ) ;
#9 = DIRECTION ( 'NONE',  ( 0.0000000000000000000, 0.0000000000000000000, 1.000000000000000000 ) ) ;
#10 = PLANE ( 'NONE',  #45 ) ;
#11 = CARTESIAN_POINT ( 'NONE',  ( 0.06250000000000002776, 7.654042494670959086E-18, 1.485000000000000764 ) ) ;
#12 = CARTESIAN_POINT ( 'NONE',  ( 9.552245033349369302E-18, 0.0000000000000000000, 0.07800000000000009703 ) ) ;
#13 = FACE_OUTER_BOUND ( 'NONE', #248, .T. ) ;
#14 = CARTESIAN_POINT ( 'NONE',  ( -0.01558440000000000866, 0.0000000000000000000, 1.908538557663203017E-18 ) ) ;
#15 = CYLINDRICAL_SURFACE ( 'NONE', #241, 0.01558440000000000866 ) ;
#16 = LINE ( 'NONE', #14, #155 ) ;
#17 = ADVANCED_FACE ( 'NONE', ( #207 ), #27, .T. ) ;
#18 = EDGE_CURVE ( 'NONE', #97, #203, #48, .T. ) ;
#19 = EDGE_LOOP ( 'NONE', ( #204, #249, #24, #3 ) ) ;
#20 = ORIENTED_EDGE ( 'NONE', *, *, #111, .F. ) ;
#21 = DIMENSIONAL_EXPONENTS ( 1.000000000000000000, 0.0000000000000000000, 0.0000000000000000000, 0.0000000000000000000, 0.0000000000000000000, 0.0000000000000000000, 0.0000000000000000000 ) ;
#22 = CIRCLE ( 'NONE', #179, 0.06250000000000002776 ) ;
#23 = ORIENTED_EDGE ( 'NONE', *, *, #214, .F. ) ;
#24 = ORIENTED_EDGE ( 'NONE', *, *, #158, .T. ) ;
#25 = EDGE_CURVE ( 'NONE', #213, #93, #257, .T. ) ;
#26 = EDGE_LOOP ( 'NONE', ( #137, #271 ) ) ;
#27 = CONICAL_SURFACE ( 'NONE', #105, 0.04750000000000064587, 0.7853981633974466137 ) ;
#28 = LENGTH_MEASURE_WITH_UNIT ( LENGTH_MEASURE( 0.02539999999999999897 ), #76 );
#29 = ORIENTED_EDGE ( 'NONE', *, *, #196, .T. ) ;
#30 = DIRECTION ( 'NONE',  ( 0.1736481776669314414, 0.0000000000000000000, 0.9848077530122077983 ) ) ;
#31 = EDGE_CURVE ( 'NONE', #66, #47, #36, .T. ) ;
#32 = CARTESIAN_POINT ( 'NONE',  ( -0.06250000000000002776, 0.0000000000000000000, 1.485000000000000764 ) ) ;
#33 = CARTESIAN_POINT ( 'NONE',  ( 0.0000000000000000000, 0.0000000000000000000, 1.485000000000000764 ) ) ;
#34 = DIRECTION ( 'NONE',  ( 0.7071067811865462405, 8.659560562354916834E-17, -0.7071067811865486830 ) ) ;
#35 = FACE_OUTER_BOUND ( 'NONE', #275, .T. ) ;
#36 = CIRCLE ( 'NONE', #69, 0.04750000000000064587 ) ;
#37 = CIRCLE ( 'NONE', #269, 0.06250000000000002776 ) ;
#38 = DIRECTION ( 'NONE',  ( -1.000000000000000000, 0.0000000000000000000, 0.0000000000000000000 ) ) ;
#39 = EDGE_CURVE ( 'NONE', #182, #93, #85, .T. ) ;
#40 = CARTESIAN_POINT ( 'NONE',  ( 4.213661705584326685E-17, 0.0000000000000000000, 0.3440715893364552080 ) ) ;
#41 = CIRCLE ( 'NONE', #136, 0.01558440000000000519 ) ;
#42 = MANIFOLD_SOLID_BREP ( 'Cut-Revolve1', #294 ) ;
#43 = ORIENTED_EDGE ( 'NONE', *, *, #226, .T. ) ;
#44 = ORIENTED_EDGE ( 'NONE', *, *, #158, .F. ) ;
#45 = AXIS2_PLACEMENT_3D ( 'NONE', #74, #101, #191 ) ;
#46 = ADVANCED_FACE ( 'NONE', ( #58 ), #259, .T. ) ;
#47 = VERTEX_POINT ( 'NONE', #264 ) ;
#48 = CIRCLE ( 'NONE', #252, 0.01558440000000001387 ) ;
#49 =( GEOMETRIC_REPRESENTATION_CONTEXT ( 3 ) GLOBAL_UNCERTAINTY_ASSIGNED_CONTEXT ( ( #7 ) ) GLOBAL_UNIT_ASSIGNED_CONTEXT ( ( #170, #131, #222 ) ) REPRESENTATION_CONTEXT ( 'NONE', 'WORKASPACE' ) );
#50 = CARTESIAN_POINT ( 'NONE',  ( 2.337285635691549169E-34, 0.0000000000000000000, 1.908538557663203788E-18 ) ) ;
#51 = AXIS2_PLACEMENT_3D ( 'NONE', #242, #263, #56 ) ;
#52 = SURFACE_STYLE_FILL_AREA ( #254 ) ;
#53 = DIRECTION ( 'NONE',  ( -1.224646799147353700E-16, -0.0000000000000000000, -1.000000000000000000 ) ) ;
#54 = CARTESIAN_POINT ( 'NONE',  ( 0.0000000000000000000, 0.0000000000000000000, 1.500000000000000222 ) ) ;
#55 = LINE ( 'NONE', #186, #162 ) ;
#56 = DIRECTION ( 'NONE',  ( -1.000000000000000000, 0.0000000000000000000, 0.0000000000000000000 ) ) ;
#57 = SURFACE_SIDE_STYLE ('',( #296 ) ) ;
#58 = FACE_OUTER_BOUND ( 'NONE', #238, .T. ) ;
#59 =( GEOMETRIC_REPRESENTATION_CONTEXT ( 3 ) GLOBAL_UNCERTAINTY_ASSIGNED_CONTEXT ( ( #142 ) ) GLOBAL_UNIT_ASSIGNED_CONTEXT ( ( #288, #174, #124 ) ) REPRESENTATION_CONTEXT ( 'NONE', 'WORKASPACE' ) );
#60 = DIRECTION ( 'NONE',  ( -0.0000000000000000000, -0.0000000000000000000, -1.000000000000000000 ) ) ;
#61 = CARTESIAN_POINT ( 'NONE',  ( 0.0000000000000000000, 0.0000000000000000000, 0.0000000000000000000 ) ) ;
#62 = EDGE_CURVE ( 'NONE', #180, #203, #16, .T. ) ;
#63 = AXIS2_PLACEMENT_3D ( 'NONE', #95, #218, #168 ) ;
#64 = ORIENTED_EDGE ( 'NONE', *, *, #201, .T. ) ;
#65 = ORIENTED_EDGE ( 'NONE', *, *, #39, .T. ) ;
#66 = VERTEX_POINT ( 'NONE', #291 ) ;
#67 = DIMENSIONAL_EXPONENTS ( 1.000000000000000000, 0.0000000000000000000, 0.0000000000000000000, 0.0000000000000000000, 0.0000000000000000000, 0.0000000000000000000, 0.0000000000000000000 ) ;
#68 = DIRECTION ( 'NONE',  ( 1.000000000000000000, 0.0000000000000000000, 0.0000000000000000000 ) ) ;
#69 = AXIS2_PLACEMENT_3D ( 'NONE', #125, #9, #144 ) ;
#70 = VECTOR ( 'NONE', #148, 39.37007874015748143 ) ;
#71 = ORIENTED_EDGE ( 'NONE', *, *, #104, .F. ) ;
#72 = CARTESIAN_POINT ( 'NONE',  ( 0.0000000000000000000, 0.0000000000000000000, 1.500000000000000222 ) ) ;
#73 = ORIENTED_EDGE ( 'NONE', *, *, #189, .F. ) ;
#74 = CARTESIAN_POINT ( 'NONE',  ( 0.0000000000000000000, 0.0000000000000000000, 1.500000000000000222 ) ) ;
#75 = CARTESIAN_POINT ( 'NONE',  ( -0.01558439999999999652, 4.781290526167081051E-18, 0.07800000000000009703 ) ) ;
#76 =( LENGTH_UNIT ( ) NAMED_UNIT ( * ) SI_UNIT ( $, .METRE. ) );
#77 = CARTESIAN_POINT ( 'NONE',  ( 0.01558440000000000866, 1.908538557663202247E-18, -1.908538557663203017E-18 ) ) ;
#78 = APPLICATION_CONTEXT ( 'automotive_design' ) ;
#79 = CARTESIAN_POINT ( 'NONE',  ( 0.06250000000000006939, 7.654042494670963708E-18, 0.3440715893364552080 ) ) ;
#80 = DIRECTION ( 'NONE',  ( -0.1736481776669312194, 2.126576849575783625E-17, 0.9848077530122077983 ) ) ;
#81 = DIRECTION ( 'NONE',  ( -1.000000000000000000, 0.0000000000000000000, 0.0000000000000000000 ) ) ;
#82 = LENGTH_MEASURE_WITH_UNIT ( LENGTH_MEASURE( 0.02539999999999999897 ), #260 );
#83 = DIRECTION ( 'NONE',  ( -1.224646799147353700E-16, -0.0000000000000000000, -1.000000000000000000 ) ) ;
#84 = LENGTH_MEASURE_WITH_UNIT ( LENGTH_MEASURE( 0.02539999999999999897 ), #290 );
#85 = CIRCLE ( 'NONE', #258, 0.06250000000000002776 ) ;
#86 = VECTOR ( 'NONE', #159, 39.37007874015748143 ) ;
#87 = DIRECTION ( 'NONE',  ( -1.224646799147353700E-16, -0.0000000000000000000, -1.000000000000000000 ) ) ;
#88 = VECTOR ( 'NONE', #30, 39.37007874015748143 ) ;
#89 = AXIS2_PLACEMENT_3D ( 'NONE', #40, #87, #177 ) ;
#90 = VERTEX_POINT ( 'NONE', #32 ) ;
#91 = ADVANCED_FACE ( 'NONE', ( #35 ), #151, .T. ) ;
#92 = ORIENTED_EDGE ( 'NONE', *, *, #251, .T. ) ;
#93 = VERTEX_POINT ( 'NONE', #79 ) ;
#94 = CONICAL_SURFACE ( 'NONE', #128, 0.04750000000000064587, 0.7853981633974466137 ) ;
#95 = CARTESIAN_POINT ( 'NONE',  ( 9.552245033349369302E-18, 0.0000000000000000000, 0.07800000000000009703 ) ) ;
#96 = DIRECTION ( 'NONE',  ( 0.0000000000000000000, 0.0000000000000000000, 1.000000000000000000 ) ) ;
#97 = VERTEX_POINT ( 'NONE', #171 ) ;
#98 = PRODUCT ( 'Micro_GEM-031-2X', 'Micro_GEM-031-2X', '', ( #299 ) ) ;
#99 = COLOUR_RGB ( '',0.7921568627450980005, 0.8196078431372548767, 0.9333333333333333481 ) ;
#100 = FILL_AREA_STYLE_COLOUR ( '', #113 ) ;
#101 = DIRECTION ( 'NONE',  ( 0.0000000000000000000, 0.0000000000000000000, 1.000000000000000000 ) ) ;
#102 = SURFACE_STYLE_USAGE ( .BOTH. , #215 ) ;
#103 = DIRECTION ( 'NONE',  ( -1.224646799147353700E-16, -0.0000000000000000000, -1.000000000000000000 ) ) ;
#104 = EDGE_CURVE ( 'NONE', #180, #213, #4, .T. ) ;
#105 = AXIS2_PLACEMENT_3D ( 'NONE', #160, #164, #210 ) ;
#106 = VECTOR ( 'NONE', #169, 39.37007874015748143 ) ;
#107 = LINE ( 'NONE', #152, #70 ) ;
#108 = DIRECTION ( 'NONE',  ( 1.000000000000000000, 0.0000000000000000000, 0.0000000000000000000 ) ) ;
#109 = SHAPE_DEFINITION_REPRESENTATION ( #277, #206 ) ;
#110 = FILL_AREA_STYLE ('',( #200 ) ) ;
#111 = EDGE_CURVE ( 'NONE', #93, #182, #298, .T. ) ;
#112 = EDGE_LOOP ( 'NONE', ( #135, #228 ) ) ;
#113 = COLOUR_RGB ( '',0.7921568627450980005, 0.8196078431372548767, 0.9333333333333333481 ) ;
#114 = ORIENTED_EDGE ( 'NONE', *, *, #111, .T. ) ;
#115 = AXIS2_PLACEMENT_3D ( 'NONE', #292, #60, #38 ) ;
#116 = EDGE_LOOP ( 'NONE', ( #181, #64, #250, #20 ) ) ;
#117 = ORIENTED_EDGE ( 'NONE', *, *, #25, .T. ) ;
#118 = ADVANCED_FACE ( 'NONE', ( #245 ), #266, .T. ) ;
#119 = AXIS2_PLACEMENT_3D ( 'NONE', #243, #129, #219 ) ;
#120 =( CONVERSION_BASED_UNIT ( 'INCH', #28 ) LENGTH_UNIT ( ) NAMED_UNIT ( #21 ) );
#121 = UNCERTAINTY_MEASURE_WITH_UNIT (LENGTH_MEASURE( 1.000000000000000082E-05 ), #120, 'distance_accuracy_value', 'NONE');
#122 = PRODUCT_DEFINITION ( 'UNKNOWN', '', #199, #209 ) ;
#123 = CARTESIAN_POINT ( 'NONE',  ( 0.01558440000000001387, 0.0000000000000000000, 0.07800000000000009703 ) ) ;
#124 =( NAMED_UNIT ( * ) SI_UNIT ( $, .STERADIAN. ) SOLID_ANGLE_UNIT ( ) );
#125 = CARTESIAN_POINT ( 'NONE',  ( 0.0000000000000000000, 0.0000000000000000000, 1.500000000000000222 ) ) ;
#126 = CARTESIAN_POINT ( 'NONE',  ( -0.01558439999999999652, 1.908538557663201862E-18, 0.07800000000000009703 ) ) ;
#127 = CARTESIAN_POINT ( 'NONE',  ( 0.0000000000000000000, 0.0000000000000000000, 1.485000000000000764 ) ) ;
#128 = AXIS2_PLACEMENT_3D ( 'NONE', #72, #283, #81 ) ;
#129 = DIRECTION ( 'NONE',  ( 1.224646799147353700E-16, 0.0000000000000000000, 1.000000000000000000 ) ) ;
#130 = ADVANCED_FACE ( 'NONE', ( #154 ), #223, .T. ) ;
#131 =( NAMED_UNIT ( * ) PLANE_ANGLE_UNIT ( ) SI_UNIT ( $, .RADIAN. ) );
#132 = STYLED_ITEM ( 'NONE', ( #190 ), #42 ) ;
#133 = CARTESIAN_POINT ( 'NONE',  ( 0.01558440000000001387, 0.0000000000000000000, 0.07800000000000009703 ) ) ;
#134 = ORIENTED_EDGE ( 'NONE', *, *, #267, .F. ) ;
#135 = ORIENTED_EDGE ( 'NONE', *, *, #214, .T. ) ;
#136 = AXIS2_PLACEMENT_3D ( 'NONE', #12, #53, #261 ) ;
#137 = ORIENTED_EDGE ( 'NONE', *, *, #31, .T. ) ;
#138 = MECHANICAL_DESIGN_GEOMETRIC_PRESENTATION_REPRESENTATION (  '', ( #244 ), #49 ) ;
#139 = AXIS2_PLACEMENT_3D ( 'NONE', #193, #173, #220 ) ;
#140 = DIRECTION ( 'NONE',  ( 0.0000000000000000000, 0.0000000000000000000, -1.000000000000000000 ) ) ;
#141 = EDGE_CURVE ( 'NONE', #90, #182, #107, .T. ) ;
#142 = UNCERTAINTY_MEASURE_WITH_UNIT (LENGTH_MEASURE( 1.000000000000000082E-05 ), #288, 'distance_accuracy_value', 'NONE');
#143 = FACE_OUTER_BOUND ( 'NONE', #19, .T. ) ;
#144 = DIRECTION ( 'NONE',  ( 1.000000000000000000, 0.0000000000000000000, 0.0000000000000000000 ) ) ;
#145 = AXIS2_PLACEMENT_3D ( 'NONE', #61, #217, #198 ) ;
#146 = DIRECTION ( 'NONE',  ( -1.224646799147353700E-16, -0.0000000000000000000, -1.000000000000000000 ) ) ;
#147 = DIRECTION ( 'NONE',  ( 1.000000000000000000, 0.0000000000000000000, 0.0000000000000000000 ) ) ;
#148 = DIRECTION ( 'NONE',  ( -0.0000000000000000000, -0.0000000000000000000, -1.000000000000000000 ) ) ;
#149 = MECHANICAL_DESIGN_GEOMETRIC_PRESENTATION_REPRESENTATION (  '', ( #132 ), #216 ) ;
#150 = VECTOR ( 'NONE', #80, 39.37007874015748143 ) ;
#151 = CYLINDRICAL_SURFACE ( 'NONE', #139, 0.01558440000000000866 ) ;
#152 = CARTESIAN_POINT ( 'NONE',  ( -0.06250000000000002776, 0.0000000000000000000, 1.500000000000000222 ) ) ;
#153 = ADVANCED_FACE ( 'NONE', ( #13 ), #15, .T. ) ;
#154 = FACE_OUTER_BOUND ( 'NONE', #224, .T. ) ;
#155 = VECTOR ( 'NONE', #83, 39.37007874015748143 ) ;
#156 = ADVANCED_FACE ( 'NONE', ( #192 ), #208, .T. ) ;
#157 = ORIENTED_EDGE ( 'NONE', *, *, #62, .F. ) ;
#158 = EDGE_CURVE ( 'NONE', #66, #90, #194, .T. ) ;
#159 = DIRECTION ( 'NONE',  ( -0.0000000000000000000, -0.0000000000000000000, -1.000000000000000000 ) ) ;
#160 = CARTESIAN_POINT ( 'NONE',  ( 0.0000000000000000000, 0.0000000000000000000, 1.500000000000000222 ) ) ;
#161 = ADVANCED_FACE ( 'NONE', ( #143 ), #94, .T. ) ;
#162 = VECTOR ( 'NONE', #34, 39.37007874015748854 ) ;
#163 = ORIENTED_EDGE ( 'NONE', *, *, #39, .F. ) ;
#164 = DIRECTION ( 'NONE',  ( 0.0000000000000000000, 0.0000000000000000000, -1.000000000000000000 ) ) ;
#165 = FACE_OUTER_BOUND ( 'NONE', #112, .T. ) ;
#166 = EDGE_LOOP ( 'NONE', ( #230, #43, #163, #205 ) ) ;
#167 = CIRCLE ( 'NONE', #1, 0.04750000000000064587 ) ;
#168 = DIRECTION ( 'NONE',  ( 1.000000000000000000, 0.0000000000000000000, 0.0000000000000000000 ) ) ;
#169 = DIRECTION ( 'NONE',  ( -1.224646799147353700E-16, -0.0000000000000000000, -1.000000000000000000 ) ) ;
#170 =( CONVERSION_BASED_UNIT ( 'INCH', #84 ) LENGTH_UNIT ( ) NAMED_UNIT ( #284 ) );
#171 = CARTESIAN_POINT ( 'NONE',  ( 0.01558440000000001560, 1.908538557663202632E-18, 0.0000000000000000000 ) ) ;
#172 = FACE_OUTER_BOUND ( 'NONE', #26, .T. ) ;
#173 = DIRECTION ( 'NONE',  ( -1.224646799147353700E-16, -0.0000000000000000000, -1.000000000000000000 ) ) ;
#174 =( NAMED_UNIT ( * ) PLANE_ANGLE_UNIT ( ) SI_UNIT ( $, .RADIAN. ) );
#175 = EDGE_CURVE ( 'NONE', #213, #97, #236, .T. ) ;
#176 = CARTESIAN_POINT ( 'NONE',  ( -0.01558440000000001387, 0.0000000000000000000, 3.817077115326407575E-18 ) ) ;
#177 = DIRECTION ( 'NONE',  ( 1.000000000000000000, 0.0000000000000000000, 0.0000000000000000000 ) ) ;
#178 = DIRECTION ( 'NONE',  ( -1.000000000000000000, 0.0000000000000000000, 1.224646799147353700E-16 ) ) ;
#179 = AXIS2_PLACEMENT_3D ( 'NONE', #33, #287, #147 ) ;
#180 = VERTEX_POINT ( 'NONE', #75 ) ;
#181 = ORIENTED_EDGE ( 'NONE', *, *, #226, .F. ) ;
#182 = VERTEX_POINT ( 'NONE', #262 ) ;
#183 = ORIENTED_EDGE ( 'NONE', *, *, #267, .T. ) ;
#184 = ORIENTED_EDGE ( 'NONE', *, *, #175, .T. ) ;
#185 = AXIS2_PLACEMENT_3D ( 'NONE', #5, #96, #187 ) ;
#186 = CARTESIAN_POINT ( 'NONE',  ( 0.04750000000000064587, 5.817072295950006528E-18, 1.500000000000000222 ) ) ;
#187 = DIRECTION ( 'NONE',  ( 1.000000000000000000, 0.0000000000000000000, -0.0000000000000000000 ) ) ;
#188 = DIRECTION ( 'NONE',  ( -1.000000000000000000, 0.0000000000000000000, 0.0000000000000000000 ) ) ;
#189 = EDGE_CURVE ( 'NONE', #47, #66, #167, .T. ) ;
#190 = PRESENTATION_STYLE_ASSIGNMENT (( #102 ) ) ;
#191 = DIRECTION ( 'NONE',  ( 1.000000000000000000, 0.0000000000000000000, -0.0000000000000000000 ) ) ;
#192 = FACE_OUTER_BOUND ( 'NONE', #166, .T. ) ;
#193 = CARTESIAN_POINT ( 'NONE',  ( 0.0000000000000000000, 0.0000000000000000000, 0.0000000000000000000 ) ) ;
#194 = LINE ( 'NONE', #295, #202 ) ;
#195 = SURFACE_STYLE_USAGE ( .BOTH. , #57 ) ;
#196 = EDGE_CURVE ( 'NONE', #47, #2, #55, .T. ) ;
#197 = APPLICATION_CONTEXT ( 'automotive_design' ) ;
#198 = DIRECTION ( 'NONE',  ( 1.000000000000000000, 0.0000000000000000000, 0.0000000000000000000 ) ) ;
#199 = PRODUCT_DEFINITION_FORMATION_WITH_SPECIFIED_SOURCE ( 'ANY', '', #98, .NOT_KNOWN. ) ;
#200 = FILL_AREA_STYLE_COLOUR ( '', #99 ) ;
#201 = EDGE_CURVE ( 'NONE', #2, #90, #37, .T. ) ;
#202 = VECTOR ( 'NONE', #212, 39.37007874015748854 ) ;
#203 = VERTEX_POINT ( 'NONE', #176 ) ;
#204 = ORIENTED_EDGE ( 'NONE', *, *, #196, .F. ) ;
#205 = ORIENTED_EDGE ( 'NONE', *, *, #141, .F. ) ;
#206 = ADVANCED_BREP_SHAPE_REPRESENTATION ( 'Micro_GEM-031-2X', ( #42, #145 ), #59 ) ;
#207 = FACE_OUTER_BOUND ( 'NONE', #232, .T. ) ;
#208 = CYLINDRICAL_SURFACE ( 'NONE', #253, 0.06250000000000002776 ) ;
#209 = PRODUCT_DEFINITION_CONTEXT ( 'detailed design', #197, 'design' ) ;
#210 = DIRECTION ( 'NONE',  ( -1.000000000000000000, 0.0000000000000000000, 0.0000000000000000000 ) ) ;
#211 = AXIS2_PLACEMENT_3D ( 'NONE', #273, #229, #178 ) ;
#212 = DIRECTION ( 'NONE',  ( -0.7071067811865462405, 0.0000000000000000000, -0.7071067811865486830 ) ) ;
#213 = VERTEX_POINT ( 'NONE', #133 ) ;
#214 = EDGE_CURVE ( 'NONE', #203, #97, #280, .T. ) ;
#215 = SURFACE_SIDE_STYLE ('',( #52 ) ) ;
#216 =( GEOMETRIC_REPRESENTATION_CONTEXT ( 3 ) GLOBAL_UNCERTAINTY_ASSIGNED_CONTEXT ( ( #121 ) ) GLOBAL_UNIT_ASSIGNED_CONTEXT ( ( #120, #6, #234 ) ) REPRESENTATION_CONTEXT ( 'NONE', 'WORKASPACE' ) );
#217 = DIRECTION ( 'NONE',  ( 0.0000000000000000000, 0.0000000000000000000, 1.000000000000000000 ) ) ;
#218 = DIRECTION ( 'NONE',  ( 1.224646799147353700E-16, 0.0000000000000000000, 1.000000000000000000 ) ) ;
#219 = DIRECTION ( 'NONE',  ( 1.000000000000000000, 0.0000000000000000000, 0.0000000000000000000 ) ) ;
#220 = DIRECTION ( 'NONE',  ( -1.000000000000000000, 0.0000000000000000000, 1.224646799147353700E-16 ) ) ;
#221 = APPLICATION_PROTOCOL_DEFINITION ( 'draft international standard', 'automotive_design', 1998, #197 ) ;
#222 =( NAMED_UNIT ( * ) SI_UNIT ( $, .STERADIAN. ) SOLID_ANGLE_UNIT ( ) );
#223 = CONICAL_SURFACE ( 'NONE', #119, 0.01558440000000000519, 0.1745329251994339470 ) ;
#224 = EDGE_LOOP ( 'NONE', ( #270, #134, #117, #114 ) ) ;
#225 = ORIENTED_EDGE ( 'NONE', *, *, #25, .F. ) ;
#226 = EDGE_CURVE ( 'NONE', #2, #93, #268, .T. ) ;
#227 = ORIENTED_EDGE ( 'NONE', *, *, #276, .F. ) ;
#228 = ORIENTED_EDGE ( 'NONE', *, *, #18, .T. ) ;
#229 = DIRECTION ( 'NONE',  ( -1.224646799147353700E-16, -0.0000000000000000000, -1.000000000000000000 ) ) ;
#230 = ORIENTED_EDGE ( 'NONE', *, *, #276, .T. ) ;
#231 = PRODUCT_RELATED_PRODUCT_CATEGORY ( 'part', '', ( #98 ) ) ;
#232 = EDGE_LOOP ( 'NONE', ( #73, #29, #227, #44 ) ) ;
#233 = CARTESIAN_POINT ( 'NONE',  ( 0.06250000000000002776, 7.654042494670959086E-18, 1.500000000000000222 ) ) ;
#234 =( NAMED_UNIT ( * ) SI_UNIT ( $, .STERADIAN. ) SOLID_ANGLE_UNIT ( ) );
#235 = DIRECTION ( 'NONE',  ( -1.000000000000000000, 0.0000000000000000000, 1.224646799147353700E-16 ) ) ;
#236 = LINE ( 'NONE', #77, #106 ) ;
#237 = ADVANCED_FACE ( 'NONE', ( #165 ), #285, .F. ) ;
#238 = EDGE_LOOP ( 'NONE', ( #71, #92, #65, #225 ) ) ;
#239 = DIRECTION ( 'NONE',  ( 0.0000000000000000000, 0.0000000000000000000, 1.000000000000000000 ) ) ;
#240 = DIRECTION ( 'NONE',  ( -1.000000000000000000, 0.0000000000000000000, 1.224646799147353700E-16 ) ) ;
#241 = AXIS2_PLACEMENT_3D ( 'NONE', #286, #103, #240 ) ;
#242 = CARTESIAN_POINT ( 'NONE',  ( 9.552245033349369302E-18, 0.0000000000000000000, 0.07800000000000009703 ) ) ;
#243 = CARTESIAN_POINT ( 'NONE',  ( 9.552245033349369302E-18, 0.0000000000000000000, 0.07800000000000009703 ) ) ;
#244 = STYLED_ITEM ( 'NONE', ( #297 ), #206 ) ;
#245 = FACE_OUTER_BOUND ( 'NONE', #116, .T. ) ;
#246 = ORIENTED_EDGE ( 'NONE', *, *, #175, .F. ) ;
#247 = ORIENTED_EDGE ( 'NONE', *, *, #62, .T. ) ;
#248 = EDGE_LOOP ( 'NONE', ( #255, #184, #23, #157 ) ) ;
#249 = ORIENTED_EDGE ( 'NONE', *, *, #31, .F. ) ;
#250 = ORIENTED_EDGE ( 'NONE', *, *, #141, .T. ) ;
#251 = EDGE_CURVE ( 'NONE', #180, #182, #293, .T. ) ;
#252 = AXIS2_PLACEMENT_3D ( 'NONE', #50, #146, #235 ) ;
#253 = AXIS2_PLACEMENT_3D ( 'NONE', #256, #289, #188 ) ;
#254 = FILL_AREA_STYLE ('',( #100 ) ) ;
#255 = ORIENTED_EDGE ( 'NONE', *, *, #104, .T. ) ;
#256 = CARTESIAN_POINT ( 'NONE',  ( 0.0000000000000000000, 0.0000000000000000000, 1.500000000000000222 ) ) ;
#257 = LINE ( 'NONE', #123, #88 ) ;
#258 = AXIS2_PLACEMENT_3D ( 'NONE', #281, #278, #68 ) ;
#259 = CONICAL_SURFACE ( 'NONE', #63, 0.01558440000000000519, 0.1745329251994339470 ) ;
#260 =( LENGTH_UNIT ( ) NAMED_UNIT ( * ) SI_UNIT ( $, .METRE. ) );
#261 = DIRECTION ( 'NONE',  ( -1.000000000000000000, 0.0000000000000000000, 0.0000000000000000000 ) ) ;
#262 = CARTESIAN_POINT ( 'NONE',  ( -0.06249999999999997918, 0.0000000000000000000, 0.3440715893364552080 ) ) ;
#263 = DIRECTION ( 'NONE',  ( -1.224646799147353700E-16, -0.0000000000000000000, -1.000000000000000000 ) ) ;
#264 = CARTESIAN_POINT ( 'NONE',  ( 0.04750000000000064587, 6.735557395310483192E-18, 1.500000000000000222 ) ) ;
#265 = APPLICATION_PROTOCOL_DEFINITION ( 'draft international standard', 'automotive_design', 1998, #78 ) ;
#266 = CYLINDRICAL_SURFACE ( 'NONE', #115, 0.06250000000000002776 ) ;
#267 = EDGE_CURVE ( 'NONE', #213, #180, #41, .T. ) ;
#268 = LINE ( 'NONE', #233, #86 ) ;
#269 = AXIS2_PLACEMENT_3D ( 'NONE', #127, #140, #108 ) ;
#270 = ORIENTED_EDGE ( 'NONE', *, *, #251, .F. ) ;
#271 = ORIENTED_EDGE ( 'NONE', *, *, #189, .T. ) ;
#272 = ORIENTED_EDGE ( 'NONE', *, *, #18, .F. ) ;
#273 = CARTESIAN_POINT ( 'NONE',  ( 2.337285635691549169E-34, 0.0000000000000000000, 1.908538557663203788E-18 ) ) ;
#274 = PRESENTATION_LAYER_ASSIGNMENT (  '', '', ( #244 ) ) ;
#275 = EDGE_LOOP ( 'NONE', ( #246, #183, #247, #272 ) ) ;
#276 = EDGE_CURVE ( 'NONE', #90, #2, #22, .T. ) ;
#277 = PRODUCT_DEFINITION_SHAPE ( 'NONE', 'NONE',  #122 ) ;
#278 = DIRECTION ( 'NONE',  ( -1.224646799147353700E-16, -0.0000000000000000000, -1.000000000000000000 ) ) ;
#279 = PRESENTATION_LAYER_ASSIGNMENT (  '', '', ( #132 ) ) ;
#280 = CIRCLE ( 'NONE', #211, 0.01558440000000001387 ) ;
#281 = CARTESIAN_POINT ( 'NONE',  ( 4.213661705584326685E-17, 0.0000000000000000000, 0.3440715893364552080 ) ) ;
#282 = ADVANCED_FACE ( 'NONE', ( #172 ), #10, .T. ) ;
#283 = DIRECTION ( 'NONE',  ( 0.0000000000000000000, 0.0000000000000000000, -1.000000000000000000 ) ) ;
#284 = DIMENSIONAL_EXPONENTS ( 1.000000000000000000, 0.0000000000000000000, 0.0000000000000000000, 0.0000000000000000000, 0.0000000000000000000, 0.0000000000000000000, 0.0000000000000000000 ) ;
#285 = PLANE ( 'NONE',  #185 ) ;
#286 = CARTESIAN_POINT ( 'NONE',  ( 0.0000000000000000000, 0.0000000000000000000, 0.0000000000000000000 ) ) ;
#287 = DIRECTION ( 'NONE',  ( 0.0000000000000000000, 0.0000000000000000000, -1.000000000000000000 ) ) ;
#288 =( CONVERSION_BASED_UNIT ( 'INCH', #82 ) LENGTH_UNIT ( ) NAMED_UNIT ( #67 ) );
#289 = DIRECTION ( 'NONE',  ( -0.0000000000000000000, -0.0000000000000000000, -1.000000000000000000 ) ) ;
#290 =( LENGTH_UNIT ( ) NAMED_UNIT ( * ) SI_UNIT ( $, .METRE. ) );
#291 = CARTESIAN_POINT ( 'NONE',  ( -0.04750000000000064587, 0.0000000000000000000, 1.500000000000000222 ) ) ;
#292 = CARTESIAN_POINT ( 'NONE',  ( 0.0000000000000000000, 0.0000000000000000000, 1.500000000000000222 ) ) ;
#293 = LINE ( 'NONE', #126, #150 ) ;
#294 = CLOSED_SHELL ( 'NONE', ( #153, #46, #17, #156, #118, #282, #161, #130, #91, #237 ) ) ;
#295 = CARTESIAN_POINT ( 'NONE',  ( -0.04750000000000064587, 0.0000000000000000000, 1.500000000000000222 ) ) ;
#296 = SURFACE_STYLE_FILL_AREA ( #110 ) ;
#297 = PRESENTATION_STYLE_ASSIGNMENT (( #195 ) ) ;
#298 = CIRCLE ( 'NONE', #89, 0.06250000000000002776 ) ;
#299 = PRODUCT_CONTEXT ( 'NONE', #78, 'mechanical' ) ;
ENDSEC;
END-ISO-10303-21;
