ISO-10303-21;
HEADER;
FILE_DESCRIPTION (( 'STEP AP214' ),
    '1' );
FILE_NAME ('86080.STEP',
    '2023-07-01T00:03:54',
    ( '' ),
    ( '' ),
    'SwSTEP 2.0',
    'SolidWorks 2023',
    '' );
FILE_SCHEMA (( 'AUTOMOTIVE_DESIGN' ));
ENDSEC;

DATA;
#1 =( CONVERSION_BASED_UNIT ( 'INCH', #226 ) LENGTH_UNIT ( ) NAMED_UNIT ( #365 ) );
#2 = ORIENTED_EDGE ( 'NONE', *, *, #11, .T. ) ;
#3 = SPHERICAL_SURFACE ( 'NONE', #373, 0.1562500000000000000 ) ;
#4 = AXIS2_PLACEMENT_3D ( 'NONE', #276, #239, #49 ) ;
#5 = ORIENTED_EDGE ( 'NONE', *, *, #63, .F. ) ;
#6 = APPLICATION_CONTEXT ( 'automotive_design' ) ;
#7 = FILL_AREA_STYLE_COLOUR ( '', #36 ) ;
#8 = CARTESIAN_POINT ( 'NONE',  ( 0.1562499999999998612, 3.000000000000000444, 0.000000000000000000 ) ) ;
#9 = DIRECTION ( 'NONE',  ( -1.238084311840241070E-16, 1.000000000000000000, -0.000000000000000000 ) ) ;
#10 = VECTOR ( 'NONE', #233, 39.37007874015748143 ) ;
#11 = EDGE_CURVE ( 'NONE', #323, #208, #369, .T. ) ;
#12 = CARTESIAN_POINT ( 'NONE',  ( 1.913510623667739463E-17, 0.1562500000000000278, 0.1562500000000000000 ) ) ;
#13 = AXIS2_PLACEMENT_3D ( 'NONE', #169, #32, #285 ) ;
#14 = DIRECTION ( 'NONE',  ( -1.238084311840241070E-16, 1.000000000000000000, -0.000000000000000000 ) ) ;
#15 = DIRECTION ( 'NONE',  ( 0.000000000000000000, 0.000000000000000000, -1.000000000000000000 ) ) ;
#16 = PRESENTATION_STYLE_ASSIGNMENT (( #304 ) ) ;
#17 = STYLED_ITEM ( 'NONE', ( #152 ), #58 ) ;
#18 = CIRCLE ( 'NONE', #186, 0.1562500000000000000 ) ;
#19 =( NAMED_UNIT ( * ) SI_UNIT ( $, .STERADIAN. ) SOLID_ANGLE_UNIT ( ) );
#20 = SURFACE_STYLE_FILL_AREA ( #161 ) ;
#21 = CYLINDRICAL_SURFACE ( 'NONE', #184, 0.1562499999999996392 ) ;
#22 = DIMENSIONAL_EXPONENTS ( 1.000000000000000000, 0.000000000000000000, 0.000000000000000000, 0.000000000000000000, 0.000000000000000000, 0.000000000000000000, 0.000000000000000000 ) ;
#23 = DIRECTION ( 'NONE',  ( -1.000000000000000000, 0.000000000000000000, 0.000000000000000000 ) ) ;
#24 = ORIENTED_EDGE ( 'NONE', *, *, #286, .F. ) ;
#25 = DIMENSIONAL_EXPONENTS ( 1.000000000000000000, 0.000000000000000000, 0.000000000000000000, 0.000000000000000000, 0.000000000000000000, 0.000000000000000000, 0.000000000000000000 ) ;
#26 = EDGE_LOOP ( 'NONE', ( #24, #190, #127, #281, #201 ) ) ;
#27 = CIRCLE ( 'NONE', #228, 0.1562499999999998612 ) ;
#28 = CARTESIAN_POINT ( 'NONE',  ( 0.000000000000000000, 1.250000000000000000, 0.000000000000000000 ) ) ;
#29 = LENGTH_MEASURE_WITH_UNIT ( LENGTH_MEASURE( 0.02539999999999999897 ), #162 );
#30 =( NAMED_UNIT ( * ) PLANE_ANGLE_UNIT ( ) SI_UNIT ( $, .RADIAN. ) );
#31 = CIRCLE ( 'NONE', #4, 0.1562500000000000000 ) ;
#32 = DIRECTION ( 'NONE',  ( 0.000000000000000000, 0.000000000000000000, 1.000000000000000000 ) ) ;
#33 = PRODUCT_DEFINITION_CONTEXT ( 'detailed design', #54, 'design' ) ;
#34 = ADVANCED_FACE ( 'NONE', ( #194 ), #47, .F. ) ;
#35 = EDGE_LOOP ( 'NONE', ( #248, #313, #121, #363 ) ) ;
#36 = COLOUR_RGB ( '',1.000000000000000000, 0.000000000000000000, 0.000000000000000000 ) ;
#37 =( NAMED_UNIT ( * ) PLANE_ANGLE_UNIT ( ) SI_UNIT ( $, .RADIAN. ) );
#38 = CARTESIAN_POINT ( 'NONE',  ( 1.913510623667738231E-17, 1.250000000000000000, 0.1562499999999998612 ) ) ;
#39 = DIRECTION ( 'NONE',  ( -0.000000000000000000, -1.000000000000000000, -0.000000000000000000 ) ) ;
#40 = CARTESIAN_POINT ( 'NONE',  ( 0.000000000000000000, 0.000000000000000000, 0.000000000000000000 ) ) ;
#41 = LENGTH_MEASURE_WITH_UNIT ( LENGTH_MEASURE( 0.02539999999999999897 ), #307 );
#42 = EDGE_LOOP ( 'NONE', ( #259, #212, #148, #112, #294 ) ) ;
#43 = DIMENSIONAL_EXPONENTS ( 1.000000000000000000, 0.000000000000000000, 0.000000000000000000, 0.000000000000000000, 0.000000000000000000, 0.000000000000000000, 0.000000000000000000 ) ;
#44 = ADVANCED_FACE ( 'NONE', ( #309 ), #302, .T. ) ;
#45 = DIRECTION ( 'NONE',  ( -1.238084311840241070E-16, 1.000000000000000000, -0.000000000000000000 ) ) ;
#46 = PRESENTATION_STYLE_ASSIGNMENT (( #219 ) ) ;
#47 = PLANE ( 'NONE',  #353 ) ;
#48 = FILL_AREA_STYLE_COLOUR ( '', #91 ) ;
#49 = DIRECTION ( 'NONE',  ( 0.000000000000000000, 0.000000000000000000, -1.000000000000000000 ) ) ;
#50 = CARTESIAN_POINT ( 'NONE',  ( 1.224646799147352714E-16, 3.000000000000000444, 0.000000000000000000 ) ) ;
#51 = CARTESIAN_POINT ( 'NONE',  ( 3.391294344867775017E-16, 1.250000000000000000, 0.000000000000000000 ) ) ;
#52 = PRODUCT_DEFINITION_SHAPE ( 'NONE', 'NONE',  #343 ) ;
#53 = CARTESIAN_POINT ( 'NONE',  ( 0.000000000000000000, 0.1562500000000000278, 0.000000000000000000 ) ) ;
#54 = APPLICATION_CONTEXT ( 'automotive_design' ) ;
#55 = CARTESIAN_POINT ( 'NONE',  ( -0.1562500000000000000, 0.1562500000000000278, 1.913510623667738847E-17 ) ) ;
#56 = DIMENSIONAL_EXPONENTS ( 1.000000000000000000, 0.000000000000000000, 0.000000000000000000, 0.000000000000000000, 0.000000000000000000, 0.000000000000000000, 0.000000000000000000 ) ;
#57 = STYLED_ITEM ( 'NONE', ( #322 ), #59 ) ;
#58 = ADVANCED_FACE ( 'NONE', ( #223 ), #179, .T. ) ;
#59 = MANIFOLD_SOLID_BREP ( 'Revolve - Cutting Edge', #283 ) ;
#60 = MANIFOLD_SOLID_BREP ( 'Revolve - Tool Body (Straight Shanked)', #210 ) ;
#61 = MECHANICAL_DESIGN_GEOMETRIC_PRESENTATION_REPRESENTATION (  '', ( #17 ), #183 ) ;
#62 = MECHANICAL_DESIGN_GEOMETRIC_PRESENTATION_REPRESENTATION (  '', ( #57 ), #178 ) ;
#63 = EDGE_CURVE ( 'NONE', #231, #124, #92, .T. ) ;
#64 = DIRECTION ( 'NONE',  ( 0.000000000000000000, 0.000000000000000000, 1.000000000000000000 ) ) ;
#65 = STYLED_ITEM ( 'NONE', ( #46 ), #195 ) ;
#66 = DIRECTION ( 'NONE',  ( -1.238084311840241070E-16, 1.000000000000000000, -0.000000000000000000 ) ) ;
#67 = PRODUCT_DEFINITION_FORMATION_WITH_SPECIFIED_SOURCE ( 'ANY', '', #199, .NOT_KNOWN. ) ;
#68 = DIRECTION ( 'NONE',  ( -0.000000000000000000, -1.000000000000000000, -0.000000000000000000 ) ) ;
#69 = EDGE_CURVE ( 'NONE', #244, #94, #332, .T. ) ;
#70 = FACE_OUTER_BOUND ( 'NONE', #26, .T. ) ;
#71 = CARTESIAN_POINT ( 'NONE',  ( -1.913510623667739463E-17, 0.1562500000000000000, 0.000000000000000000 ) ) ;
#72 = COLOUR_RGB ( '',1.000000000000000000, 0.000000000000000000, 0.000000000000000000 ) ;
#73 = DIRECTION ( 'NONE',  ( -1.238084311840241070E-16, 1.000000000000000000, -0.000000000000000000 ) ) ;
#74 =( NAMED_UNIT ( * ) SI_UNIT ( $, .STERADIAN. ) SOLID_ANGLE_UNIT ( ) );
#75 =( NAMED_UNIT ( * ) PLANE_ANGLE_UNIT ( ) SI_UNIT ( $, .RADIAN. ) );
#76 = FILL_AREA_STYLE ('',( #191 ) ) ;
#77 = DIRECTION ( 'NONE',  ( 0.000000000000000000, 0.000000000000000000, -1.000000000000000000 ) ) ;
#78 = FACE_OUTER_BOUND ( 'NONE', #35, .T. ) ;
#79 = CIRCLE ( 'NONE', #137, 0.1562499999999997224 ) ;
#80 = CIRCLE ( 'NONE', #114, 0.1562500000000000000 ) ;
#81 =( CONVERSION_BASED_UNIT ( 'INCH', #182 ) LENGTH_UNIT ( ) NAMED_UNIT ( #188 ) );
#82 = ADVANCED_FACE ( 'NONE', ( #136 ), #237, .T. ) ;
#83 = ORIENTED_EDGE ( 'NONE', *, *, #69, .F. ) ;
#84 = CARTESIAN_POINT ( 'NONE',  ( -1.913510623667739463E-17, 0.1562500000000000000, 0.000000000000000000 ) ) ;
#85 =( LENGTH_UNIT ( ) NAMED_UNIT ( * ) SI_UNIT ( $, .METRE. ) );
#86 = PLANE ( 'NONE',  #319 ) ;
#87 = CIRCLE ( 'NONE', #361, 0.1562499999999998612 ) ;
#88 = PRODUCT_CONTEXT ( 'NONE', #6, 'mechanical' ) ;
#89 = UNCERTAINTY_MEASURE_WITH_UNIT (LENGTH_MEASURE( 1.000000000000000082E-05 ), #282, 'distance_accuracy_value', 'NONE');
#90 =( NAMED_UNIT ( * ) SI_UNIT ( $, .STERADIAN. ) SOLID_ANGLE_UNIT ( ) );
#91 = COLOUR_RGB ( '',1.000000000000000000, 0.000000000000000000, 0.000000000000000000 ) ;
#92 = CIRCLE ( 'NONE', #299, 0.1562499999999997224 ) ;
#93 = SURFACE_STYLE_USAGE ( .BOTH. , #349 ) ;
#94 = VERTEX_POINT ( 'NONE', #111 ) ;
#95 = SURFACE_STYLE_USAGE ( .BOTH. , #227 ) ;
#96 = EDGE_CURVE ( 'NONE', #244, #124, #267, .T. ) ;
#97 = PRESENTATION_LAYER_ASSIGNMENT (  '', '', ( #253 ) ) ;
#98 =( CONVERSION_BASED_UNIT ( 'INCH', #296 ) LENGTH_UNIT ( ) NAMED_UNIT ( #56 ) );
#99 = SURFACE_STYLE_FILL_AREA ( #204 ) ;
#100 = ORIENTED_EDGE ( 'NONE', *, *, #318, .T. ) ;
#101 = PRESENTATION_STYLE_ASSIGNMENT (( #95 ) ) ;
#102 = FACE_OUTER_BOUND ( 'NONE', #338, .T. ) ;
#103 = ADVANCED_FACE ( 'NONE', ( #102 ), #86, .F. ) ;
#104 = DIMENSIONAL_EXPONENTS ( 1.000000000000000000, 0.000000000000000000, 0.000000000000000000, 0.000000000000000000, 0.000000000000000000, 0.000000000000000000, 0.000000000000000000 ) ;
#105 = VERTEX_POINT ( 'NONE', #372 ) ;
#106 = PRESENTATION_LAYER_ASSIGNMENT (  '', '', ( #17 ) ) ;
#107 = VECTOR ( 'NONE', #325, 39.37007874015748143 ) ;
#108 = CARTESIAN_POINT ( 'NONE',  ( -9.567553118338697316E-18, 0.000000000000000000, 0.000000000000000000 ) ) ;
#109 =( NAMED_UNIT ( * ) PLANE_ANGLE_UNIT ( ) SI_UNIT ( $, .RADIAN. ) );
#110 = ORIENTED_EDGE ( 'NONE', *, *, #160, .F. ) ;
#111 = CARTESIAN_POINT ( 'NONE',  ( 0.1562499999999998612, 1.250000000000000000, 1.913510623667735457E-17 ) ) ;
#112 = ORIENTED_EDGE ( 'NONE', *, *, #362, .F. ) ;
#113 = SURFACE_STYLE_FILL_AREA ( #76 ) ;
#114 = AXIS2_PLACEMENT_3D ( 'NONE', #146, #314, #145 ) ;
#115 = UNCERTAINTY_MEASURE_WITH_UNIT (LENGTH_MEASURE( 1.000000000000000082E-05 ), #98, 'distance_accuracy_value', 'NONE');
#116 = STYLED_ITEM ( 'NONE', ( #268 ), #44 ) ;
#117 = FACE_OUTER_BOUND ( 'NONE', #209, .T. ) ;
#118 = CARTESIAN_POINT ( 'NONE',  ( 1.224646799147352714E-16, 3.000000000000000444, 0.000000000000000000 ) ) ;
#119 = AXIS2_PLACEMENT_3D ( 'NONE', #278, #14, #23 ) ;
#120 = AXIS2_PLACEMENT_3D ( 'NONE', #172, #265, #328 ) ;
#121 = ORIENTED_EDGE ( 'NONE', *, *, #11, .F. ) ;
#122 = EDGE_CURVE ( 'NONE', #105, #289, #129, .T. ) ;
#123 = DIRECTION ( 'NONE',  ( -0.000000000000000000, -1.000000000000000000, -0.000000000000000000 ) ) ;
#124 = VERTEX_POINT ( 'NONE', #293 ) ;
#125 = UNCERTAINTY_MEASURE_WITH_UNIT (LENGTH_MEASURE( 1.000000000000000082E-05 ), #310, 'distance_accuracy_value', 'NONE');
#126 = CARTESIAN_POINT ( 'NONE',  ( 0.1562499999999997780, 3.000000000000000444, 1.913510623667734841E-17 ) ) ;
#127 = ORIENTED_EDGE ( 'NONE', *, *, #122, .T. ) ;
#128 =( NAMED_UNIT ( * ) SI_UNIT ( $, .STERADIAN. ) SOLID_ANGLE_UNIT ( ) );
#129 = LINE ( 'NONE', #151, #149 ) ;
#130 = CARTESIAN_POINT ( 'NONE',  ( -1.913510623667739463E-17, 0.1562500000000000000, 0.000000000000000000 ) ) ;
#131 = FACE_OUTER_BOUND ( 'NONE', #329, .T. ) ;
#132 = DIRECTION ( 'NONE',  ( -0.000000000000000000, -1.000000000000000000, -0.000000000000000000 ) ) ;
#133 = UNCERTAINTY_MEASURE_WITH_UNIT (LENGTH_MEASURE( 1.000000000000000082E-05 ), #81, 'distance_accuracy_value', 'NONE');
#134 =( LENGTH_UNIT ( ) NAMED_UNIT ( * ) SI_UNIT ( $, .METRE. ) );
#135 = DIRECTION ( 'NONE',  ( -0.000000000000000000, -1.000000000000000000, -0.000000000000000000 ) ) ;
#136 = FACE_OUTER_BOUND ( 'NONE', #342, .T. ) ;
#137 = AXIS2_PLACEMENT_3D ( 'NONE', #118, #66, #260 ) ;
#138 = CIRCLE ( 'NONE', #288, 0.1562500000000000000 ) ;
#139 = DIRECTION ( 'NONE',  ( -1.238084311840241070E-16, 1.000000000000000000, -0.000000000000000000 ) ) ;
#140 = DIRECTION ( 'NONE',  ( -1.000000000000000000, 0.000000000000000000, 0.000000000000000000 ) ) ;
#141 = VERTEX_POINT ( 'NONE', #38 ) ;
#142 = MECHANICAL_DESIGN_GEOMETRIC_PRESENTATION_REPRESENTATION (  '', ( #65 ), #345 ) ;
#143 = DIRECTION ( 'NONE',  ( -0.000000000000000000, -1.000000000000000000, -0.000000000000000000 ) ) ;
#144 = EDGE_CURVE ( 'NONE', #94, #231, #258, .T. ) ;
#145 = DIRECTION ( 'NONE',  ( 0.000000000000000000, 0.000000000000000000, -1.000000000000000000 ) ) ;
#146 = CARTESIAN_POINT ( 'NONE',  ( 0.000000000000000000, 0.1562500000000000278, 0.000000000000000000 ) ) ;
#147 =( NAMED_UNIT ( * ) PLANE_ANGLE_UNIT ( ) SI_UNIT ( $, .RADIAN. ) );
#148 = ORIENTED_EDGE ( 'NONE', *, *, #350, .F. ) ;
#149 = VECTOR ( 'NONE', #68, 39.37007874015748143 ) ;
#150 = FILL_AREA_STYLE_COLOUR ( '', #177 ) ;
#151 = CARTESIAN_POINT ( 'NONE',  ( 0.000000000000000000, 0.000000000000000000, -0.1562499999999999445 ) ) ;
#152 = PRESENTATION_STYLE_ASSIGNMENT (( #173 ) ) ;
#153 = CARTESIAN_POINT ( 'NONE',  ( -1.913510623667739463E-17, 0.1562500000000000000, 0.000000000000000000 ) ) ;
#154 = DIRECTION ( 'NONE',  ( 0.000000000000000000, 0.000000000000000000, -1.000000000000000000 ) ) ;
#155 = CIRCLE ( 'NONE', #317, 0.1562500000000000000 ) ;
#156 = EDGE_CURVE ( 'NONE', #371, #208, #155, .T. ) ;
#157 = ORIENTED_EDGE ( 'NONE', *, *, #362, .T. ) ;
#158 = DIRECTION ( 'NONE',  ( -1.000000000000000000, 0.000000000000000000, 0.000000000000000000 ) ) ;
#159 = LENGTH_MEASURE_WITH_UNIT ( LENGTH_MEASURE( 0.02539999999999999897 ), #134 );
#160 = EDGE_CURVE ( 'NONE', #141, #105, #87, .T. ) ;
#161 = FILL_AREA_STYLE ('',( #48 ) ) ;
#162 =( LENGTH_UNIT ( ) NAMED_UNIT ( * ) SI_UNIT ( $, .METRE. ) );
#163 = SURFACE_SIDE_STYLE ('',( #215 ) ) ;
#164 = DIRECTION ( 'NONE',  ( -1.238084311840241070E-16, 1.000000000000000000, 0.000000000000000000 ) ) ;
#165 =( LENGTH_UNIT ( ) NAMED_UNIT ( * ) SI_UNIT ( $, .METRE. ) );
#166 = VERTEX_POINT ( 'NONE', #12 ) ;
#167 = AXIS2_PLACEMENT_3D ( 'NONE', #40, #123, #154 ) ;
#168 =( GEOMETRIC_REPRESENTATION_CONTEXT ( 3 ) GLOBAL_UNCERTAINTY_ASSIGNED_CONTEXT ( ( #254 ) ) GLOBAL_UNIT_ASSIGNED_CONTEXT ( ( #335, #75, #218 ) ) REPRESENTATION_CONTEXT ( 'NONE', 'WORKASPACE' ) );
#169 = CARTESIAN_POINT ( 'NONE',  ( 0.000000000000000000, 0.000000000000000000, 0.000000000000000000 ) ) ;
#170 = VECTOR ( 'NONE', #45, 39.37007874015748143 ) ;
#171 = PRESENTATION_LAYER_ASSIGNMENT (  '', '', ( #65 ) ) ;
#172 = CARTESIAN_POINT ( 'NONE',  ( 0.000000000000000000, 0.000000000000000000, 0.000000000000000000 ) ) ;
#173 = SURFACE_STYLE_USAGE ( .BOTH. , #327 ) ;
#174 = ORIENTED_EDGE ( 'NONE', *, *, #277, .T. ) ;
#175 = DIRECTION ( 'NONE',  ( -1.000000000000000000, 0.000000000000000000, 0.000000000000000000 ) ) ;
#176 = DIRECTION ( 'NONE',  ( 1.238084311840241070E-16, -1.000000000000000000, 0.000000000000000000 ) ) ;
#177 = COLOUR_RGB ( '',1.000000000000000000, 0.000000000000000000, 0.000000000000000000 ) ;
#178 =( GEOMETRIC_REPRESENTATION_CONTEXT ( 3 ) GLOBAL_UNCERTAINTY_ASSIGNED_CONTEXT ( ( #133 ) ) GLOBAL_UNIT_ASSIGNED_CONTEXT ( ( #81, #109, #19 ) ) REPRESENTATION_CONTEXT ( 'NONE', 'WORKASPACE' ) );
#179 = CYLINDRICAL_SURFACE ( 'NONE', #167, 0.1562499999999999445 ) ;
#180 = FILL_AREA_STYLE ('',( #7 ) ) ;
#181 =( LENGTH_UNIT ( ) NAMED_UNIT ( * ) SI_UNIT ( $, .METRE. ) );
#182 = LENGTH_MEASURE_WITH_UNIT ( LENGTH_MEASURE( 0.02539999999999999897 ), #187 );
#183 =( GEOMETRIC_REPRESENTATION_CONTEXT ( 3 ) GLOBAL_UNCERTAINTY_ASSIGNED_CONTEXT ( ( #261 ) ) GLOBAL_UNIT_ASSIGNED_CONTEXT ( ( #1, #206, #200 ) ) REPRESENTATION_CONTEXT ( 'NONE', 'WORKASPACE' ) );
#184 = AXIS2_PLACEMENT_3D ( 'NONE', #247, #368, #158 ) ;
#185 = DIRECTION ( 'NONE',  ( -1.000000000000000000, -1.238084311840241070E-16, 0.000000000000000000 ) ) ;
#186 = AXIS2_PLACEMENT_3D ( 'NONE', #53, #143, #224 ) ;
#187 =( LENGTH_UNIT ( ) NAMED_UNIT ( * ) SI_UNIT ( $, .METRE. ) );
#188 = DIMENSIONAL_EXPONENTS ( 1.000000000000000000, 0.000000000000000000, 0.000000000000000000, 0.000000000000000000, 0.000000000000000000, 0.000000000000000000, 0.000000000000000000 ) ;
#189 = SURFACE_STYLE_FILL_AREA ( #334 ) ;
#190 = ORIENTED_EDGE ( 'NONE', *, *, #160, .T. ) ;
#191 = FILL_AREA_STYLE_COLOUR ( '', #205 ) ;
#192 = ORIENTED_EDGE ( 'NONE', *, *, #280, .T. ) ;
#193 = SURFACE_SIDE_STYLE ('',( #189 ) ) ;
#194 = FACE_OUTER_BOUND ( 'NONE', #367, .T. ) ;
#195 = ADVANCED_FACE ( 'NONE', ( #131 ), #266, .T. ) ;
#196 = SHAPE_DEFINITION_REPRESENTATION ( #52, #348 ) ;
#197 = STYLED_ITEM ( 'NONE', ( #16 ), #245 ) ;
#198 = APPLICATION_PROTOCOL_DEFINITION ( 'draft international standard', 'automotive_design', 1998, #54 ) ;
#199 = PRODUCT ( '86080', '86080', '', ( #88 ) ) ;
#200 =( NAMED_UNIT ( * ) SI_UNIT ( $, .STERADIAN. ) SOLID_ANGLE_UNIT ( ) );
#201 = ORIENTED_EDGE ( 'NONE', *, *, #356, .F. ) ;
#202 = ADVANCED_FACE ( 'NONE', ( #117 ), #21, .T. ) ;
#203 =( LENGTH_UNIT ( ) NAMED_UNIT ( * ) SI_UNIT ( $, .METRE. ) );
#204 = FILL_AREA_STYLE ('',( #150 ) ) ;
#205 = COLOUR_RGB ( '',1.000000000000000000, 0.000000000000000000, 0.000000000000000000 ) ;
#206 =( NAMED_UNIT ( * ) PLANE_ANGLE_UNIT ( ) SI_UNIT ( $, .RADIAN. ) );
#207 = EDGE_CURVE ( 'NONE', #105, #141, #27, .T. ) ;
#208 = VERTEX_POINT ( 'NONE', #108 ) ;
#209 = EDGE_LOOP ( 'NONE', ( #230, #174, #359, #5 ) ) ;
#210 = CLOSED_SHELL ( 'NONE', ( #82, #34, #202, #103 ) ) ;
#211 = CIRCLE ( 'NONE', #256, 0.1562499999999995282 ) ;
#212 = ORIENTED_EDGE ( 'NONE', *, *, #286, .T. ) ;
#213 =( GEOMETRIC_REPRESENTATION_CONTEXT ( 3 ) GLOBAL_UNCERTAINTY_ASSIGNED_CONTEXT ( ( #89 ) ) GLOBAL_UNIT_ASSIGNED_CONTEXT ( ( #282, #147, #250 ) ) REPRESENTATION_CONTEXT ( 'NONE', 'WORKASPACE' ) );
#214 = CARTESIAN_POINT ( 'NONE',  ( 3.391294344867775017E-16, 1.250000000000000000, 0.000000000000000000 ) ) ;
#215 = SURFACE_STYLE_FILL_AREA ( #300 ) ;
#216 =( NAMED_UNIT ( * ) PLANE_ANGLE_UNIT ( ) SI_UNIT ( $, .RADIAN. ) );
#217 = PRODUCT_RELATED_PRODUCT_CATEGORY ( 'part', '', ( #199 ) ) ;
#218 =( NAMED_UNIT ( * ) SI_UNIT ( $, .STERADIAN. ) SOLID_ANGLE_UNIT ( ) );
#219 = SURFACE_STYLE_USAGE ( .BOTH. , #222 ) ;
#220 =( GEOMETRIC_REPRESENTATION_CONTEXT ( 3 ) GLOBAL_UNCERTAINTY_ASSIGNED_CONTEXT ( ( #311 ) ) GLOBAL_UNIT_ASSIGNED_CONTEXT ( ( #271, #242, #336 ) ) REPRESENTATION_CONTEXT ( 'NONE', 'WORKASPACE' ) );
#221 = ORIENTED_EDGE ( 'NONE', *, *, #96, .F. ) ;
#222 = SURFACE_SIDE_STYLE ('',( #113 ) ) ;
#223 = FACE_OUTER_BOUND ( 'NONE', #42, .T. ) ;
#224 = DIRECTION ( 'NONE',  ( 0.000000000000000000, 0.000000000000000000, -1.000000000000000000 ) ) ;
#225 = COLOUR_RGB ( '',0.7921568627450980005, 0.8196078431372548767, 0.9333333333333333481 ) ;
#226 = LENGTH_MEASURE_WITH_UNIT ( LENGTH_MEASURE( 0.02539999999999999897 ), #181 );
#227 = SURFACE_SIDE_STYLE ('',( #257 ) ) ;
#228 = AXIS2_PLACEMENT_3D ( 'NONE', #269, #135, #15 ) ;
#229 = FILL_AREA_STYLE_COLOUR ( '', #331 ) ;
#230 = ORIENTED_EDGE ( 'NONE', *, *, #144, .F. ) ;
#231 = VERTEX_POINT ( 'NONE', #272 ) ;
#232 = ORIENTED_EDGE ( 'NONE', *, *, #156, .F. ) ;
#233 = DIRECTION ( 'NONE',  ( -1.238084311840241070E-16, 1.000000000000000000, -0.000000000000000000 ) ) ;
#234 = PRESENTATION_LAYER_ASSIGNMENT (  '', '', ( #116 ) ) ;
#235 =( GEOMETRIC_REPRESENTATION_CONTEXT ( 3 ) GLOBAL_UNCERTAINTY_ASSIGNED_CONTEXT ( ( #330 ) ) GLOBAL_UNIT_ASSIGNED_CONTEXT ( ( #347, #30, #90 ) ) REPRESENTATION_CONTEXT ( 'NONE', 'WORKASPACE' ) );
#236 = CYLINDRICAL_SURFACE ( 'NONE', #120, 0.1562499999999999445 ) ;
#237 = CYLINDRICAL_SURFACE ( 'NONE', #274, 0.1562499999999996392 ) ;
#238 = PRESENTATION_STYLE_ASSIGNMENT (( #273 ) ) ;
#239 = DIRECTION ( 'NONE',  ( -0.000000000000000000, -1.000000000000000000, -0.000000000000000000 ) ) ;
#240 = CARTESIAN_POINT ( 'NONE',  ( -0.1562499999999991951, 1.250000000000000000, 0.000000000000000000 ) ) ;
#241 = CARTESIAN_POINT ( 'NONE',  ( 1.224646799147352714E-16, 3.000000000000000444, 0.000000000000000000 ) ) ;
#242 =( NAMED_UNIT ( * ) PLANE_ANGLE_UNIT ( ) SI_UNIT ( $, .RADIAN. ) );
#243 = LENGTH_MEASURE_WITH_UNIT ( LENGTH_MEASURE( 0.02539999999999999897 ), #165 );
#244 = VERTEX_POINT ( 'NONE', #240 ) ;
#245 = ADVANCED_FACE ( 'NONE', ( #78 ), #3, .T. ) ;
#246 = SURFACE_SIDE_STYLE ('',( #20 ) ) ;
#247 = CARTESIAN_POINT ( 'NONE',  ( 1.224646799147352714E-16, 3.000000000000000444, 0.000000000000000000 ) ) ;
#248 = ORIENTED_EDGE ( 'NONE', *, *, #356, .T. ) ;
#249 = PRESENTATION_LAYER_ASSIGNMENT (  '', '', ( #340 ) ) ;
#250 =( NAMED_UNIT ( * ) SI_UNIT ( $, .STERADIAN. ) SOLID_ANGLE_UNIT ( ) );
#251 = DIRECTION ( 'NONE',  ( 0.000000000000000000, 1.000000000000000000, 0.000000000000000000 ) ) ;
#252 = LENGTH_MEASURE_WITH_UNIT ( LENGTH_MEASURE( 0.02539999999999999897 ), #85 );
#253 = STYLED_ITEM ( 'NONE', ( #101 ), #315 ) ;
#254 = UNCERTAINTY_MEASURE_WITH_UNIT (LENGTH_MEASURE( 1.000000000000000082E-05 ), #335, 'distance_accuracy_value', 'NONE');
#255 = ORIENTED_EDGE ( 'NONE', *, *, #69, .T. ) ;
#256 = AXIS2_PLACEMENT_3D ( 'NONE', #214, #9, #175 ) ;
#257 = SURFACE_STYLE_FILL_AREA ( #180 ) ;
#258 = LINE ( 'NONE', #126, #10 ) ;
#259 = ORIENTED_EDGE ( 'NONE', *, *, #207, .T. ) ;
#260 = DIRECTION ( 'NONE',  ( -1.000000000000000000, 0.000000000000000000, 0.000000000000000000 ) ) ;
#261 = UNCERTAINTY_MEASURE_WITH_UNIT (LENGTH_MEASURE( 1.000000000000000082E-05 ), #1, 'distance_accuracy_value', 'NONE');
#262 = ORIENTED_EDGE ( 'NONE', *, *, #277, .F. ) ;
#263 = DIRECTION ( 'NONE',  ( 0.000000000000000000, 0.000000000000000000, -1.000000000000000000 ) ) ;
#264 = MECHANICAL_DESIGN_GEOMETRIC_PRESENTATION_REPRESENTATION (  '', ( #340 ), #168 ) ;
#265 = DIRECTION ( 'NONE',  ( -0.000000000000000000, -1.000000000000000000, -0.000000000000000000 ) ) ;
#266 = SPHERICAL_SURFACE ( 'NONE', #370, 0.1562500000000000000 ) ;
#267 = LINE ( 'NONE', #358, #170 ) ;
#268 = PRESENTATION_STYLE_ASSIGNMENT (( #333 ) ) ;
#269 = CARTESIAN_POINT ( 'NONE',  ( 0.000000000000000000, 1.250000000000000000, 0.000000000000000000 ) ) ;
#270 = FILL_AREA_STYLE_COLOUR ( '', #225 ) ;
#271 =( CONVERSION_BASED_UNIT ( 'INCH', #159 ) LENGTH_UNIT ( ) NAMED_UNIT ( #43 ) );
#272 = CARTESIAN_POINT ( 'NONE',  ( 0.1562499999999998612, 3.000000000000000444, 1.913510623667735457E-17 ) ) ;
#273 = SURFACE_STYLE_USAGE ( .BOTH. , #163 ) ;
#274 = AXIS2_PLACEMENT_3D ( 'NONE', #241, #139, #366 ) ;
#275 = ORIENTED_EDGE ( 'NONE', *, *, #63, .T. ) ;
#276 = CARTESIAN_POINT ( 'NONE',  ( 0.000000000000000000, 0.1562500000000000278, 0.000000000000000000 ) ) ;
#277 = EDGE_CURVE ( 'NONE', #94, #244, #211, .T. ) ;
#278 = CARTESIAN_POINT ( 'NONE',  ( 3.391294344867775017E-16, 1.250000000000000000, 0.000000000000000000 ) ) ;
#279 = ORIENTED_EDGE ( 'NONE', *, *, #207, .F. ) ;
#280 = EDGE_CURVE ( 'NONE', #124, #231, #79, .T. ) ;
#281 = ORIENTED_EDGE ( 'NONE', *, *, #318, .F. ) ;
#282 =( CONVERSION_BASED_UNIT ( 'INCH', #252 ) LENGTH_UNIT ( ) NAMED_UNIT ( #301 ) );
#283 = CLOSED_SHELL ( 'NONE', ( #245, #58, #44, #315, #195 ) ) ;
#284 = PRESENTATION_LAYER_ASSIGNMENT (  '', '', ( #197 ) ) ;
#285 = DIRECTION ( 'NONE',  ( 1.000000000000000000, 0.000000000000000000, 0.000000000000000000 ) ) ;
#286 = EDGE_CURVE ( 'NONE', #141, #166, #321, .T. ) ;
#287 = DIRECTION ( 'NONE',  ( 0.000000000000000000, -0.000000000000000000, 1.000000000000000000 ) ) ;
#288 = AXIS2_PLACEMENT_3D ( 'NONE', #357, #132, #344 ) ;
#289 = VERTEX_POINT ( 'NONE', #320 ) ;
#290 = CARTESIAN_POINT ( 'NONE',  ( 1.913510623667738539E-17, 0.000000000000000000, 0.1562499999999999445 ) ) ;
#291 = SURFACE_STYLE_FILL_AREA ( #352 ) ;
#292 = AXIS2_PLACEMENT_3D ( 'NONE', #71, #77, #140 ) ;
#293 = CARTESIAN_POINT ( 'NONE',  ( -0.1562499999999995837, 3.000000000000000444, 0.000000000000000000 ) ) ;
#294 = ORIENTED_EDGE ( 'NONE', *, *, #122, .F. ) ;
#295 = DIRECTION ( 'NONE',  ( 1.000000000000000000, 1.238084311840241070E-16, 0.000000000000000000 ) ) ;
#296 = LENGTH_MEASURE_WITH_UNIT ( LENGTH_MEASURE( 0.02539999999999999897 ), #203 );
#297 = CARTESIAN_POINT ( 'NONE',  ( 0.000000000000000000, 1.250000000000000000, 0.000000000000000000 ) ) ;
#298 = AXIS2_PLACEMENT_3D ( 'NONE', #28, #251, #287 ) ;
#299 = AXIS2_PLACEMENT_3D ( 'NONE', #50, #73, #312 ) ;
#300 = FILL_AREA_STYLE ('',( #270 ) ) ;
#301 = DIMENSIONAL_EXPONENTS ( 1.000000000000000000, 0.000000000000000000, 0.000000000000000000, 0.000000000000000000, 0.000000000000000000, 0.000000000000000000, 0.000000000000000000 ) ;
#302 = PLANE ( 'NONE',  #298 ) ;
#303 = ORIENTED_EDGE ( 'NONE', *, *, #280, .F. ) ;
#304 = SURFACE_STYLE_USAGE ( .BOTH. , #193 ) ;
#305 = EDGE_LOOP ( 'NONE', ( #279, #110 ) ) ;
#306 = FILL_AREA_STYLE_COLOUR ( '', #72 ) ;
#307 =( LENGTH_UNIT ( ) NAMED_UNIT ( * ) SI_UNIT ( $, .METRE. ) );
#308 = MECHANICAL_DESIGN_GEOMETRIC_PRESENTATION_REPRESENTATION (  '', ( #253 ), #354 ) ;
#309 = FACE_OUTER_BOUND ( 'NONE', #305, .T. ) ;
#310 =( CONVERSION_BASED_UNIT ( 'INCH', #243 ) LENGTH_UNIT ( ) NAMED_UNIT ( #22 ) );
#311 = UNCERTAINTY_MEASURE_WITH_UNIT (LENGTH_MEASURE( 1.000000000000000082E-05 ), #271, 'distance_accuracy_value', 'NONE');
#312 = DIRECTION ( 'NONE',  ( -1.000000000000000000, 0.000000000000000000, 0.000000000000000000 ) ) ;
#313 = ORIENTED_EDGE ( 'NONE', *, *, #156, .T. ) ;
#314 = DIRECTION ( 'NONE',  ( -0.000000000000000000, -1.000000000000000000, -0.000000000000000000 ) ) ;
#315 = ADVANCED_FACE ( 'NONE', ( #70 ), #236, .T. ) ;
#316 = PRESENTATION_LAYER_ASSIGNMENT (  '', '', ( #57 ) ) ;
#317 = AXIS2_PLACEMENT_3D ( 'NONE', #153, #355, #326 ) ;
#318 = EDGE_CURVE ( 'NONE', #371, #289, #31, .T. ) ;
#319 = AXIS2_PLACEMENT_3D ( 'NONE', #8, #176, #295 ) ;
#320 = CARTESIAN_POINT ( 'NONE',  ( 0.000000000000000000, 0.1562500000000000278, -0.1562500000000000000 ) ) ;
#321 = LINE ( 'NONE', #290, #107 ) ;
#322 = PRESENTATION_STYLE_ASSIGNMENT (( #93 ) ) ;
#323 = VERTEX_POINT ( 'NONE', #364 ) ;
#324 = ORIENTED_EDGE ( 'NONE', *, *, #144, .T. ) ;
#325 = DIRECTION ( 'NONE',  ( -0.000000000000000000, -1.000000000000000000, -0.000000000000000000 ) ) ;
#326 = DIRECTION ( 'NONE',  ( 1.000000000000000000, 0.000000000000000000, -1.224646799147353207E-16 ) ) ;
#327 = SURFACE_SIDE_STYLE ('',( #99 ) ) ;
#328 = DIRECTION ( 'NONE',  ( 0.000000000000000000, 0.000000000000000000, -1.000000000000000000 ) ) ;
#329 = EDGE_LOOP ( 'NONE', ( #232, #100, #157, #2 ) ) ;
#330 = UNCERTAINTY_MEASURE_WITH_UNIT (LENGTH_MEASURE( 1.000000000000000082E-05 ), #347, 'distance_accuracy_value', 'NONE');
#331 = COLOUR_RGB ( '',0.7921568627450980005, 0.8196078431372548767, 0.9333333333333333481 ) ;
#332 = CIRCLE ( 'NONE', #119, 0.1562499999999995282 ) ;
#333 = SURFACE_STYLE_USAGE ( .BOTH. , #246 ) ;
#334 = FILL_AREA_STYLE ('',( #306 ) ) ;
#335 =( CONVERSION_BASED_UNIT ( 'INCH', #41 ) LENGTH_UNIT ( ) NAMED_UNIT ( #25 ) );
#336 =( NAMED_UNIT ( * ) SI_UNIT ( $, .STERADIAN. ) SOLID_ANGLE_UNIT ( ) );
#337 = DIRECTION ( 'NONE',  ( 0.000000000000000000, 0.000000000000000000, 1.000000000000000000 ) ) ;
#338 = EDGE_LOOP ( 'NONE', ( #192, #275 ) ) ;
#339 = MECHANICAL_DESIGN_GEOMETRIC_PRESENTATION_REPRESENTATION (  '', ( #116 ), #220 ) ;
#340 = STYLED_ITEM ( 'NONE', ( #238 ), #60 ) ;
#341 = MECHANICAL_DESIGN_GEOMETRIC_PRESENTATION_REPRESENTATION (  '', ( #197 ), #235 ) ;
#342 = EDGE_LOOP ( 'NONE', ( #255, #324, #303, #221 ) ) ;
#343 = PRODUCT_DEFINITION ( 'UNKNOWN', '', #67, #33 ) ;
#344 = DIRECTION ( 'NONE',  ( 0.000000000000000000, 0.000000000000000000, -1.000000000000000000 ) ) ;
#345 =( GEOMETRIC_REPRESENTATION_CONTEXT ( 3 ) GLOBAL_UNCERTAINTY_ASSIGNED_CONTEXT ( ( #125 ) ) GLOBAL_UNIT_ASSIGNED_CONTEXT ( ( #310, #216, #74 ) ) REPRESENTATION_CONTEXT ( 'NONE', 'WORKASPACE' ) );
#346 = APPLICATION_PROTOCOL_DEFINITION ( 'draft international standard', 'automotive_design', 1998, #6 ) ;
#347 =( CONVERSION_BASED_UNIT ( 'INCH', #29 ) LENGTH_UNIT ( ) NAMED_UNIT ( #104 ) );
#348 = ADVANCED_BREP_SHAPE_REPRESENTATION ( '86080', ( #59, #60, #13 ), #213 ) ;
#349 = SURFACE_SIDE_STYLE ('',( #291 ) ) ;
#350 = EDGE_CURVE ( 'NONE', #323, #166, #138, .T. ) ;
#351 = DIRECTION ( 'NONE',  ( 1.000000000000000000, 0.000000000000000000, 0.000000000000000000 ) ) ;
#352 = FILL_AREA_STYLE ('',( #229 ) ) ;
#353 = AXIS2_PLACEMENT_3D ( 'NONE', #51, #164, #185 ) ;
#354 =( GEOMETRIC_REPRESENTATION_CONTEXT ( 3 ) GLOBAL_UNCERTAINTY_ASSIGNED_CONTEXT ( ( #115 ) ) GLOBAL_UNIT_ASSIGNED_CONTEXT ( ( #98, #37, #128 ) ) REPRESENTATION_CONTEXT ( 'NONE', 'WORKASPACE' ) );
#355 = DIRECTION ( 'NONE',  ( 1.224646799147353207E-16, -0.000000000000000000, 1.000000000000000000 ) ) ;
#356 = EDGE_CURVE ( 'NONE', #166, #371, #80, .T. ) ;
#357 = CARTESIAN_POINT ( 'NONE',  ( 0.000000000000000000, 0.1562500000000000278, 0.000000000000000000 ) ) ;
#358 = CARTESIAN_POINT ( 'NONE',  ( -0.1562499999999995004, 3.000000000000000444, 0.000000000000000000 ) ) ;
#359 = ORIENTED_EDGE ( 'NONE', *, *, #96, .T. ) ;
#360 = DIRECTION ( 'NONE',  ( 1.000000000000000000, 0.000000000000000000, 0.000000000000000000 ) ) ;
#361 = AXIS2_PLACEMENT_3D ( 'NONE', #297, #39, #263 ) ;
#362 = EDGE_CURVE ( 'NONE', #289, #323, #18, .T. ) ;
#363 = ORIENTED_EDGE ( 'NONE', *, *, #350, .T. ) ;
#364 = CARTESIAN_POINT ( 'NONE',  ( 0.1562500000000000000, 0.1562500000000000278, 0.000000000000000000 ) ) ;
#365 = DIMENSIONAL_EXPONENTS ( 1.000000000000000000, 0.000000000000000000, 0.000000000000000000, 0.000000000000000000, 0.000000000000000000, 0.000000000000000000, 0.000000000000000000 ) ;
#366 = DIRECTION ( 'NONE',  ( -1.000000000000000000, 0.000000000000000000, 0.000000000000000000 ) ) ;
#367 = EDGE_LOOP ( 'NONE', ( #83, #262 ) ) ;
#368 = DIRECTION ( 'NONE',  ( -1.238084311840241070E-16, 1.000000000000000000, -0.000000000000000000 ) ) ;
#369 = CIRCLE ( 'NONE', #292, 0.1562500000000000000 ) ;
#370 = AXIS2_PLACEMENT_3D ( 'NONE', #84, #337, #360 ) ;
#371 = VERTEX_POINT ( 'NONE', #55 ) ;
#372 = CARTESIAN_POINT ( 'NONE',  ( 0.000000000000000000, 1.250000000000000000, -0.1562499999999998612 ) ) ;
#373 = AXIS2_PLACEMENT_3D ( 'NONE', #130, #64, #351 ) ;
ENDSEC;
END-ISO-10303-21;
