ISO-10303-21;
HEADER;
FILE_DESCRIPTION (( 'STEP AP214' ),
    '1' );
FILE_NAME ('Micro_GEM-281-2X.STEP',
    '2021-09-01T20:23:04',
    ( '' ),
    ( '' ),
    'SwSTEP 2.0',
    'SolidWorks 2020',
    '' );
FILE_SCHEMA (( 'AUTOMOTIVE_DESIGN' ));
ENDSEC;

DATA;
#1 = CIRCLE ( 'NONE', #94, 0.1404594000000000120 ) ;
#2 = EDGE_CURVE ( 'NONE', #110, #62, #228, .T. ) ;
#3 = CIRCLE ( 'NONE', #257, 0.1562500000000000000 ) ;
#4 = CARTESIAN_POINT ( 'NONE',  ( 0.0000000000000000000, 0.0000000000000000000, 2.484999999999999432 ) ) ;
#5 = ORIENTED_EDGE ( 'NONE', *, *, #294, .T. ) ;
#6 = FILL_AREA_STYLE_COLOUR ( '', #213 ) ;
#7 = CIRCLE ( 'NONE', #241, 0.1412499999999994871 ) ;
#8 = EDGE_LOOP ( 'NONE', ( #106, #286, #256, #118 ) ) ;
#9 =( CONVERSION_BASED_UNIT ( 'INCH', #133 ) LENGTH_UNIT ( ) NAMED_UNIT ( #93 ) );
#10 = AXIS2_PLACEMENT_3D ( 'NONE', #183, #58, #157 ) ;
#11 = FACE_OUTER_BOUND ( 'NONE', #290, .T. ) ;
#12 = CARTESIAN_POINT ( 'NONE',  ( 0.0000000000000000000, 0.0000000000000000000, 2.500000000000000000 ) ) ;
#13 = MANIFOLD_SOLID_BREP ( 'Cut-Revolve1', #193 ) ;
#14 = VERTEX_POINT ( 'NONE', #273 ) ;
#15 = DIRECTION ( 'NONE',  ( -1.000000000000000000, 0.0000000000000000000, 0.0000000000000000000 ) ) ;
#16 = PRODUCT_DEFINITION_FORMATION_WITH_SPECIFIED_SOURCE ( 'ANY', '', #120, .NOT_KNOWN. ) ;
#17 = CARTESIAN_POINT ( 'NONE',  ( 0.1404594000000000120, 1.720131546201577623E-17, 0.0000000000000000000 ) ) ;
#18 = DIRECTION ( 'NONE',  ( 0.0000000000000000000, 0.0000000000000000000, -1.000000000000000000 ) ) ;
#19 = VERTEX_POINT ( 'NONE', #233 ) ;
#20 = DIRECTION ( 'NONE',  ( -1.000000000000000000, 0.0000000000000000000, 1.224646799147353207E-16 ) ) ;
#21 = PRODUCT_DEFINITION_CONTEXT ( 'detailed design', #123, 'design' ) ;
#22 = ORIENTED_EDGE ( 'NONE', *, *, #192, .T. ) ;
#23 = VECTOR ( 'NONE', #44, 39.37007874015748143 ) ;
#24 = AXIS2_PLACEMENT_3D ( 'NONE', #180, #299, #291 ) ;
#25 = ADVANCED_FACE ( 'NONE', ( #11 ), #278, .T. ) ;
#26 = DIRECTION ( 'NONE',  ( -1.224646799147353207E-16, -0.0000000000000000000, -1.000000000000000000 ) ) ;
#27 = DIRECTION ( 'NONE',  ( 1.000000000000000000, 0.0000000000000000000, 0.0000000000000000000 ) ) ;
#28 = STYLED_ITEM ( 'NONE', ( #103 ), #51 ) ;
#29 = VERTEX_POINT ( 'NONE', #231 ) ;
#30 = LENGTH_MEASURE_WITH_UNIT ( LENGTH_MEASURE( 0.02539999999999999897 ), #77 );
#31 = DIRECTION ( 'NONE',  ( -1.224646799147353207E-16, -0.0000000000000000000, -1.000000000000000000 ) ) ;
#32 = DIRECTION ( 'NONE',  ( -1.000000000000000000, 0.0000000000000000000, 1.224646799147353207E-16 ) ) ;
#33 =( LENGTH_UNIT ( ) NAMED_UNIT ( * ) SI_UNIT ( $, .METRE. ) );
#34 = DIRECTION ( 'NONE',  ( 0.0000000000000000000, 0.0000000000000000000, 1.000000000000000000 ) ) ;
#35 = AXIS2_PLACEMENT_3D ( 'NONE', #12, #292, #253 ) ;
#36 = AXIS2_PLACEMENT_3D ( 'NONE', #220, #37, #98 ) ;
#37 = DIRECTION ( 'NONE',  ( 0.0000000000000000000, 0.0000000000000000000, -1.000000000000000000 ) ) ;
#38 = CARTESIAN_POINT ( 'NONE',  ( -0.1412499999999994871, 0.0000000000000000000, 2.500000000000000000 ) ) ;
#39 = ADVANCED_FACE ( 'NONE', ( #169 ), #195, .T. ) ;
#40 = SURFACE_STYLE_USAGE ( .BOTH. , #179 ) ;
#41 = SURFACE_STYLE_FILL_AREA ( #54 ) ;
#42 = CIRCLE ( 'NONE', #144, 0.1412499999999994871 ) ;
#43 = DIRECTION ( 'NONE',  ( 1.000000000000000000, 0.0000000000000000000, 0.0000000000000000000 ) ) ;
#44 = DIRECTION ( 'NONE',  ( -0.0000000000000000000, -0.0000000000000000000, -1.000000000000000000 ) ) ;
#45 = AXIS2_PLACEMENT_3D ( 'NONE', #128, #83, #32 ) ;
#46 = EDGE_CURVE ( 'NONE', #182, #14, #297, .T. ) ;
#47 = ORIENTED_EDGE ( 'NONE', *, *, #76, .T. ) ;
#48 = AXIS2_PLACEMENT_3D ( 'NONE', #249, #227, #219 ) ;
#49 = DIRECTION ( 'NONE',  ( -1.000000000000000000, 0.0000000000000000000, 1.224646799147353207E-16 ) ) ;
#50 = FACE_OUTER_BOUND ( 'NONE', #57, .T. ) ;
#51 = ADVANCED_BREP_SHAPE_REPRESENTATION ( 'Micro_GEM-281-2X', ( #13, #24 ), #155 ) ;
#52 = ADVANCED_FACE ( 'NONE', ( #136 ), #230, .T. ) ;
#53 = DIRECTION ( 'NONE',  ( -0.0000000000000000000, -0.0000000000000000000, -1.000000000000000000 ) ) ;
#54 = FILL_AREA_STYLE ('',( #6 ) ) ;
#55 = UNCERTAINTY_MEASURE_WITH_UNIT (LENGTH_MEASURE( 1.000000000000000082E-05 ), #9, 'distance_accuracy_value', 'NONE');
#56 = CARTESIAN_POINT ( 'NONE',  ( 0.1404594000000000953, 0.0000000000000000000, 0.7500000000000001110 ) ) ;
#57 = EDGE_LOOP ( 'NONE', ( #84, #156, #251, #108 ) ) ;
#58 = DIRECTION ( 'NONE',  ( -1.224646799147353207E-16, -0.0000000000000000000, -1.000000000000000000 ) ) ;
#59 =( NAMED_UNIT ( * ) PLANE_ANGLE_UNIT ( ) SI_UNIT ( $, .RADIAN. ) );
#60 = FILL_AREA_STYLE_COLOUR ( '', #295 ) ;
#61 = DIRECTION ( 'NONE',  ( 1.000000000000000000, 0.0000000000000000000, 0.0000000000000000000 ) ) ;
#62 = VERTEX_POINT ( 'NONE', #85 ) ;
#63 = ADVANCED_FACE ( 'NONE', ( #65 ), #140, .F. ) ;
#64 = CONICAL_SURFACE ( 'NONE', #237, 0.1412499999999994871, 0.7853981633974391752 ) ;
#65 = FACE_OUTER_BOUND ( 'NONE', #204, .T. ) ;
#66 = VERTEX_POINT ( 'NONE', #17 ) ;
#67 = ADVANCED_FACE ( 'NONE', ( #293 ), #64, .T. ) ;
#68 = CARTESIAN_POINT ( 'NONE',  ( 0.1562500000000000000, 1.913510623667739463E-17, 2.484999999999999432 ) ) ;
#69 = PRODUCT_DEFINITION_SHAPE ( 'NONE', 'NONE',  #90 ) ;
#70 = EDGE_CURVE ( 'NONE', #19, #269, #114, .T. ) ;
#71 = ORIENTED_EDGE ( 'NONE', *, *, #70, .F. ) ;
#72 = CARTESIAN_POINT ( 'NONE',  ( 0.0000000000000000000, 0.0000000000000000000, 2.500000000000000000 ) ) ;
#73 = PRESENTATION_LAYER_ASSIGNMENT (  '', '', ( #28 ) ) ;
#74 = LINE ( 'NONE', #56, #248 ) ;
#75 = LINE ( 'NONE', #200, #216 ) ;
#76 = EDGE_CURVE ( 'NONE', #14, #62, #137, .T. ) ;
#77 =( LENGTH_UNIT ( ) NAMED_UNIT ( * ) SI_UNIT ( $, .METRE. ) );
#78 = MECHANICAL_DESIGN_GEOMETRIC_PRESENTATION_REPRESENTATION (  '', ( #28 ), #121 ) ;
#79 = UNCERTAINTY_MEASURE_WITH_UNIT (LENGTH_MEASURE( 1.000000000000000082E-05 ), #222, 'distance_accuracy_value', 'NONE');
#80 = ORIENTED_EDGE ( 'NONE', *, *, #101, .T. ) ;
#81 = CARTESIAN_POINT ( 'NONE',  ( -0.1562500000000000000, 0.0000000000000000000, 2.484999999999999432 ) ) ;
#82 = ORIENTED_EDGE ( 'NONE', *, *, #254, .T. ) ;
#83 = DIRECTION ( 'NONE',  ( -1.224646799147353207E-16, -0.0000000000000000000, -1.000000000000000000 ) ) ;
#84 = ORIENTED_EDGE ( 'NONE', *, *, #163, .F. ) ;
#85 = CARTESIAN_POINT ( 'NONE',  ( 0.1562500000000001110, 1.913510623667740388E-17, 0.8395529427008548984 ) ) ;
#86 = STYLED_ITEM ( 'NONE', ( #194 ), #13 ) ;
#87 = CIRCLE ( 'NONE', #10, 0.1404594000000000120 ) ;
#88 = CARTESIAN_POINT ( 'NONE',  ( 9.184850993605150903E-17, 0.0000000000000000000, 0.7500000000000001110 ) ) ;
#89 = CARTESIAN_POINT ( 'NONE',  ( 0.0000000000000000000, 0.0000000000000000000, 0.0000000000000000000 ) ) ;
#90 = PRODUCT_DEFINITION ( 'UNKNOWN', '', #16, #21 ) ;
#91 = PRODUCT_CONTEXT ( 'NONE', #164, 'mechanical' ) ;
#92 = CARTESIAN_POINT ( 'NONE',  ( 1.028155823993343290E-16, 0.0000000000000000000, 0.8395529427008548984 ) ) ;
#93 = DIMENSIONAL_EXPONENTS ( 1.000000000000000000, 0.0000000000000000000, 0.0000000000000000000, 0.0000000000000000000, 0.0000000000000000000, 0.0000000000000000000, 0.0000000000000000000 ) ;
#94 = AXIS2_PLACEMENT_3D ( 'NONE', #129, #265, #181 ) ;
#95 = VERTEX_POINT ( 'NONE', #38 ) ;
#96 = CARTESIAN_POINT ( 'NONE',  ( 0.1404594000000000953, 0.0000000000000000000, 0.7500000000000001110 ) ) ;
#97 = DIRECTION ( 'NONE',  ( 0.7071067811865410224, 8.659560562354852739E-17, -0.7071067811865539010 ) ) ;
#98 = DIRECTION ( 'NONE',  ( -1.000000000000000000, 0.0000000000000000000, 0.0000000000000000000 ) ) ;
#99 = DIMENSIONAL_EXPONENTS ( 1.000000000000000000, 0.0000000000000000000, 0.0000000000000000000, 0.0000000000000000000, 0.0000000000000000000, 0.0000000000000000000, 0.0000000000000000000 ) ;
#100 = DIRECTION ( 'NONE',  ( 1.000000000000000000, 0.0000000000000000000, 0.0000000000000000000 ) ) ;
#101 = EDGE_CURVE ( 'NONE', #29, #110, #188, .T. ) ;
#102 = ORIENTED_EDGE ( 'NONE', *, *, #245, .T. ) ;
#103 = PRESENTATION_STYLE_ASSIGNMENT (( #243 ) ) ;
#104 = VECTOR ( 'NONE', #97, 39.37007874015748854 ) ;
#105 = DIRECTION ( 'NONE',  ( 1.000000000000000000, 0.0000000000000000000, 0.0000000000000000000 ) ) ;
#106 = ORIENTED_EDGE ( 'NONE', *, *, #2, .F. ) ;
#107 = DIRECTION ( 'NONE',  ( 0.1736481776669313026, 0.0000000000000000000, 0.9848077530122077983 ) ) ;
#108 = ORIENTED_EDGE ( 'NONE', *, *, #234, .F. ) ;
#109 =( CONVERSION_BASED_UNIT ( 'INCH', #229 ) LENGTH_UNIT ( ) NAMED_UNIT ( #99 ) );
#110 = VERTEX_POINT ( 'NONE', #68 ) ;
#111 =( NAMED_UNIT ( * ) SI_UNIT ( $, .STERADIAN. ) SOLID_ANGLE_UNIT ( ) );
#112 = DIRECTION ( 'NONE',  ( 1.224646799147353207E-16, 0.0000000000000000000, 1.000000000000000000 ) ) ;
#113 = EDGE_LOOP ( 'NONE', ( #210, #80, #153, #168 ) ) ;
#114 = LINE ( 'NONE', #209, #132 ) ;
#115 = EDGE_CURVE ( 'NONE', #182, #110, #263, .T. ) ;
#116 = DIRECTION ( 'NONE',  ( 0.0000000000000000000, 0.0000000000000000000, -1.000000000000000000 ) ) ;
#117 = EDGE_LOOP ( 'NONE', ( #134, #221, #167, #22 ) ) ;
#118 = ORIENTED_EDGE ( 'NONE', *, *, #192, .F. ) ;
#119 = ADVANCED_FACE ( 'NONE', ( #141 ), #240, .T. ) ;
#120 = PRODUCT ( 'Micro_GEM-281-2X', 'Micro_GEM-281-2X', '', ( #91 ) ) ;
#121 =( GEOMETRIC_REPRESENTATION_CONTEXT ( 3 ) GLOBAL_UNCERTAINTY_ASSIGNED_CONTEXT ( ( #225 ) ) GLOBAL_UNIT_ASSIGNED_CONTEXT ( ( #109, #59, #111 ) ) REPRESENTATION_CONTEXT ( 'NONE', 'WORKASPACE' ) );
#122 = CARTESIAN_POINT ( 'NONE',  ( 1.028155823993343290E-16, 0.0000000000000000000, 0.8395529427008548984 ) ) ;
#123 = APPLICATION_CONTEXT ( 'automotive_design' ) ;
#124 = DIRECTION ( 'NONE',  ( -0.7071067811865410224, 0.0000000000000000000, -0.7071067811865539010 ) ) ;
#125 = CARTESIAN_POINT ( 'NONE',  ( 0.0000000000000000000, 0.0000000000000000000, 0.0000000000000000000 ) ) ;
#126 = FACE_OUTER_BOUND ( 'NONE', #113, .T. ) ;
#127 = ORIENTED_EDGE ( 'NONE', *, *, #101, .F. ) ;
#128 = CARTESIAN_POINT ( 'NONE',  ( 2.106553592168149428E-33, 0.0000000000000000000, 1.720131546201577623E-17 ) ) ;
#129 = CARTESIAN_POINT ( 'NONE',  ( 9.184850993605150903E-17, 0.0000000000000000000, 0.7500000000000001110 ) ) ;
#130 =( NAMED_UNIT ( * ) PLANE_ANGLE_UNIT ( ) SI_UNIT ( $, .RADIAN. ) );
#131 = DIRECTION ( 'NONE',  ( -0.1736481776669311083, 2.126576849575782084E-17, 0.9848077530122080203 ) ) ;
#132 = VECTOR ( 'NONE', #298, 39.37007874015748143 ) ;
#133 = LENGTH_MEASURE_WITH_UNIT ( LENGTH_MEASURE( 0.02539999999999999897 ), #247 );
#134 = ORIENTED_EDGE ( 'NONE', *, *, #158, .F. ) ;
#135 = SURFACE_SIDE_STYLE ('',( #41 ) ) ;
#136 = FACE_OUTER_BOUND ( 'NONE', #201, .T. ) ;
#137 = CIRCLE ( 'NONE', #197, 0.1562500000000000000 ) ;
#138 = EDGE_CURVE ( 'NONE', #217, #19, #1, .T. ) ;
#139 = DIRECTION ( 'NONE',  ( 0.0000000000000000000, 0.0000000000000000000, 1.000000000000000000 ) ) ;
#140 = PLANE ( 'NONE',  #173 ) ;
#141 = FACE_OUTER_BOUND ( 'NONE', #244, .T. ) ;
#142 = DIMENSIONAL_EXPONENTS ( 1.000000000000000000, 0.0000000000000000000, 0.0000000000000000000, 0.0000000000000000000, 0.0000000000000000000, 0.0000000000000000000, 0.0000000000000000000 ) ;
#143 = ORIENTED_EDGE ( 'NONE', *, *, #294, .F. ) ;
#144 = AXIS2_PLACEMENT_3D ( 'NONE', #72, #176, #171 ) ;
#145 = DIRECTION ( 'NONE',  ( 0.0000000000000000000, 0.0000000000000000000, -1.000000000000000000 ) ) ;
#146 = EDGE_CURVE ( 'NONE', #217, #62, #74, .T. ) ;
#147 = AXIS2_PLACEMENT_3D ( 'NONE', #175, #258, #49 ) ;
#148 = FACE_OUTER_BOUND ( 'NONE', #8, .T. ) ;
#149 = AXIS2_PLACEMENT_3D ( 'NONE', #268, #187, #206 ) ;
#150 = ORIENTED_EDGE ( 'NONE', *, *, #158, .T. ) ;
#151 =( NAMED_UNIT ( * ) PLANE_ANGLE_UNIT ( ) SI_UNIT ( $, .RADIAN. ) );
#152 = DIRECTION ( 'NONE',  ( 1.000000000000000000, 0.0000000000000000000, -0.0000000000000000000 ) ) ;
#153 = ORIENTED_EDGE ( 'NONE', *, *, #115, .F. ) ;
#154 = EDGE_LOOP ( 'NONE', ( #5, #165, #232, #71 ) ) ;
#155 =( GEOMETRIC_REPRESENTATION_CONTEXT ( 3 ) GLOBAL_UNCERTAINTY_ASSIGNED_CONTEXT ( ( #79 ) ) GLOBAL_UNIT_ASSIGNED_CONTEXT ( ( #222, #151, #199 ) ) REPRESENTATION_CONTEXT ( 'NONE', 'WORKASPACE' ) );
#156 = ORIENTED_EDGE ( 'NONE', *, *, #138, .T. ) ;
#157 = DIRECTION ( 'NONE',  ( -1.000000000000000000, 0.0000000000000000000, 0.0000000000000000000 ) ) ;
#158 = EDGE_CURVE ( 'NONE', #19, #14, #226, .T. ) ;
#159 = CARTESIAN_POINT ( 'NONE',  ( 0.1562500000000000000, 1.913510623667739463E-17, 2.500000000000000000 ) ) ;
#160 = CIRCLE ( 'NONE', #205, 0.1562500000000000000 ) ;
#161 = PRESENTATION_LAYER_ASSIGNMENT (  '', '', ( #86 ) ) ;
#162 = ORIENTED_EDGE ( 'NONE', *, *, #254, .F. ) ;
#163 = EDGE_CURVE ( 'NONE', #217, #66, #75, .T. ) ;
#164 = APPLICATION_CONTEXT ( 'automotive_design' ) ;
#165 = ORIENTED_EDGE ( 'NONE', *, *, #163, .T. ) ;
#166 = CARTESIAN_POINT ( 'NONE',  ( 0.0000000000000000000, 0.0000000000000000000, 2.500000000000000000 ) ) ;
#167 = ORIENTED_EDGE ( 'NONE', *, *, #146, .T. ) ;
#168 = ORIENTED_EDGE ( 'NONE', *, *, #245, .F. ) ;
#169 = FACE_OUTER_BOUND ( 'NONE', #117, .T. ) ;
#170 = AXIS2_PLACEMENT_3D ( 'NONE', #239, #26, #20 ) ;
#171 = DIRECTION ( 'NONE',  ( 1.000000000000000000, 0.0000000000000000000, 0.0000000000000000000 ) ) ;
#172 = DIRECTION ( 'NONE',  ( -1.224646799147353207E-16, -0.0000000000000000000, -1.000000000000000000 ) ) ;
#173 = AXIS2_PLACEMENT_3D ( 'NONE', #89, #139, #208 ) ;
#174 = AXIS2_PLACEMENT_3D ( 'NONE', #262, #34, #152 ) ;
#175 = CARTESIAN_POINT ( 'NONE',  ( 2.106553592168149428E-33, 0.0000000000000000000, 1.720131546201577623E-17 ) ) ;
#176 = DIRECTION ( 'NONE',  ( 0.0000000000000000000, 0.0000000000000000000, 1.000000000000000000 ) ) ;
#177 = AXIS2_PLACEMENT_3D ( 'NONE', #267, #18, #259 ) ;
#178 = DIRECTION ( 'NONE',  ( 0.0000000000000000000, 0.0000000000000000000, 1.000000000000000000 ) ) ;
#179 = SURFACE_SIDE_STYLE ('',( #198 ) ) ;
#180 = CARTESIAN_POINT ( 'NONE',  ( 0.0000000000000000000, 0.0000000000000000000, 0.0000000000000000000 ) ) ;
#181 = DIRECTION ( 'NONE',  ( -1.000000000000000000, 0.0000000000000000000, 0.0000000000000000000 ) ) ;
#182 = VERTEX_POINT ( 'NONE', #81 ) ;
#183 = CARTESIAN_POINT ( 'NONE',  ( 9.184850993605150903E-17, 0.0000000000000000000, 0.7500000000000001110 ) ) ;
#184 = EDGE_LOOP ( 'NONE', ( #127, #162, #102, #190 ) ) ;
#185 = ADVANCED_FACE ( 'NONE', ( #126 ), #277, .T. ) ;
#186 = CIRCLE ( 'NONE', #45, 0.1404594000000000120 ) ;
#187 = DIRECTION ( 'NONE',  ( 1.224646799147353207E-16, 0.0000000000000000000, 1.000000000000000000 ) ) ;
#188 = LINE ( 'NONE', #276, #104 ) ;
#189 = APPLICATION_PROTOCOL_DEFINITION ( 'draft international standard', 'automotive_design', 1998, #123 ) ;
#190 = ORIENTED_EDGE ( 'NONE', *, *, #236, .F. ) ;
#191 = DIRECTION ( 'NONE',  ( -1.224646799147353207E-16, -0.0000000000000000000, -1.000000000000000000 ) ) ;
#192 = EDGE_CURVE ( 'NONE', #62, #14, #160, .T. ) ;
#193 = CLOSED_SHELL ( 'NONE', ( #211, #25, #185, #52, #280, #119, #67, #39, #242, #63 ) ) ;
#194 = PRESENTATION_STYLE_ASSIGNMENT (( #40 ) ) ;
#195 = CONICAL_SURFACE ( 'NONE', #223, 0.1404594000000000120, 0.1745329251994338082 ) ;
#196 =( NAMED_UNIT ( * ) SI_UNIT ( $, .STERADIAN. ) SOLID_ANGLE_UNIT ( ) );
#197 = AXIS2_PLACEMENT_3D ( 'NONE', #92, #191, #105 ) ;
#198 = SURFACE_STYLE_FILL_AREA ( #281 ) ;
#199 =( NAMED_UNIT ( * ) SI_UNIT ( $, .STERADIAN. ) SOLID_ANGLE_UNIT ( ) );
#200 = CARTESIAN_POINT ( 'NONE',  ( 0.1404594000000000120, 1.720131546201577623E-17, -1.720131546201577623E-17 ) ) ;
#201 = EDGE_LOOP ( 'NONE', ( #282, #224, #214, #287 ) ) ;
#202 = EDGE_CURVE ( 'NONE', #29, #95, #42, .T. ) ;
#203 = CARTESIAN_POINT ( 'NONE',  ( 0.0000000000000000000, 0.0000000000000000000, 2.500000000000000000 ) ) ;
#204 = EDGE_LOOP ( 'NONE', ( #266, #260 ) ) ;
#205 = AXIS2_PLACEMENT_3D ( 'NONE', #122, #172, #27 ) ;
#206 = DIRECTION ( 'NONE',  ( 1.000000000000000000, 0.0000000000000000000, 0.0000000000000000000 ) ) ;
#207 = SHAPE_DEFINITION_REPRESENTATION ( #69, #51 ) ;
#208 = DIRECTION ( 'NONE',  ( 1.000000000000000000, 0.0000000000000000000, -0.0000000000000000000 ) ) ;
#209 = CARTESIAN_POINT ( 'NONE',  ( -0.1404594000000000120, 0.0000000000000000000, 1.720131546201577623E-17 ) ) ;
#210 = ORIENTED_EDGE ( 'NONE', *, *, #202, .F. ) ;
#211 = ADVANCED_FACE ( 'NONE', ( #238 ), #261, .T. ) ;
#212 = LINE ( 'NONE', #279, #289 ) ;
#213 = COLOUR_RGB ( '',0.7921568627450980005, 0.8196078431372548767, 0.9333333333333333481 ) ;
#214 = ORIENTED_EDGE ( 'NONE', *, *, #76, .F. ) ;
#215 = DIRECTION ( 'NONE',  ( -1.224646799147353207E-16, -0.0000000000000000000, -1.000000000000000000 ) ) ;
#216 = VECTOR ( 'NONE', #31, 39.37007874015748143 ) ;
#217 = VERTEX_POINT ( 'NONE', #96 ) ;
#218 = ORIENTED_EDGE ( 'NONE', *, *, #146, .F. ) ;
#219 = DIRECTION ( 'NONE',  ( -1.000000000000000000, 0.0000000000000000000, 0.0000000000000000000 ) ) ;
#220 = CARTESIAN_POINT ( 'NONE',  ( 0.0000000000000000000, 0.0000000000000000000, 2.500000000000000000 ) ) ;
#221 = ORIENTED_EDGE ( 'NONE', *, *, #138, .F. ) ;
#222 =( CONVERSION_BASED_UNIT ( 'INCH', #30 ) LENGTH_UNIT ( ) NAMED_UNIT ( #142 ) );
#223 = AXIS2_PLACEMENT_3D ( 'NONE', #88, #112, #43 ) ;
#224 = ORIENTED_EDGE ( 'NONE', *, *, #2, .T. ) ;
#225 = UNCERTAINTY_MEASURE_WITH_UNIT (LENGTH_MEASURE( 1.000000000000000082E-05 ), #109, 'distance_accuracy_value', 'NONE');
#226 = LINE ( 'NONE', #250, #274 ) ;
#227 = DIRECTION ( 'NONE',  ( -0.0000000000000000000, -0.0000000000000000000, -1.000000000000000000 ) ) ;
#228 = LINE ( 'NONE', #159, #285 ) ;
#229 = LENGTH_MEASURE_WITH_UNIT ( LENGTH_MEASURE( 0.02539999999999999897 ), #33 );
#230 = CYLINDRICAL_SURFACE ( 'NONE', #35, 0.1562500000000000000 ) ;
#231 = CARTESIAN_POINT ( 'NONE',  ( 0.1412499999999994871, 1.821662113731684786E-17, 2.500000000000000000 ) ) ;
#232 = ORIENTED_EDGE ( 'NONE', *, *, #271, .F. ) ;
#233 = CARTESIAN_POINT ( 'NONE',  ( -0.1404593999999999288, 1.816821084934658389E-17, 0.7500000000000001110 ) ) ;
#234 = EDGE_CURVE ( 'NONE', #66, #269, #296, .T. ) ;
#235 = CYLINDRICAL_SURFACE ( 'NONE', #170, 0.1404594000000000120 ) ;
#236 = EDGE_CURVE ( 'NONE', #110, #182, #3, .T. ) ;
#237 = AXIS2_PLACEMENT_3D ( 'NONE', #166, #116, #15 ) ;
#238 = FACE_OUTER_BOUND ( 'NONE', #154, .T. ) ;
#239 = CARTESIAN_POINT ( 'NONE',  ( 0.0000000000000000000, 0.0000000000000000000, 0.0000000000000000000 ) ) ;
#240 = PLANE ( 'NONE',  #174 ) ;
#241 = AXIS2_PLACEMENT_3D ( 'NONE', #203, #178, #61 ) ;
#242 = ADVANCED_FACE ( 'NONE', ( #50 ), #235, .T. ) ;
#243 = SURFACE_STYLE_USAGE ( .BOTH. , #135 ) ;
#244 = EDGE_LOOP ( 'NONE', ( #82, #264 ) ) ;
#245 = EDGE_CURVE ( 'NONE', #95, #182, #212, .T. ) ;
#246 =( GEOMETRIC_REPRESENTATION_CONTEXT ( 3 ) GLOBAL_UNCERTAINTY_ASSIGNED_CONTEXT ( ( #55 ) ) GLOBAL_UNIT_ASSIGNED_CONTEXT ( ( #9, #130, #196 ) ) REPRESENTATION_CONTEXT ( 'NONE', 'WORKASPACE' ) );
#247 =( LENGTH_UNIT ( ) NAMED_UNIT ( * ) SI_UNIT ( $, .METRE. ) );
#248 = VECTOR ( 'NONE', #107, 39.37007874015748143 ) ;
#249 = CARTESIAN_POINT ( 'NONE',  ( 0.0000000000000000000, 0.0000000000000000000, 2.500000000000000000 ) ) ;
#250 = CARTESIAN_POINT ( 'NONE',  ( -0.1404593999999999288, 1.720131546201577623E-17, 0.7500000000000001110 ) ) ;
#251 = ORIENTED_EDGE ( 'NONE', *, *, #70, .T. ) ;
#252 = APPLICATION_PROTOCOL_DEFINITION ( 'draft international standard', 'automotive_design', 1998, #164 ) ;
#253 = DIRECTION ( 'NONE',  ( -1.000000000000000000, 0.0000000000000000000, 0.0000000000000000000 ) ) ;
#254 = EDGE_CURVE ( 'NONE', #95, #29, #7, .T. ) ;
#255 = DIRECTION ( 'NONE',  ( -1.000000000000000000, 0.0000000000000000000, 1.224646799147353207E-16 ) ) ;
#256 = ORIENTED_EDGE ( 'NONE', *, *, #46, .T. ) ;
#257 = AXIS2_PLACEMENT_3D ( 'NONE', #4, #145, #100 ) ;
#258 = DIRECTION ( 'NONE',  ( -1.224646799147353207E-16, -0.0000000000000000000, -1.000000000000000000 ) ) ;
#259 = DIRECTION ( 'NONE',  ( 1.000000000000000000, 0.0000000000000000000, 0.0000000000000000000 ) ) ;
#260 = ORIENTED_EDGE ( 'NONE', *, *, #234, .T. ) ;
#261 = CYLINDRICAL_SURFACE ( 'NONE', #284, 0.1404594000000000120 ) ;
#262 = CARTESIAN_POINT ( 'NONE',  ( 0.0000000000000000000, 0.0000000000000000000, 2.500000000000000000 ) ) ;
#263 = CIRCLE ( 'NONE', #177, 0.1562500000000000000 ) ;
#264 = ORIENTED_EDGE ( 'NONE', *, *, #202, .T. ) ;
#265 = DIRECTION ( 'NONE',  ( -1.224646799147353207E-16, -0.0000000000000000000, -1.000000000000000000 ) ) ;
#266 = ORIENTED_EDGE ( 'NONE', *, *, #271, .T. ) ;
#267 = CARTESIAN_POINT ( 'NONE',  ( 0.0000000000000000000, 0.0000000000000000000, 2.484999999999999432 ) ) ;
#268 = CARTESIAN_POINT ( 'NONE',  ( 9.184850993605150903E-17, 0.0000000000000000000, 0.7500000000000001110 ) ) ;
#269 = VERTEX_POINT ( 'NONE', #288 ) ;
#270 = CYLINDRICAL_SURFACE ( 'NONE', #48, 0.1562500000000000000 ) ;
#271 = EDGE_CURVE ( 'NONE', #269, #66, #186, .T. ) ;
#272 = CARTESIAN_POINT ( 'NONE',  ( -0.1562500000000000000, 0.0000000000000000000, 2.500000000000000000 ) ) ;
#273 = CARTESIAN_POINT ( 'NONE',  ( -0.1562499999999999167, 0.0000000000000000000, 0.8395529427008548984 ) ) ;
#274 = VECTOR ( 'NONE', #131, 39.37007874015747433 ) ;
#275 = PRODUCT_RELATED_PRODUCT_CATEGORY ( 'part', '', ( #120 ) ) ;
#276 = CARTESIAN_POINT ( 'NONE',  ( 0.1412499999999994871, 1.729813603795630110E-17, 2.500000000000000000 ) ) ;
#277 = CONICAL_SURFACE ( 'NONE', #36, 0.1412499999999994871, 0.7853981633974391752 ) ;
#278 = CONICAL_SURFACE ( 'NONE', #149, 0.1404594000000000120, 0.1745329251994338082 ) ;
#279 = CARTESIAN_POINT ( 'NONE',  ( -0.1412499999999994871, 0.0000000000000000000, 2.500000000000000000 ) ) ;
#280 = ADVANCED_FACE ( 'NONE', ( #148 ), #270, .T. ) ;
#281 = FILL_AREA_STYLE ('',( #60 ) ) ;
#282 = ORIENTED_EDGE ( 'NONE', *, *, #115, .T. ) ;
#283 = MECHANICAL_DESIGN_GEOMETRIC_PRESENTATION_REPRESENTATION (  '', ( #86 ), #246 ) ;
#284 = AXIS2_PLACEMENT_3D ( 'NONE', #125, #215, #255 ) ;
#285 = VECTOR ( 'NONE', #53, 39.37007874015748143 ) ;
#286 = ORIENTED_EDGE ( 'NONE', *, *, #236, .T. ) ;
#287 = ORIENTED_EDGE ( 'NONE', *, *, #46, .F. ) ;
#288 = CARTESIAN_POINT ( 'NONE',  ( -0.1404594000000000120, 0.0000000000000000000, 3.440263092403155245E-17 ) ) ;
#289 = VECTOR ( 'NONE', #124, 39.37007874015748854 ) ;
#290 = EDGE_LOOP ( 'NONE', ( #143, #150, #47, #218 ) ) ;
#291 = DIRECTION ( 'NONE',  ( 1.000000000000000000, 0.0000000000000000000, 0.0000000000000000000 ) ) ;
#292 = DIRECTION ( 'NONE',  ( -0.0000000000000000000, -0.0000000000000000000, -1.000000000000000000 ) ) ;
#293 = FACE_OUTER_BOUND ( 'NONE', #184, .T. ) ;
#294 = EDGE_CURVE ( 'NONE', #19, #217, #87, .T. ) ;
#295 = COLOUR_RGB ( '',0.7921568627450980005, 0.8196078431372548767, 0.9333333333333333481 ) ;
#296 = CIRCLE ( 'NONE', #147, 0.1404594000000000120 ) ;
#297 = LINE ( 'NONE', #272, #23 ) ;
#298 = DIRECTION ( 'NONE',  ( -1.224646799147353207E-16, -0.0000000000000000000, -1.000000000000000000 ) ) ;
#299 = DIRECTION ( 'NONE',  ( 0.0000000000000000000, 0.0000000000000000000, 1.000000000000000000 ) ) ;
ENDSEC;
END-ISO-10303-21;
