ISO-10303-21;
HEADER;
FILE_DESCRIPTION (( 'STEP AP214' ),
    '1' );
FILE_NAME ('83526.STEP',
    '2023-06-23T10:39:11',
    ( '' ),
    ( '' ),
    'SwSTEP 2.0',
    'SolidWorks 2023',
    '' );
FILE_SCHEMA (( 'AUTOMOTIVE_DESIGN' ));
ENDSEC;

DATA;
#1 = DIRECTION ( 'NONE',  ( -1.000000000000000000, 0.000000000000000000, 0.000000000000000000 ) ) ;
#2 = DIRECTION ( 'NONE',  ( 0.000000000000000000, 0.000000000000000000, -1.000000000000000000 ) ) ;
#3 =( NAMED_UNIT ( * ) PLANE_ANGLE_UNIT ( ) SI_UNIT ( $, .RADIAN. ) );
#4 = AXIS2_PLACEMENT_3D ( 'NONE', #63, #160, #16 ) ;
#5 =( GEOMETRIC_REPRESENTATION_CONTEXT ( 3 ) GLOBAL_UNCERTAINTY_ASSIGNED_CONTEXT ( ( #250 ) ) GLOBAL_UNIT_ASSIGNED_CONTEXT ( ( #193, #3, #44 ) ) REPRESENTATION_CONTEXT ( 'NONE', 'WORKASPACE' ) );
#6 =( NAMED_UNIT ( * ) SI_UNIT ( $, .STERADIAN. ) SOLID_ANGLE_UNIT ( ) );
#7 =( NAMED_UNIT ( * ) PLANE_ANGLE_UNIT ( ) SI_UNIT ( $, .RADIAN. ) );
#8 = PLANE ( 'NONE',  #283 ) ;
#9 = COLOUR_RGB ( '',1.000000000000000000, 0.000000000000000000, 0.000000000000000000 ) ;
#10 = ORIENTED_EDGE ( 'NONE', *, *, #260, .T. ) ;
#11 = ORIENTED_EDGE ( 'NONE', *, *, #148, .T. ) ;
#12 = EDGE_LOOP ( 'NONE', ( #50, #11, #220, #111 ) ) ;
#13 = CIRCLE ( 'NONE', #227, 0.3750000000000000555 ) ;
#14 = FACE_OUTER_BOUND ( 'NONE', #48, .T. ) ;
#15 = VECTOR ( 'NONE', #34, 39.37007874015748143 ) ;
#16 = DIRECTION ( 'NONE',  ( -1.000000000000000000, 0.000000000000000000, 0.000000000000000000 ) ) ;
#17 =( NAMED_UNIT ( * ) SI_UNIT ( $, .STERADIAN. ) SOLID_ANGLE_UNIT ( ) );
#18 = LINE ( 'NONE', #305, #228 ) ;
#19 = CARTESIAN_POINT ( 'NONE',  ( 0.000000000000000000, 0.000000000000000000, -0.3750000000000000555 ) ) ;
#20 = EDGE_CURVE ( 'NONE', #197, #189, #201, .T. ) ;
#21 =( LENGTH_UNIT ( ) NAMED_UNIT ( * ) SI_UNIT ( $, .METRE. ) );
#22 = CARTESIAN_POINT ( 'NONE',  ( 0.000000000000000000, 3.250000000000000000, -0.3750000000000000555 ) ) ;
#23 =( CONVERSION_BASED_UNIT ( 'INCH', #218 ) LENGTH_UNIT ( ) NAMED_UNIT ( #299 ) );
#24 = AXIS2_PLACEMENT_3D ( 'NONE', #124, #185, #105 ) ;
#25 = EDGE_CURVE ( 'NONE', #81, #273, #13, .T. ) ;
#26 = SURFACE_STYLE_USAGE ( .BOTH. , #271 ) ;
#27 =( CONVERSION_BASED_UNIT ( 'INCH', #54 ) LENGTH_UNIT ( ) NAMED_UNIT ( #77 ) );
#28 = CARTESIAN_POINT ( 'NONE',  ( 0.000000000000000000, 0.000000000000000000, 0.000000000000000000 ) ) ;
#29 = UNCERTAINTY_MEASURE_WITH_UNIT (LENGTH_MEASURE( 1.000000000000000082E-05 ), #96, 'distance_accuracy_value', 'NONE');
#30 = AXIS2_PLACEMENT_3D ( 'NONE', #254, #203, #178 ) ;
#31 = DIMENSIONAL_EXPONENTS ( 1.000000000000000000, 0.000000000000000000, 0.000000000000000000, 0.000000000000000000, 0.000000000000000000, 0.000000000000000000, 0.000000000000000000 ) ;
#32 = CARTESIAN_POINT ( 'NONE',  ( 0.000000000000000000, 3.250000000000000000, 0.000000000000000000 ) ) ;
#33 = EDGE_LOOP ( 'NONE', ( #172, #106 ) ) ;
#34 = DIRECTION ( 'NONE',  ( -8.906522175617116587E-17, 1.000000000000000000, -0.000000000000000000 ) ) ;
#35 = COLOUR_RGB ( '',1.000000000000000000, 0.000000000000000000, 0.000000000000000000 ) ;
#36 = VERTEX_POINT ( 'NONE', #22 ) ;
#37 = FACE_OUTER_BOUND ( 'NONE', #83, .T. ) ;
#38 = FILL_AREA_STYLE_COLOUR ( '', #9 ) ;
#39 = DIRECTION ( 'NONE',  ( -1.000000000000000000, 0.000000000000000000, 0.000000000000000000 ) ) ;
#40 = PRESENTATION_LAYER_ASSIGNMENT (  '', '', ( #87 ) ) ;
#41 = SURFACE_STYLE_FILL_AREA ( #165 ) ;
#42 = ORIENTED_EDGE ( 'NONE', *, *, #20, .T. ) ;
#43 = LENGTH_MEASURE_WITH_UNIT ( LENGTH_MEASURE( 0.02539999999999999897 ), #21 );
#44 =( NAMED_UNIT ( * ) SI_UNIT ( $, .STERADIAN. ) SOLID_ANGLE_UNIT ( ) );
#45 = CIRCLE ( 'NONE', #264, 0.3750000000000000555 ) ;
#46 = APPLICATION_CONTEXT ( 'automotive_design' ) ;
#47 = PLANE ( 'NONE',  #100 ) ;
#48 = EDGE_LOOP ( 'NONE', ( #297, #144 ) ) ;
#49 = ADVANCED_FACE ( 'NONE', ( #230 ), #94, .F. ) ;
#50 = ORIENTED_EDGE ( 'NONE', *, *, #25, .T. ) ;
#51 = CLOSED_SHELL ( 'NONE', ( #62, #142, #153, #49 ) ) ;
#52 = AXIS2_PLACEMENT_3D ( 'NONE', #265, #66, #241 ) ;
#53 = DIMENSIONAL_EXPONENTS ( 1.000000000000000000, 0.000000000000000000, 0.000000000000000000, 0.000000000000000000, 0.000000000000000000, 0.000000000000000000, 0.000000000000000000 ) ;
#54 = LENGTH_MEASURE_WITH_UNIT ( LENGTH_MEASURE( 0.02539999999999999897 ), #275 );
#55 = ORIENTED_EDGE ( 'NONE', *, *, #130, .F. ) ;
#56 = SURFACE_STYLE_FILL_AREA ( #304 ) ;
#57 = ORIENTED_EDGE ( 'NONE', *, *, #187, .F. ) ;
#58 = PRESENTATION_LAYER_ASSIGNMENT (  '', '', ( #154 ) ) ;
#59 = SURFACE_SIDE_STYLE ('',( #261 ) ) ;
#60 = LENGTH_MEASURE_WITH_UNIT ( LENGTH_MEASURE( 0.02539999999999999897 ), #281 );
#61 = SURFACE_STYLE_USAGE ( .BOTH. , #285 ) ;
#62 = ADVANCED_FACE ( 'NONE', ( #183 ), #152, .T. ) ;
#63 = CARTESIAN_POINT ( 'NONE',  ( -2.449293598294707400E-16, 6.000000000000000888, 0.000000000000000000 ) ) ;
#64 = CARTESIAN_POINT ( 'NONE',  ( 4.592425496802575451E-17, 0.000000000000000000, 0.3750000000000000555 ) ) ;
#65 =( GEOMETRIC_REPRESENTATION_CONTEXT ( 3 ) GLOBAL_UNCERTAINTY_ASSIGNED_CONTEXT ( ( #125 ) ) GLOBAL_UNIT_ASSIGNED_CONTEXT ( ( #274, #245, #168 ) ) REPRESENTATION_CONTEXT ( 'NONE', 'WORKASPACE' ) );
#66 = DIRECTION ( 'NONE',  ( -0.000000000000000000, -1.000000000000000000, -0.000000000000000000 ) ) ;
#67 = APPLICATION_CONTEXT ( 'automotive_design' ) ;
#68 = FILL_AREA_STYLE_COLOUR ( '', #307 ) ;
#69 = PRODUCT_DEFINITION ( 'UNKNOWN', '', #252, #151 ) ;
#70 = DIRECTION ( 'NONE',  ( -0.000000000000000000, -1.000000000000000000, -0.000000000000000000 ) ) ;
#71 = PRESENTATION_LAYER_ASSIGNMENT (  '', '', ( #270 ) ) ;
#72 = CIRCLE ( 'NONE', #95, 0.3750000000000002776 ) ;
#73 = DIRECTION ( 'NONE',  ( 0.000000000000000000, -0.000000000000000000, 1.000000000000000000 ) ) ;
#74 = MANIFOLD_SOLID_BREP ( 'Revolve - Cutting Edge', #116 ) ;
#75 =( NAMED_UNIT ( * ) SI_UNIT ( $, .STERADIAN. ) SOLID_ANGLE_UNIT ( ) );
#76 = EDGE_LOOP ( 'NONE', ( #169, #79, #122, #57 ) ) ;
#77 = DIMENSIONAL_EXPONENTS ( 1.000000000000000000, 0.000000000000000000, 0.000000000000000000, 0.000000000000000000, 0.000000000000000000, 0.000000000000000000, 0.000000000000000000 ) ;
#78 = AXIS2_PLACEMENT_3D ( 'NONE', #170, #127, #248 ) ;
#79 = ORIENTED_EDGE ( 'NONE', *, *, #115, .T. ) ;
#80 = SURFACE_SIDE_STYLE ('',( #175 ) ) ;
#81 = VERTEX_POINT ( 'NONE', #207 ) ;
#82 = AXIS2_PLACEMENT_3D ( 'NONE', #286, #209, #1 ) ;
#83 = EDGE_LOOP ( 'NONE', ( #210, #171, #118, #156 ) ) ;
#84 = PLANE ( 'NONE',  #181 ) ;
#85 = DIRECTION ( 'NONE',  ( -1.000000000000000000, 0.000000000000000000, 0.000000000000000000 ) ) ;
#86 = DIRECTION ( 'NONE',  ( -0.000000000000000000, -1.000000000000000000, -0.000000000000000000 ) ) ;
#87 = STYLED_ITEM ( 'NONE', ( #131 ), #98 ) ;
#88 = LENGTH_MEASURE_WITH_UNIT ( LENGTH_MEASURE( 0.02539999999999999897 ), #259 );
#89 = ADVANCED_FACE ( 'NONE', ( #179 ), #177, .T. ) ;
#90 = DIRECTION ( 'NONE',  ( -8.906522175617116587E-17, 1.000000000000000000, -0.000000000000000000 ) ) ;
#91 = CARTESIAN_POINT ( 'NONE',  ( -3.032960542342103792E-32, 3.250000000000000000, 0.000000000000000000 ) ) ;
#92 = PRODUCT_RELATED_PRODUCT_CATEGORY ( 'part', '', ( #173 ) ) ;
#93 = DIRECTION ( 'NONE',  ( -0.000000000000000000, -1.000000000000000000, -0.000000000000000000 ) ) ;
#94 = PLANE ( 'NONE',  #233 ) ;
#95 = AXIS2_PLACEMENT_3D ( 'NONE', #229, #90, #159 ) ;
#96 =( CONVERSION_BASED_UNIT ( 'INCH', #242 ) LENGTH_UNIT ( ) NAMED_UNIT ( #224 ) );
#97 = ADVANCED_FACE ( 'NONE', ( #298 ), #47, .T. ) ;
#98 = ADVANCED_FACE ( 'NONE', ( #37 ), #132, .T. ) ;
#99 = DIMENSIONAL_EXPONENTS ( 1.000000000000000000, 0.000000000000000000, 0.000000000000000000, 0.000000000000000000, 0.000000000000000000, 0.000000000000000000, 0.000000000000000000 ) ;
#100 = AXIS2_PLACEMENT_3D ( 'NONE', #195, #155, #257 ) ;
#101 = MECHANICAL_DESIGN_GEOMETRIC_PRESENTATION_REPRESENTATION (  '', ( #87 ), #216 ) ;
#102 = FILL_AREA_STYLE_COLOUR ( '', #35 ) ;
#103 = ADVANCED_BREP_SHAPE_REPRESENTATION ( '83526', ( #74, #287, #78 ), #65 ) ;
#104 = FILL_AREA_STYLE ('',( #38 ) ) ;
#105 = DIRECTION ( 'NONE',  ( -1.000000000000000000, 0.000000000000000000, 0.000000000000000000 ) ) ;
#106 = ORIENTED_EDGE ( 'NONE', *, *, #115, .F. ) ;
#107 = STYLED_ITEM ( 'NONE', ( #263 ), #74 ) ;
#108 = CARTESIAN_POINT ( 'NONE',  ( 0.3749999999999998890, 6.000000000000000888, 4.592425496802576684E-17 ) ) ;
#109 = STYLED_ITEM ( 'NONE', ( #143 ), #287 ) ;
#110 = ORIENTED_EDGE ( 'NONE', *, *, #187, .T. ) ;
#111 = ORIENTED_EDGE ( 'NONE', *, *, #121, .F. ) ;
#112 = CARTESIAN_POINT ( 'NONE',  ( 0.000000000000000000, 3.250000000000000000, 0.000000000000000000 ) ) ;
#113 = SURFACE_STYLE_USAGE ( .BOTH. , #59 ) ;
#114 = PRESENTATION_LAYER_ASSIGNMENT (  '', '', ( #196 ) ) ;
#115 = EDGE_CURVE ( 'NONE', #273, #81, #119, .T. ) ;
#116 = CLOSED_SHELL ( 'NONE', ( #89, #211, #98, #97 ) ) ;
#117 =( NAMED_UNIT ( * ) PLANE_ANGLE_UNIT ( ) SI_UNIT ( $, .RADIAN. ) );
#118 = ORIENTED_EDGE ( 'NONE', *, *, #130, .T. ) ;
#119 = CIRCLE ( 'NONE', #24, 0.3750000000000000555 ) ;
#120 = ORIENTED_EDGE ( 'NONE', *, *, #199, .T. ) ;
#121 = EDGE_CURVE ( 'NONE', #81, #186, #289, .T. ) ;
#122 = ORIENTED_EDGE ( 'NONE', *, *, #121, .T. ) ;
#123 = LENGTH_MEASURE_WITH_UNIT ( LENGTH_MEASURE( 0.02539999999999999897 ), #244 );
#124 = CARTESIAN_POINT ( 'NONE',  ( -3.032960542342103792E-32, 3.250000000000000000, 0.000000000000000000 ) ) ;
#125 = UNCERTAINTY_MEASURE_WITH_UNIT (LENGTH_MEASURE( 1.000000000000000082E-05 ), #274, 'distance_accuracy_value', 'NONE');
#126 = EDGE_LOOP ( 'NONE', ( #120, #10, #236, #55 ) ) ;
#127 = DIRECTION ( 'NONE',  ( 0.000000000000000000, 0.000000000000000000, 1.000000000000000000 ) ) ;
#128 = COLOUR_RGB ( '',0.7921568627450980005, 0.8196078431372548767, 0.9333333333333333481 ) ;
#129 = CYLINDRICAL_SURFACE ( 'NONE', #82, 0.3750000000000001665 ) ;
#130 = EDGE_CURVE ( 'NONE', #36, #197, #18, .T. ) ;
#131 = PRESENTATION_STYLE_ASSIGNMENT (( #284 ) ) ;
#132 = CYLINDRICAL_SURFACE ( 'NONE', #30, 0.3750000000000000555 ) ;
#133 = PRESENTATION_STYLE_ASSIGNMENT (( #61 ) ) ;
#134 =( CONVERSION_BASED_UNIT ( 'INCH', #60 ) LENGTH_UNIT ( ) NAMED_UNIT ( #221 ) );
#135 = CIRCLE ( 'NONE', #302, 0.3750000000000000555 ) ;
#136 = EDGE_LOOP ( 'NONE', ( #42, #255 ) ) ;
#137 = FILL_AREA_STYLE_COLOUR ( '', #251 ) ;
#138 =( CONVERSION_BASED_UNIT ( 'INCH', #88 ) LENGTH_UNIT ( ) NAMED_UNIT ( #53 ) );
#139 = CARTESIAN_POINT ( 'NONE',  ( 0.3750000000000000555, 3.250000000000000000, 4.592425496802577300E-17 ) ) ;
#140 = DIRECTION ( 'NONE',  ( 0.000000000000000000, 1.000000000000000000, 0.000000000000000000 ) ) ;
#141 = CIRCLE ( 'NONE', #52, 0.3750000000000000555 ) ;
#142 = ADVANCED_FACE ( 'NONE', ( #182 ), #84, .F. ) ;
#143 = PRESENTATION_STYLE_ASSIGNMENT (( #237 ) ) ;
#144 = ORIENTED_EDGE ( 'NONE', *, *, #293, .F. ) ;
#145 =( NAMED_UNIT ( * ) SI_UNIT ( $, .STERADIAN. ) SOLID_ANGLE_UNIT ( ) );
#146 = UNCERTAINTY_MEASURE_WITH_UNIT (LENGTH_MEASURE( 1.000000000000000082E-05 ), #138, 'distance_accuracy_value', 'NONE');
#147 = CIRCLE ( 'NONE', #246, 0.3750000000000002776 ) ;
#148 = EDGE_CURVE ( 'NONE', #273, #288, #279, .T. ) ;
#149 = SURFACE_STYLE_USAGE ( .BOTH. , #80 ) ;
#150 = ORIENTED_EDGE ( 'NONE', *, *, #194, .T. ) ;
#151 = PRODUCT_DEFINITION_CONTEXT ( 'detailed design', #67, 'design' ) ;
#152 = CYLINDRICAL_SURFACE ( 'NONE', #4, 0.3750000000000001665 ) ;
#153 = ADVANCED_FACE ( 'NONE', ( #232 ), #129, .T. ) ;
#154 = STYLED_ITEM ( 'NONE', ( #269 ), #211 ) ;
#155 = DIRECTION ( 'NONE',  ( 0.000000000000000000, -1.000000000000000000, -0.000000000000000000 ) ) ;
#156 = ORIENTED_EDGE ( 'NONE', *, *, #272, .F. ) ;
#157 = DIRECTION ( 'NONE',  ( -8.906522175617116587E-17, 1.000000000000000000, 0.000000000000000000 ) ) ;
#158 = DIRECTION ( 'NONE',  ( -8.906522175617116587E-17, 1.000000000000000000, -0.000000000000000000 ) ) ;
#159 = DIRECTION ( 'NONE',  ( -1.000000000000000000, 0.000000000000000000, 0.000000000000000000 ) ) ;
#160 = DIRECTION ( 'NONE',  ( -8.906522175617116587E-17, 1.000000000000000000, -0.000000000000000000 ) ) ;
#161 = CARTESIAN_POINT ( 'NONE',  ( -2.449293598294707400E-16, 6.000000000000000888, 0.000000000000000000 ) ) ;
#162 = UNCERTAINTY_MEASURE_WITH_UNIT (LENGTH_MEASURE( 1.000000000000000082E-05 ), #23, 'distance_accuracy_value', 'NONE');
#163 = DIRECTION ( 'NONE',  ( -0.000000000000000000, -1.000000000000000000, -0.000000000000000000 ) ) ;
#164 = SURFACE_STYLE_FILL_AREA ( #267 ) ;
#165 = FILL_AREA_STYLE ('',( #137 ) ) ;
#166 =( GEOMETRIC_REPRESENTATION_CONTEXT ( 3 ) GLOBAL_UNCERTAINTY_ASSIGNED_CONTEXT ( ( #29 ) ) GLOBAL_UNIT_ASSIGNED_CONTEXT ( ( #96, #200, #145 ) ) REPRESENTATION_CONTEXT ( 'NONE', 'WORKASPACE' ) );
#167 = LINE ( 'NONE', #243, #247 ) ;
#168 =( NAMED_UNIT ( * ) SI_UNIT ( $, .STERADIAN. ) SOLID_ANGLE_UNIT ( ) );
#169 = ORIENTED_EDGE ( 'NONE', *, *, #148, .F. ) ;
#170 = CARTESIAN_POINT ( 'NONE',  ( 0.000000000000000000, 0.000000000000000000, 0.000000000000000000 ) ) ;
#171 = ORIENTED_EDGE ( 'NONE', *, *, #293, .T. ) ;
#172 = ORIENTED_EDGE ( 'NONE', *, *, #25, .F. ) ;
#173 = PRODUCT ( '83526', '83526', '', ( #296 ) ) ;
#174 = AXIS2_PLACEMENT_3D ( 'NONE', #28, #300, #198 ) ;
#175 = SURFACE_STYLE_FILL_AREA ( #301 ) ;
#176 = DIRECTION ( 'NONE',  ( -1.000000000000000000, -8.906522175617116587E-17, 0.000000000000000000 ) ) ;
#177 = CYLINDRICAL_SURFACE ( 'NONE', #174, 0.3750000000000000555 ) ;
#178 = DIRECTION ( 'NONE',  ( 0.000000000000000000, 0.000000000000000000, -1.000000000000000000 ) ) ;
#179 = FACE_OUTER_BOUND ( 'NONE', #126, .T. ) ;
#180 = MECHANICAL_DESIGN_GEOMETRIC_PRESENTATION_REPRESENTATION (  '', ( #107 ), #215 ) ;
#181 = AXIS2_PLACEMENT_3D ( 'NONE', #212, #157, #176 ) ;
#182 = FACE_OUTER_BOUND ( 'NONE', #33, .T. ) ;
#183 = FACE_OUTER_BOUND ( 'NONE', #12, .T. ) ;
#184 = PRODUCT_DEFINITION_SHAPE ( 'NONE', 'NONE',  #69 ) ;
#185 = DIRECTION ( 'NONE',  ( -8.906522175617116587E-17, 1.000000000000000000, -0.000000000000000000 ) ) ;
#186 = VERTEX_POINT ( 'NONE', #308 ) ;
#187 = EDGE_CURVE ( 'NONE', #288, #186, #72, .T. ) ;
#188 = DIRECTION ( 'NONE',  ( 0.000000000000000000, 0.000000000000000000, -1.000000000000000000 ) ) ;
#189 = VERTEX_POINT ( 'NONE', #64 ) ;
#190 = VECTOR ( 'NONE', #205, 39.37007874015748143 ) ;
#191 = CARTESIAN_POINT ( 'NONE',  ( 0.3750000000000000555, 6.000000000000000888, 4.592425496802577300E-17 ) ) ;
#192 = DIRECTION ( 'NONE',  ( 0.000000000000000000, 0.000000000000000000, -1.000000000000000000 ) ) ;
#193 =( CONVERSION_BASED_UNIT ( 'INCH', #43 ) LENGTH_UNIT ( ) NAMED_UNIT ( #31 ) );
#194 = EDGE_CURVE ( 'NONE', #186, #288, #147, .T. ) ;
#195 = CARTESIAN_POINT ( 'NONE',  ( 0.000000000000000000, 0.000000000000000000, 0.000000000000000000 ) ) ;
#196 = STYLED_ITEM ( 'NONE', ( #277 ), #97 ) ;
#197 = VERTEX_POINT ( 'NONE', #19 ) ;
#198 = DIRECTION ( 'NONE',  ( 0.000000000000000000, 0.000000000000000000, -1.000000000000000000 ) ) ;
#199 = EDGE_CURVE ( 'NONE', #36, #303, #45, .T. ) ;
#200 =( NAMED_UNIT ( * ) PLANE_ANGLE_UNIT ( ) SI_UNIT ( $, .RADIAN. ) );
#201 = CIRCLE ( 'NONE', #291, 0.3750000000000000555 ) ;
#202 = SURFACE_SIDE_STYLE ('',( #56 ) ) ;
#203 = DIRECTION ( 'NONE',  ( -0.000000000000000000, -1.000000000000000000, -0.000000000000000000 ) ) ;
#204 = CARTESIAN_POINT ( 'NONE',  ( 0.3750000000000000555, 6.000000000000000888, 0.000000000000000000 ) ) ;
#205 = DIRECTION ( 'NONE',  ( -8.906522175617116587E-17, 1.000000000000000000, -0.000000000000000000 ) ) ;
#206 = UNCERTAINTY_MEASURE_WITH_UNIT (LENGTH_MEASURE( 1.000000000000000082E-05 ), #134, 'distance_accuracy_value', 'NONE');
#207 = CARTESIAN_POINT ( 'NONE',  ( -0.3750000000000000555, 3.250000000000000000, 0.000000000000000000 ) ) ;
#208 = COLOUR_RGB ( '',1.000000000000000000, 0.000000000000000000, 0.000000000000000000 ) ;
#209 = DIRECTION ( 'NONE',  ( -8.906522175617116587E-17, 1.000000000000000000, -0.000000000000000000 ) ) ;
#210 = ORIENTED_EDGE ( 'NONE', *, *, #260, .F. ) ;
#211 = ADVANCED_FACE ( 'NONE', ( #14 ), #8, .T. ) ;
#212 = CARTESIAN_POINT ( 'NONE',  ( 1.487365073714239744E-33, 3.250000000000000000, 0.000000000000000000 ) ) ;
#213 =( NAMED_UNIT ( * ) SI_UNIT ( $, .STERADIAN. ) SOLID_ANGLE_UNIT ( ) );
#214 =( LENGTH_UNIT ( ) NAMED_UNIT ( * ) SI_UNIT ( $, .METRE. ) );
#215 =( GEOMETRIC_REPRESENTATION_CONTEXT ( 3 ) GLOBAL_UNCERTAINTY_ASSIGNED_CONTEXT ( ( #146 ) ) GLOBAL_UNIT_ASSIGNED_CONTEXT ( ( #138, #231, #213 ) ) REPRESENTATION_CONTEXT ( 'NONE', 'WORKASPACE' ) );
#216 =( GEOMETRIC_REPRESENTATION_CONTEXT ( 3 ) GLOBAL_UNCERTAINTY_ASSIGNED_CONTEXT ( ( #206 ) ) GLOBAL_UNIT_ASSIGNED_CONTEXT ( ( #134, #235, #17 ) ) REPRESENTATION_CONTEXT ( 'NONE', 'WORKASPACE' ) );
#217 = CARTESIAN_POINT ( 'NONE',  ( 4.592425496802575451E-17, 3.250000000000000000, 0.3750000000000000555 ) ) ;
#218 = LENGTH_MEASURE_WITH_UNIT ( LENGTH_MEASURE( 0.02539999999999999897 ), #214 );
#219 = APPLICATION_PROTOCOL_DEFINITION ( 'draft international standard', 'automotive_design', 1998, #46 ) ;
#220 = ORIENTED_EDGE ( 'NONE', *, *, #194, .F. ) ;
#221 = DIMENSIONAL_EXPONENTS ( 1.000000000000000000, 0.000000000000000000, 0.000000000000000000, 0.000000000000000000, 0.000000000000000000, 0.000000000000000000, 0.000000000000000000 ) ;
#222 = PRESENTATION_LAYER_ASSIGNMENT (  '', '', ( #107 ) ) ;
#223 = MECHANICAL_DESIGN_GEOMETRIC_PRESENTATION_REPRESENTATION (  '', ( #196 ), #256 ) ;
#224 = DIMENSIONAL_EXPONENTS ( 1.000000000000000000, 0.000000000000000000, 0.000000000000000000, 0.000000000000000000, 0.000000000000000000, 0.000000000000000000, 0.000000000000000000 ) ;
#225 = APPLICATION_PROTOCOL_DEFINITION ( 'draft international standard', 'automotive_design', 1998, #67 ) ;
#226 = CARTESIAN_POINT ( 'NONE',  ( -0.3750000000000004441, 6.000000000000000888, 0.000000000000000000 ) ) ;
#227 = AXIS2_PLACEMENT_3D ( 'NONE', #91, #158, #85 ) ;
#228 = VECTOR ( 'NONE', #86, 39.37007874015748143 ) ;
#229 = CARTESIAN_POINT ( 'NONE',  ( -2.449293598294707400E-16, 6.000000000000000888, 0.000000000000000000 ) ) ;
#230 = FACE_OUTER_BOUND ( 'NONE', #278, .T. ) ;
#231 =( NAMED_UNIT ( * ) PLANE_ANGLE_UNIT ( ) SI_UNIT ( $, .RADIAN. ) );
#232 = FACE_OUTER_BOUND ( 'NONE', #76, .T. ) ;
#233 = AXIS2_PLACEMENT_3D ( 'NONE', #204, #280, #266 ) ;
#234 = MECHANICAL_DESIGN_GEOMETRIC_PRESENTATION_REPRESENTATION (  '', ( #109 ), #276 ) ;
#235 =( NAMED_UNIT ( * ) PLANE_ANGLE_UNIT ( ) SI_UNIT ( $, .RADIAN. ) );
#236 = ORIENTED_EDGE ( 'NONE', *, *, #20, .F. ) ;
#237 = SURFACE_STYLE_USAGE ( .BOTH. , #239 ) ;
#238 = FILL_AREA_STYLE ('',( #290 ) ) ;
#239 = SURFACE_SIDE_STYLE ('',( #41 ) ) ;
#240 = MECHANICAL_DESIGN_GEOMETRIC_PRESENTATION_REPRESENTATION (  '', ( #154 ), #5 ) ;
#241 = DIRECTION ( 'NONE',  ( 0.000000000000000000, 0.000000000000000000, -1.000000000000000000 ) ) ;
#242 = LENGTH_MEASURE_WITH_UNIT ( LENGTH_MEASURE( 0.02539999999999999897 ), #268 );
#243 = CARTESIAN_POINT ( 'NONE',  ( 4.592425496802575451E-17, 0.000000000000000000, 0.3750000000000000555 ) ) ;
#244 =( LENGTH_UNIT ( ) NAMED_UNIT ( * ) SI_UNIT ( $, .METRE. ) );
#245 =( NAMED_UNIT ( * ) PLANE_ANGLE_UNIT ( ) SI_UNIT ( $, .RADIAN. ) );
#246 = AXIS2_PLACEMENT_3D ( 'NONE', #161, #262, #39 ) ;
#247 = VECTOR ( 'NONE', #70, 39.37007874015748143 ) ;
#248 = DIRECTION ( 'NONE',  ( 1.000000000000000000, 0.000000000000000000, 0.000000000000000000 ) ) ;
#249 = FILL_AREA_STYLE_COLOUR ( '', #208 ) ;
#250 = UNCERTAINTY_MEASURE_WITH_UNIT (LENGTH_MEASURE( 1.000000000000000082E-05 ), #193, 'distance_accuracy_value', 'NONE');
#251 = COLOUR_RGB ( '',0.7921568627450980005, 0.8196078431372548767, 0.9333333333333333481 ) ;
#252 = PRODUCT_DEFINITION_FORMATION_WITH_SPECIFIED_SOURCE ( 'ANY', '', #173, .NOT_KNOWN. ) ;
#253 = SHAPE_DEFINITION_REPRESENTATION ( #184, #103 ) ;
#254 = CARTESIAN_POINT ( 'NONE',  ( 0.000000000000000000, 0.000000000000000000, 0.000000000000000000 ) ) ;
#255 = ORIENTED_EDGE ( 'NONE', *, *, #272, .T. ) ;
#256 =( GEOMETRIC_REPRESENTATION_CONTEXT ( 3 ) GLOBAL_UNCERTAINTY_ASSIGNED_CONTEXT ( ( #258 ) ) GLOBAL_UNIT_ASSIGNED_CONTEXT ( ( #27, #117, #75 ) ) REPRESENTATION_CONTEXT ( 'NONE', 'WORKASPACE' ) );
#257 = DIRECTION ( 'NONE',  ( 0.000000000000000000, 0.000000000000000000, -1.000000000000000000 ) ) ;
#258 = UNCERTAINTY_MEASURE_WITH_UNIT (LENGTH_MEASURE( 1.000000000000000082E-05 ), #27, 'distance_accuracy_value', 'NONE');
#259 =( LENGTH_UNIT ( ) NAMED_UNIT ( * ) SI_UNIT ( $, .METRE. ) );
#260 = EDGE_CURVE ( 'NONE', #303, #189, #167, .T. ) ;
#261 = SURFACE_STYLE_FILL_AREA ( #238 ) ;
#262 = DIRECTION ( 'NONE',  ( -8.906522175617116587E-17, 1.000000000000000000, -0.000000000000000000 ) ) ;
#263 = PRESENTATION_STYLE_ASSIGNMENT (( #113 ) ) ;
#264 = AXIS2_PLACEMENT_3D ( 'NONE', #32, #93, #188 ) ;
#265 = CARTESIAN_POINT ( 'NONE',  ( 0.000000000000000000, 0.000000000000000000, 0.000000000000000000 ) ) ;
#266 = DIRECTION ( 'NONE',  ( 1.000000000000000000, 8.906522175617116587E-17, 0.000000000000000000 ) ) ;
#267 = FILL_AREA_STYLE ('',( #68 ) ) ;
#268 =( LENGTH_UNIT ( ) NAMED_UNIT ( * ) SI_UNIT ( $, .METRE. ) );
#269 = PRESENTATION_STYLE_ASSIGNMENT (( #26 ) ) ;
#270 = STYLED_ITEM ( 'NONE', ( #133 ), #89 ) ;
#271 = SURFACE_SIDE_STYLE ('',( #164 ) ) ;
#272 = EDGE_CURVE ( 'NONE', #189, #197, #141, .T. ) ;
#273 = VERTEX_POINT ( 'NONE', #139 ) ;
#274 =( CONVERSION_BASED_UNIT ( 'INCH', #123 ) LENGTH_UNIT ( ) NAMED_UNIT ( #99 ) );
#275 =( LENGTH_UNIT ( ) NAMED_UNIT ( * ) SI_UNIT ( $, .METRE. ) );
#276 =( GEOMETRIC_REPRESENTATION_CONTEXT ( 3 ) GLOBAL_UNCERTAINTY_ASSIGNED_CONTEXT ( ( #162 ) ) GLOBAL_UNIT_ASSIGNED_CONTEXT ( ( #23, #7, #6 ) ) REPRESENTATION_CONTEXT ( 'NONE', 'WORKASPACE' ) );
#277 = PRESENTATION_STYLE_ASSIGNMENT (( #149 ) ) ;
#278 = EDGE_LOOP ( 'NONE', ( #150, #110 ) ) ;
#279 = LINE ( 'NONE', #108, #15 ) ;
#280 = DIRECTION ( 'NONE',  ( 8.906522175617116587E-17, -1.000000000000000000, 0.000000000000000000 ) ) ;
#281 =( LENGTH_UNIT ( ) NAMED_UNIT ( * ) SI_UNIT ( $, .METRE. ) );
#282 = DIRECTION ( 'NONE',  ( -0.000000000000000000, -1.000000000000000000, -0.000000000000000000 ) ) ;
#283 = AXIS2_PLACEMENT_3D ( 'NONE', #112, #140, #73 ) ;
#284 = SURFACE_STYLE_USAGE ( .BOTH. , #202 ) ;
#285 = SURFACE_SIDE_STYLE ('',( #306 ) ) ;
#286 = CARTESIAN_POINT ( 'NONE',  ( -2.449293598294707400E-16, 6.000000000000000888, 0.000000000000000000 ) ) ;
#287 = MANIFOLD_SOLID_BREP ( 'Revolve - Tool Body (Straight Shanked)', #51 ) ;
#288 = VERTEX_POINT ( 'NONE', #191 ) ;
#289 = LINE ( 'NONE', #226, #190 ) ;
#290 = FILL_AREA_STYLE_COLOUR ( '', #128 ) ;
#291 = AXIS2_PLACEMENT_3D ( 'NONE', #309, #282, #2 ) ;
#292 = CARTESIAN_POINT ( 'NONE',  ( 0.000000000000000000, 3.250000000000000000, 0.000000000000000000 ) ) ;
#293 = EDGE_CURVE ( 'NONE', #303, #36, #135, .T. ) ;
#294 = MECHANICAL_DESIGN_GEOMETRIC_PRESENTATION_REPRESENTATION (  '', ( #270 ), #166 ) ;
#295 = PRESENTATION_LAYER_ASSIGNMENT (  '', '', ( #109 ) ) ;
#296 = PRODUCT_CONTEXT ( 'NONE', #46, 'mechanical' ) ;
#297 = ORIENTED_EDGE ( 'NONE', *, *, #199, .F. ) ;
#298 = FACE_OUTER_BOUND ( 'NONE', #136, .T. ) ;
#299 = DIMENSIONAL_EXPONENTS ( 1.000000000000000000, 0.000000000000000000, 0.000000000000000000, 0.000000000000000000, 0.000000000000000000, 0.000000000000000000, 0.000000000000000000 ) ;
#300 = DIRECTION ( 'NONE',  ( -0.000000000000000000, -1.000000000000000000, -0.000000000000000000 ) ) ;
#301 = FILL_AREA_STYLE ('',( #249 ) ) ;
#302 = AXIS2_PLACEMENT_3D ( 'NONE', #292, #163, #192 ) ;
#303 = VERTEX_POINT ( 'NONE', #217 ) ;
#304 = FILL_AREA_STYLE ('',( #102 ) ) ;
#305 = CARTESIAN_POINT ( 'NONE',  ( 0.000000000000000000, 0.000000000000000000, -0.3750000000000000555 ) ) ;
#306 = SURFACE_STYLE_FILL_AREA ( #104 ) ;
#307 = COLOUR_RGB ( '',1.000000000000000000, 0.000000000000000000, 0.000000000000000000 ) ;
#308 = CARTESIAN_POINT ( 'NONE',  ( -0.3750000000000005551, 6.000000000000000888, 0.000000000000000000 ) ) ;
#309 = CARTESIAN_POINT ( 'NONE',  ( 0.000000000000000000, 0.000000000000000000, 0.000000000000000000 ) ) ;
ENDSEC;
END-ISO-10303-21;
