ISO-10303-21;
HEADER;
FILE_DESCRIPTION (( 'STEP AP214' ),
    '1' );
FILE_NAME ('Micro_DMM-040-290X.STEP',
    '2021-09-02T16:17:32',
    ( '' ),
    ( '' ),
    'SwSTEP 2.0',
    'SolidWorks 2020',
    '' );
FILE_SCHEMA (( 'AUTOMOTIVE_DESIGN' ));
ENDSEC;

DATA;
#1 = ORIENTED_EDGE ( 'NONE', *, *, #6, .T. ) ;
#2 = MANIFOLD_SOLID_BREP ( 'Cut-Revolve4', #26 ) ;
#3 = AXIS2_PLACEMENT_3D ( 'NONE', #45, #68, #19 ) ;
#4 = ORIENTED_EDGE ( 'NONE', *, *, #79, .T. ) ;
#5 = CARTESIAN_POINT ( 'NONE',  ( 0.0000000000000000000, 0.0000000000000000000, 1.968503999999999809 ) ) ;
#6 = EDGE_CURVE ( 'NONE', #257, #316, #144, .T. ) ;
#7 = FACE_OUTER_BOUND ( 'NONE', #308, .T. ) ;
#8 = ORIENTED_EDGE ( 'NONE', *, *, #272, .F. ) ;
#9 = DIRECTION ( 'NONE',  ( 0.0000000000000000000, 0.0000000000000000000, 1.000000000000000000 ) ) ;
#10 = ORIENTED_EDGE ( 'NONE', *, *, #191, .T. ) ;
#11 = DIRECTION ( 'NONE',  ( -1.000000000000000000, 0.0000000000000000000, 0.0000000000000000000 ) ) ;
#12 = ADVANCED_FACE ( 'NONE', ( #241 ), #213, .T. ) ;
#13 = ORIENTED_EDGE ( 'NONE', *, *, #236, .F. ) ;
#14 = ORIENTED_EDGE ( 'NONE', *, *, #23, .F. ) ;
#15 = VERTEX_POINT ( 'NONE', #98 ) ;
#16 = CARTESIAN_POINT ( 'NONE',  ( -0.06374000000000018540, 0.0000000000000000000, 1.968503999999999809 ) ) ;
#17 = DIRECTION ( 'NONE',  ( -1.000000000000000000, 0.0000000000000000000, 0.0000000000000000000 ) ) ;
#18 = PRESENTATION_STYLE_ASSIGNMENT (( #44 ) ) ;
#19 = DIRECTION ( 'NONE',  ( -1.000000000000000000, 0.0000000000000000000, 0.0000000000000000000 ) ) ;
#20 = CIRCLE ( 'NONE', #292, 0.07874000000000000443 ) ;
#21 = DIRECTION ( 'NONE',  ( 1.000000000000000000, 0.0000000000000000000, 0.0000000000000000000 ) ) ;
#22 = FACE_OUTER_BOUND ( 'NONE', #278, .T. ) ;
#23 = EDGE_CURVE ( 'NONE', #257, #15, #143, .T. ) ;
#24 = CARTESIAN_POINT ( 'NONE',  ( -0.007499999999999999722, 9.184850993605147975E-19, 1.707404996040164512E-17 ) ) ;
#25 = DIRECTION ( 'NONE',  ( -0.0000000000000000000, -0.0000000000000000000, -1.000000000000000000 ) ) ;
#26 = CLOSED_SHELL ( 'NONE', ( #249, #277, #12, #122, #168, #215, #101, #325, #141, #117, #225 ) ) ;
#27 = COLOUR_RGB ( '',0.7921568627450980005, 0.8196078431372548767, 0.9333333333333333481 ) ;
#28 = CARTESIAN_POINT ( 'NONE',  ( -0.06374000000000018540, 0.0000000000000000000, 1.968503999999999809 ) ) ;
#29 = ORIENTED_EDGE ( 'NONE', *, *, #180, .T. ) ;
#30 = CARTESIAN_POINT ( 'NONE',  ( 0.0000000000000000000, 0.0000000000000000000, 0.0000000000000000000 ) ) ;
#31 = ORIENTED_EDGE ( 'NONE', *, *, #6, .F. ) ;
#32 = CARTESIAN_POINT ( 'NONE',  ( 0.0000000000000000000, 0.0000000000000000000, 1.953504000000000129 ) ) ;
#33 = DIMENSIONAL_EXPONENTS ( 1.000000000000000000, 0.0000000000000000000, 0.0000000000000000000, 0.0000000000000000000, 0.0000000000000000000, 0.0000000000000000000, 0.0000000000000000000 ) ;
#34 = ORIENTED_EDGE ( 'NONE', *, *, #137, .F. ) ;
#35 = CIRCLE ( 'NONE', #188, 0.07869000000000006545 ) ;
#36 = VECTOR ( 'NONE', #110, 39.37007874015748143 ) ;
#37 = FACE_OUTER_BOUND ( 'NONE', #181, .T. ) ;
#38 = SURFACE_SIDE_STYLE ('',( #187 ) ) ;
#39 = DIRECTION ( 'NONE',  ( -0.7071067811865502373, 0.0000000000000000000, -0.7071067811865446862 ) ) ;
#40 = CARTESIAN_POINT ( 'NONE',  ( 0.0000000000000000000, 0.0000000000000000000, 1.707404996040164512E-17 ) ) ;
#41 = CIRCLE ( 'NONE', #75, 0.06374000000000018540 ) ;
#42 = AXIS2_PLACEMENT_3D ( 'NONE', #63, #235, #303 ) ;
#43 = LINE ( 'NONE', #24, #254 ) ;
#44 = SURFACE_STYLE_USAGE ( .BOTH. , #38 ) ;
#45 = CARTESIAN_POINT ( 'NONE',  ( 0.0000000000000000000, 0.0000000000000000000, 1.968503999999999809 ) ) ;
#46 = CARTESIAN_POINT ( 'NONE',  ( 0.0000000000000000000, 0.0000000000000000000, 1.968503999999999809 ) ) ;
#47 = CONICAL_SURFACE ( 'NONE', #170, 0.007499999999999999722, 0.7853981633974503884 ) ;
#48 = EDGE_CURVE ( 'NONE', #287, #284, #41, .T. ) ;
#49 = PRODUCT_CONTEXT ( 'NONE', #92, 'mechanical' ) ;
#50 = ORIENTED_EDGE ( 'NONE', *, *, #129, .F. ) ;
#51 = UNCERTAINTY_MEASURE_WITH_UNIT (LENGTH_MEASURE( 1.000000000000000082E-05 ), #72, 'distance_accuracy_value', 'NONE');
#52 = ORIENTED_EDGE ( 'NONE', *, *, #175, .T. ) ;
#53 = AXIS2_PLACEMENT_3D ( 'NONE', #5, #105, #21 ) ;
#54 = ORIENTED_EDGE ( 'NONE', *, *, #133, .T. ) ;
#55 = CARTESIAN_POINT ( 'NONE',  ( 0.007499999999999999722, 0.0000000000000000000, 1.707404996040164512E-17 ) ) ;
#56 = DIRECTION ( 'NONE',  ( 1.000000000000000000, 0.0000000000000000000, -0.0000000000000000000 ) ) ;
#57 = AXIS2_PLACEMENT_3D ( 'NONE', #32, #156, #255 ) ;
#58 = LINE ( 'NONE', #107, #87 ) ;
#59 = ORIENTED_EDGE ( 'NONE', *, *, #236, .T. ) ;
#60 = CARTESIAN_POINT ( 'NONE',  ( -0.07869000000000000994, 9.636745662490523605E-18, 0.07118999999999972572 ) ) ;
#61 = VERTEX_POINT ( 'NONE', #222 ) ;
#62 =( LENGTH_UNIT ( ) NAMED_UNIT ( * ) SI_UNIT ( $, .METRE. ) );
#63 = CARTESIAN_POINT ( 'NONE',  ( 0.0000000000000000000, 0.0000000000000000000, 1.707404996040164512E-17 ) ) ;
#64 = ORIENTED_EDGE ( 'NONE', *, *, #191, .F. ) ;
#65 = AXIS2_PLACEMENT_3D ( 'NONE', #70, #166, #95 ) ;
#66 = ORIENTED_EDGE ( 'NONE', *, *, #162, .T. ) ;
#67 = DIRECTION ( 'NONE',  ( -1.000000000000000000, 0.0000000000000000000, 0.0000000000000000000 ) ) ;
#68 = DIRECTION ( 'NONE',  ( -0.0000000000000000000, -0.0000000000000000000, -1.000000000000000000 ) ) ;
#69 = STYLED_ITEM ( 'NONE', ( #123 ), #2 ) ;
#70 = CARTESIAN_POINT ( 'NONE',  ( 0.0000000000000000000, 0.0000000000000000000, 0.0000000000000000000 ) ) ;
#71 = LENGTH_MEASURE_WITH_UNIT ( LENGTH_MEASURE( 0.02539999999999999897 ), #134 );
#72 =( CONVERSION_BASED_UNIT ( 'INCH', #118 ) LENGTH_UNIT ( ) NAMED_UNIT ( #94 ) );
#73 = UNCERTAINTY_MEASURE_WITH_UNIT (LENGTH_MEASURE( 1.000000000000000082E-05 ), #114, 'distance_accuracy_value', 'NONE');
#74 = CARTESIAN_POINT ( 'NONE',  ( 0.007499999999999999722, 0.0000000000000000000, 1.707404996040164512E-17 ) ) ;
#75 = AXIS2_PLACEMENT_3D ( 'NONE', #46, #119, #192 ) ;
#76 = DIRECTION ( 'NONE',  ( -1.000000000000000000, 0.0000000000000000000, 0.0000000000000000000 ) ) ;
#77 = VERTEX_POINT ( 'NONE', #327 ) ;
#78 =( GEOMETRIC_REPRESENTATION_CONTEXT ( 3 ) GLOBAL_UNCERTAINTY_ASSIGNED_CONTEXT ( ( #73 ) ) GLOBAL_UNIT_ASSIGNED_CONTEXT ( ( #114, #293, #161 ) ) REPRESENTATION_CONTEXT ( 'NONE', 'WORKASPACE' ) );
#79 = EDGE_CURVE ( 'NONE', #77, #281, #20, .T. ) ;
#80 = DIRECTION ( 'NONE',  ( -1.000000000000000000, 0.0000000000000000000, 0.0000000000000000000 ) ) ;
#81 = ORIENTED_EDGE ( 'NONE', *, *, #23, .T. ) ;
#82 = FACE_OUTER_BOUND ( 'NONE', #88, .T. ) ;
#83 = ORIENTED_EDGE ( 'NONE', *, *, #300, .F. ) ;
#84 = CARTESIAN_POINT ( 'NONE',  ( -0.07874000000000000443, 0.0000000000000000000, 1.968503999999999809 ) ) ;
#85 = CARTESIAN_POINT ( 'NONE',  ( 0.07874000000000000443, 9.642868896486258509E-18, 0.4330709999999999837 ) ) ;
#86 = ORIENTED_EDGE ( 'NONE', *, *, #240, .F. ) ;
#87 = VECTOR ( 'NONE', #307, 39.37007874015748143 ) ;
#88 = EDGE_LOOP ( 'NONE', ( #81, #10 ) ) ;
#89 = DIRECTION ( 'NONE',  ( -1.000000000000000000, 0.0000000000000000000, 0.0000000000000000000 ) ) ;
#90 = CARTESIAN_POINT ( 'NONE',  ( 0.0000000000000000000, 0.0000000000000000000, 1.968503999999999809 ) ) ;
#91 = ORIENTED_EDGE ( 'NONE', *, *, #133, .F. ) ;
#92 = APPLICATION_CONTEXT ( 'automotive_design' ) ;
#93 = EDGE_CURVE ( 'NONE', #61, #238, #124, .T. ) ;
#94 = DIMENSIONAL_EXPONENTS ( 1.000000000000000000, 0.0000000000000000000, 0.0000000000000000000, 0.0000000000000000000, 0.0000000000000000000, 0.0000000000000000000, 0.0000000000000000000 ) ;
#95 = DIRECTION ( 'NONE',  ( -1.000000000000000000, 0.0000000000000000000, 0.0000000000000000000 ) ) ;
#96 = FACE_OUTER_BOUND ( 'NONE', #304, .T. ) ;
#97 = DIRECTION ( 'NONE',  ( -0.0000000000000000000, -0.0000000000000000000, -1.000000000000000000 ) ) ;
#98 = CARTESIAN_POINT ( 'NONE',  ( -0.007499999999999999722, 5.277615380925519009E-18, 1.707404996040164512E-17 ) ) ;
#99 = CARTESIAN_POINT ( 'NONE',  ( 0.0000000000000000000, 0.0000000000000000000, 0.4330709999999999837 ) ) ;
#100 = AXIS2_PLACEMENT_3D ( 'NONE', #155, #25, #126 ) ;
#101 = ADVANCED_FACE ( 'NONE', ( #22 ), #231, .T. ) ;
#102 = DIRECTION ( 'NONE',  ( -0.0000000000000000000, -0.0000000000000000000, -1.000000000000000000 ) ) ;
#103 = AXIS2_PLACEMENT_3D ( 'NONE', #90, #9, #183 ) ;
#104 = EDGE_LOOP ( 'NONE', ( #268, #29 ) ) ;
#105 = DIRECTION ( 'NONE',  ( 0.0000000000000000000, 0.0000000000000000000, 1.000000000000000000 ) ) ;
#106 = ORIENTED_EDGE ( 'NONE', *, *, #237, .F. ) ;
#107 = CARTESIAN_POINT ( 'NONE',  ( -0.07869000000000003769, 0.0000000000000000000, 0.0000000000000000000 ) ) ;
#108 = PRODUCT_DEFINITION_SHAPE ( 'NONE', 'NONE',  #306 ) ;
#109 = EDGE_LOOP ( 'NONE', ( #106, #4, #314, #229 ) ) ;
#110 = DIRECTION ( 'NONE',  ( -0.0000000000000000000, -0.0000000000000000000, -1.000000000000000000 ) ) ;
#111 = ORIENTED_EDGE ( 'NONE', *, *, #237, .T. ) ;
#112 = AXIS2_PLACEMENT_3D ( 'NONE', #40, #97, #17 ) ;
#113 = LINE ( 'NONE', #211, #153 ) ;
#114 =( CONVERSION_BASED_UNIT ( 'INCH', #265 ) LENGTH_UNIT ( ) NAMED_UNIT ( #216 ) );
#115 = ORIENTED_EDGE ( 'NONE', *, *, #252, .F. ) ;
#116 = CIRCLE ( 'NONE', #165, 0.07869000000000000994 ) ;
#117 = ADVANCED_FACE ( 'NONE', ( #297 ), #320, .T. ) ;
#118 = LENGTH_MEASURE_WITH_UNIT ( LENGTH_MEASURE( 0.02539999999999999897 ), #146 );
#119 = DIRECTION ( 'NONE',  ( 0.0000000000000000000, 0.0000000000000000000, 1.000000000000000000 ) ) ;
#120 = SURFACE_STYLE_FILL_AREA ( #296 ) ;
#121 = AXIS2_PLACEMENT_3D ( 'NONE', #132, #230, #11 ) ;
#122 = ADVANCED_FACE ( 'NONE', ( #189 ), #290, .T. ) ;
#123 = PRESENTATION_STYLE_ASSIGNMENT (( #152 ) ) ;
#124 = CIRCLE ( 'NONE', #309, 0.07874000000000000443 ) ;
#125 = CIRCLE ( 'NONE', #121, 0.07869000000000000994 ) ;
#126 = DIRECTION ( 'NONE',  ( -1.000000000000000000, 0.0000000000000000000, 0.0000000000000000000 ) ) ;
#127 = VECTOR ( 'NONE', #39, 39.37007874015748854 ) ;
#128 = CARTESIAN_POINT ( 'NONE',  ( 0.0000000000000000000, 0.0000000000000000000, 1.707404996040164512E-17 ) ) ;
#129 = EDGE_CURVE ( 'NONE', #281, #61, #253, .T. ) ;
#130 = DIRECTION ( 'NONE',  ( -1.000000000000000000, 0.0000000000000000000, 0.0000000000000000000 ) ) ;
#131 = ORIENTED_EDGE ( 'NONE', *, *, #79, .F. ) ;
#132 = CARTESIAN_POINT ( 'NONE',  ( 0.0000000000000000000, 0.0000000000000000000, 0.07118999999999972572 ) ) ;
#133 = EDGE_CURVE ( 'NONE', #284, #281, #139, .T. ) ;
#134 =( LENGTH_UNIT ( ) NAMED_UNIT ( * ) SI_UNIT ( $, .METRE. ) );
#135 = VERTEX_POINT ( 'NONE', #317 ) ;
#136 = CYLINDRICAL_SURFACE ( 'NONE', #199, 0.07869000000000003769 ) ;
#137 = EDGE_CURVE ( 'NONE', #135, #273, #35, .T. ) ;
#138 = APPLICATION_CONTEXT ( 'automotive_design' ) ;
#139 = LINE ( 'NONE', #16, #127 ) ;
#140 = ORIENTED_EDGE ( 'NONE', *, *, #93, .F. ) ;
#141 = ADVANCED_FACE ( 'NONE', ( #96 ), #47, .T. ) ;
#142 = SURFACE_SIDE_STYLE ('',( #120 ) ) ;
#143 = CIRCLE ( 'NONE', #112, 0.007499999999999999722 ) ;
#144 = LINE ( 'NONE', #74, #299 ) ;
#145 = PRODUCT_DEFINITION_CONTEXT ( 'detailed design', #138, 'design' ) ;
#146 =( LENGTH_UNIT ( ) NAMED_UNIT ( * ) SI_UNIT ( $, .METRE. ) );
#147 = DIRECTION ( 'NONE',  ( -0.0000000000000000000, -0.0000000000000000000, -1.000000000000000000 ) ) ;
#148 = CARTESIAN_POINT ( 'NONE',  ( 0.0000000000000000000, 0.0000000000000000000, 0.0000000000000000000 ) ) ;
#149 = DIRECTION ( 'NONE',  ( 1.000000000000000000, 0.0000000000000000000, 0.0000000000000000000 ) ) ;
#150 = PRODUCT_DEFINITION_FORMATION_WITH_SPECIFIED_SOURCE ( 'ANY', '', #313, .NOT_KNOWN. ) ;
#151 = SHAPE_DEFINITION_REPRESENTATION ( #108, #266 ) ;
#152 = SURFACE_STYLE_USAGE ( .BOTH. , #142 ) ;
#153 = VECTOR ( 'NONE', #102, 39.37007874015748143 ) ;
#154 = FACE_OUTER_BOUND ( 'NONE', #109, .T. ) ;
#155 = CARTESIAN_POINT ( 'NONE',  ( 0.0000000000000000000, 0.0000000000000000000, 0.4330709999999999837 ) ) ;
#156 = DIRECTION ( 'NONE',  ( 0.0000000000000000000, 0.0000000000000000000, -1.000000000000000000 ) ) ;
#157 = VECTOR ( 'NONE', #271, 39.37007874015748143 ) ;
#158 = ORIENTED_EDGE ( 'NONE', *, *, #48, .F. ) ;
#159 = LINE ( 'NONE', #258, #36 ) ;
#160 = DIRECTION ( 'NONE',  ( -0.0000000000000000000, -0.0000000000000000000, -1.000000000000000000 ) ) ;
#161 =( NAMED_UNIT ( * ) SI_UNIT ( $, .STERADIAN. ) SOLID_ANGLE_UNIT ( ) );
#162 = EDGE_CURVE ( 'NONE', #15, #259, #43, .T. ) ;
#163 = LINE ( 'NONE', #260, #256 ) ;
#164 = COLOUR_RGB ( '',0.7921568627450980005, 0.8196078431372548767, 0.9333333333333333481 ) ;
#165 = AXIS2_PLACEMENT_3D ( 'NONE', #179, #160, #310 ) ;
#166 = DIRECTION ( 'NONE',  ( -0.0000000000000000000, -0.0000000000000000000, -1.000000000000000000 ) ) ;
#167 = FILL_AREA_STYLE_COLOUR ( '', #164 ) ;
#168 = ADVANCED_FACE ( 'NONE', ( #154 ), #250, .T. ) ;
#169 =( NAMED_UNIT ( * ) SI_UNIT ( $, .STERADIAN. ) SOLID_ANGLE_UNIT ( ) );
#170 = AXIS2_PLACEMENT_3D ( 'NONE', #321, #291, #242 ) ;
#171 = CIRCLE ( 'NONE', #246, 0.07874000000000000443 ) ;
#172 = CARTESIAN_POINT ( 'NONE',  ( 0.0000000000000000000, 0.0000000000000000000, 1.953504000000000129 ) ) ;
#173 = CIRCLE ( 'NONE', #269, 0.007499999999999999722 ) ;
#174 = DIRECTION ( 'NONE',  ( -0.7071067811865490160, 8.659560562354951347E-17, 0.7071067811865460184 ) ) ;
#175 = EDGE_CURVE ( 'NONE', #316, #259, #116, .T. ) ;
#176 = CARTESIAN_POINT ( 'NONE',  ( 0.0000000000000000000, 0.0000000000000000000, 0.0000000000000000000 ) ) ;
#177 = ORIENTED_EDGE ( 'NONE', *, *, #319, .T. ) ;
#178 = PLANE ( 'NONE',  #239 ) ;
#179 = CARTESIAN_POINT ( 'NONE',  ( 0.0000000000000000000, 0.0000000000000000000, 0.07118999999999972572 ) ) ;
#180 = EDGE_CURVE ( 'NONE', #238, #61, #171, .T. ) ;
#181 = EDGE_LOOP ( 'NONE', ( #203, #214, #209, #13 ) ) ;
#182 = STYLED_ITEM ( 'NONE', ( #18 ), #266 ) ;
#183 = DIRECTION ( 'NONE',  ( 1.000000000000000000, 0.0000000000000000000, -0.0000000000000000000 ) ) ;
#184 = APPLICATION_PROTOCOL_DEFINITION ( 'draft international standard', 'automotive_design', 1998, #92 ) ;
#185 = CARTESIAN_POINT ( 'NONE',  ( -0.07869000000000006545, 0.0000000000000000000, 0.4330709999999999837 ) ) ;
#186 = EDGE_LOOP ( 'NONE', ( #312, #111, #140, #50 ) ) ;
#187 = SURFACE_STYLE_FILL_AREA ( #247 ) ;
#188 = AXIS2_PLACEMENT_3D ( 'NONE', #318, #147, #67 ) ;
#189 = FACE_OUTER_BOUND ( 'NONE', #186, .T. ) ;
#190 = DIRECTION ( 'NONE',  ( -0.0000000000000000000, 0.0000000000000000000, -1.000000000000000000 ) ) ;
#191 = EDGE_CURVE ( 'NONE', #15, #257, #173, .T. ) ;
#192 = DIRECTION ( 'NONE',  ( 1.000000000000000000, 0.0000000000000000000, 0.0000000000000000000 ) ) ;
#193 = MECHANICAL_DESIGN_GEOMETRIC_PRESENTATION_REPRESENTATION (  '', ( #69 ), #248 ) ;
#194 = CIRCLE ( 'NONE', #100, 0.07869000000000006545 ) ;
#195 = DIRECTION ( 'NONE',  ( 0.0000000000000000000, 0.0000000000000000000, -1.000000000000000000 ) ) ;
#196 = CARTESIAN_POINT ( 'NONE',  ( 0.0000000000000000000, 0.0000000000000000000, 1.968503999999999809 ) ) ;
#197 = UNCERTAINTY_MEASURE_WITH_UNIT (LENGTH_MEASURE( 1.000000000000000082E-05 ), #219, 'distance_accuracy_value', 'NONE');
#198 = AXIS2_PLACEMENT_3D ( 'NONE', #202, #279, #228 ) ;
#199 = AXIS2_PLACEMENT_3D ( 'NONE', #30, #208, #130 ) ;
#200 = EDGE_LOOP ( 'NONE', ( #64, #66, #275, #31 ) ) ;
#201 = AXIS2_PLACEMENT_3D ( 'NONE', #217, #195, #294 ) ;
#202 = CARTESIAN_POINT ( 'NONE',  ( 0.0000000000000000000, 0.0000000000000000000, 1.968503999999999809 ) ) ;
#203 = ORIENTED_EDGE ( 'NONE', *, *, #300, .T. ) ;
#204 = DIRECTION ( 'NONE',  ( -0.0000000000000000000, -0.0000000000000000000, -1.000000000000000000 ) ) ;
#205 = CARTESIAN_POINT ( 'NONE',  ( -0.07874000000000000443, 0.0000000000000000000, 1.953504000000000129 ) ) ;
#206 = ORIENTED_EDGE ( 'NONE', *, *, #162, .F. ) ;
#207 = EDGE_LOOP ( 'NONE', ( #83, #34 ) ) ;
#208 = DIRECTION ( 'NONE',  ( -0.0000000000000000000, -0.0000000000000000000, -1.000000000000000000 ) ) ;
#209 = ORIENTED_EDGE ( 'NONE', *, *, #263, .F. ) ;
#210 = CIRCLE ( 'NONE', #57, 0.07874000000000000443 ) ;
#211 = CARTESIAN_POINT ( 'NONE',  ( 0.07869000000000003769, 9.636745662490528228E-18, 0.0000000000000000000 ) ) ;
#212 = ORIENTED_EDGE ( 'NONE', *, *, #240, .T. ) ;
#213 = CONICAL_SURFACE ( 'NONE', #328, 0.06374000000000018540, 0.7853981633974522758 ) ;
#214 = ORIENTED_EDGE ( 'NONE', *, *, #272, .T. ) ;
#215 = ADVANCED_FACE ( 'NONE', ( #7 ), #227, .T. ) ;
#216 = DIMENSIONAL_EXPONENTS ( 1.000000000000000000, 0.0000000000000000000, 0.0000000000000000000, 0.0000000000000000000, 0.0000000000000000000, 0.0000000000000000000, 0.0000000000000000000 ) ;
#217 = CARTESIAN_POINT ( 'NONE',  ( 0.0000000000000000000, 0.0000000000000000000, 1.968503999999999809 ) ) ;
#218 =( NAMED_UNIT ( * ) PLANE_ANGLE_UNIT ( ) SI_UNIT ( $, .RADIAN. ) );
#219 =( CONVERSION_BASED_UNIT ( 'INCH', #71 ) LENGTH_UNIT ( ) NAMED_UNIT ( #33 ) );
#220 =( GEOMETRIC_REPRESENTATION_CONTEXT ( 3 ) GLOBAL_UNCERTAINTY_ASSIGNED_CONTEXT ( ( #197 ) ) GLOBAL_UNIT_ASSIGNED_CONTEXT ( ( #219, #218, #169 ) ) REPRESENTATION_CONTEXT ( 'NONE', 'WORKASPACE' ) );
#221 = DIRECTION ( 'NONE',  ( 1.000000000000000000, 0.0000000000000000000, 0.0000000000000000000 ) ) ;
#222 = CARTESIAN_POINT ( 'NONE',  ( -0.07874000000000000443, 0.0000000000000000000, 0.4330709999999999837 ) ) ;
#223 = PRODUCT_RELATED_PRODUCT_CATEGORY ( 'part', '', ( #313 ) ) ;
#224 = MECHANICAL_DESIGN_GEOMETRIC_PRESENTATION_REPRESENTATION (  '', ( #182 ), #220 ) ;
#225 = ADVANCED_FACE ( 'NONE', ( #82 ), #178, .F. ) ;
#226 = CARTESIAN_POINT ( 'NONE',  ( 0.07869000000000000994, 0.0000000000000000000, 0.07118999999999972572 ) ) ;
#227 = PLANE ( 'NONE',  #103 ) ;
#228 = DIRECTION ( 'NONE',  ( -1.000000000000000000, 0.0000000000000000000, 0.0000000000000000000 ) ) ;
#229 = ORIENTED_EDGE ( 'NONE', *, *, #180, .F. ) ;
#230 = DIRECTION ( 'NONE',  ( -0.0000000000000000000, -0.0000000000000000000, -1.000000000000000000 ) ) ;
#231 = CONICAL_SURFACE ( 'NONE', #201, 0.06374000000000018540, 0.7853981633974522758 ) ;
#232 = ORIENTED_EDGE ( 'NONE', *, *, #48, .T. ) ;
#233 = FACE_BOUND ( 'NONE', #207, .T. ) ;
#234 = EDGE_LOOP ( 'NONE', ( #8, #289, #59, #301 ) ) ;
#235 = DIRECTION ( 'NONE',  ( 0.0000000000000000000, 0.0000000000000000000, 1.000000000000000000 ) ) ;
#236 = EDGE_CURVE ( 'NONE', #273, #259, #58, .T. ) ;
#237 = EDGE_CURVE ( 'NONE', #77, #238, #159, .T. ) ;
#238 = VERTEX_POINT ( 'NONE', #85 ) ;
#239 = AXIS2_PLACEMENT_3D ( 'NONE', #176, #283, #56 ) ;
#240 = EDGE_CURVE ( 'NONE', #287, #77, #163, .T. ) ;
#241 = FACE_OUTER_BOUND ( 'NONE', #282, .T. ) ;
#242 = DIRECTION ( 'NONE',  ( 1.000000000000000000, 0.0000000000000000000, 0.0000000000000000000 ) ) ;
#243 =( NAMED_UNIT ( * ) SI_UNIT ( $, .STERADIAN. ) SOLID_ANGLE_UNIT ( ) );
#244 = DIRECTION ( 'NONE',  ( 0.0000000000000000000, 0.0000000000000000000, 1.000000000000000000 ) ) ;
#245 = DIRECTION ( 'NONE',  ( 0.7071067811865490160, 0.0000000000000000000, 0.7071067811865460184 ) ) ;
#246 = AXIS2_PLACEMENT_3D ( 'NONE', #305, #204, #80 ) ;
#247 = FILL_AREA_STYLE ('',( #285 ) ) ;
#248 =( GEOMETRIC_REPRESENTATION_CONTEXT ( 3 ) GLOBAL_UNCERTAINTY_ASSIGNED_CONTEXT ( ( #51 ) ) GLOBAL_UNIT_ASSIGNED_CONTEXT ( ( #72, #326, #243 ) ) REPRESENTATION_CONTEXT ( 'NONE', 'WORKASPACE' ) );
#249 = ADVANCED_FACE ( 'NONE', ( #37 ), #136, .T. ) ;
#250 = CYLINDRICAL_SURFACE ( 'NONE', #198, 0.07874000000000000443 ) ;
#251 = DIRECTION ( 'NONE',  ( -0.0000000000000000000, -0.0000000000000000000, -1.000000000000000000 ) ) ;
#252 = EDGE_CURVE ( 'NONE', #281, #77, #210, .T. ) ;
#253 = LINE ( 'NONE', #84, #157 ) ;
#254 = VECTOR ( 'NONE', #174, 39.37007874015748143 ) ;
#255 = DIRECTION ( 'NONE',  ( 1.000000000000000000, 0.0000000000000000000, 0.0000000000000000000 ) ) ;
#256 = VECTOR ( 'NONE', #276, 39.37007874015748854 ) ;
#257 = VERTEX_POINT ( 'NONE', #55 ) ;
#258 = CARTESIAN_POINT ( 'NONE',  ( 0.07874000000000000443, 9.642868896486258509E-18, 1.968503999999999809 ) ) ;
#259 = VERTEX_POINT ( 'NONE', #60 ) ;
#260 = CARTESIAN_POINT ( 'NONE',  ( 0.06374000000000018540, 7.805898697765251255E-18, 1.968503999999999809 ) ) ;
#261 = CARTESIAN_POINT ( 'NONE',  ( 0.07869000000000006545, 0.0000000000000000000, 0.4330709999999999837 ) ) ;
#262 = DIRECTION ( 'NONE',  ( -1.000000000000000000, 0.0000000000000000000, 0.0000000000000000000 ) ) ;
#263 = EDGE_CURVE ( 'NONE', #259, #316, #125, .T. ) ;
#264 = AXIS2_PLACEMENT_3D ( 'NONE', #148, #244, #221 ) ;
#265 = LENGTH_MEASURE_WITH_UNIT ( LENGTH_MEASURE( 0.02539999999999999897 ), #62 );
#266 = ADVANCED_BREP_SHAPE_REPRESENTATION ( 'Micro_DMM-040-290X', ( #2, #264 ), #78 ) ;
#267 = ORIENTED_EDGE ( 'NONE', *, *, #319, .F. ) ;
#268 = ORIENTED_EDGE ( 'NONE', *, *, #93, .T. ) ;
#269 = AXIS2_PLACEMENT_3D ( 'NONE', #128, #251, #262 ) ;
#270 = DIRECTION ( 'NONE',  ( 0.0000000000000000000, 0.0000000000000000000, -1.000000000000000000 ) ) ;
#271 = DIRECTION ( 'NONE',  ( -0.0000000000000000000, -0.0000000000000000000, -1.000000000000000000 ) ) ;
#272 = EDGE_CURVE ( 'NONE', #135, #316, #113, .T. ) ;
#273 = VERTEX_POINT ( 'NONE', #185 ) ;
#274 = CARTESIAN_POINT ( 'NONE',  ( 0.06374000000000018540, 8.724383797125754882E-18, 1.968503999999999809 ) ) ;
#275 = ORIENTED_EDGE ( 'NONE', *, *, #263, .T. ) ;
#276 = DIRECTION ( 'NONE',  ( 0.7071067811865502373, 8.659560562354966138E-17, -0.7071067811865446862 ) ) ;
#277 = ADVANCED_FACE ( 'NONE', ( #286 ), #302, .T. ) ;
#278 = EDGE_LOOP ( 'NONE', ( #86, #267, #54, #131 ) ) ;
#279 = DIRECTION ( 'NONE',  ( -0.0000000000000000000, -0.0000000000000000000, -1.000000000000000000 ) ) ;
#280 = AXIS2_PLACEMENT_3D ( 'NONE', #261, #190, #89 ) ;
#281 = VERTEX_POINT ( 'NONE', #205 ) ;
#282 = EDGE_LOOP ( 'NONE', ( #158, #212, #115, #91 ) ) ;
#283 = DIRECTION ( 'NONE',  ( 0.0000000000000000000, 0.0000000000000000000, 1.000000000000000000 ) ) ;
#284 = VERTEX_POINT ( 'NONE', #28 ) ;
#285 = FILL_AREA_STYLE_COLOUR ( '', #27 ) ;
#286 = FACE_OUTER_BOUND ( 'NONE', #200, .T. ) ;
#287 = VERTEX_POINT ( 'NONE', #274 ) ;
#288 = PLANE ( 'NONE',  #280 ) ;
#289 = ORIENTED_EDGE ( 'NONE', *, *, #137, .T. ) ;
#290 = CYLINDRICAL_SURFACE ( 'NONE', #3, 0.07874000000000000443 ) ;
#291 = DIRECTION ( 'NONE',  ( 0.0000000000000000000, 0.0000000000000000000, 1.000000000000000000 ) ) ;
#292 = AXIS2_PLACEMENT_3D ( 'NONE', #172, #270, #149 ) ;
#293 =( NAMED_UNIT ( * ) PLANE_ANGLE_UNIT ( ) SI_UNIT ( $, .RADIAN. ) );
#294 = DIRECTION ( 'NONE',  ( -1.000000000000000000, 0.0000000000000000000, 0.0000000000000000000 ) ) ;
#295 = FACE_OUTER_BOUND ( 'NONE', #104, .T. ) ;
#296 = FILL_AREA_STYLE ('',( #167 ) ) ;
#297 = FACE_OUTER_BOUND ( 'NONE', #234, .T. ) ;
#298 = DIRECTION ( 'NONE',  ( -0.0000000000000000000, -0.0000000000000000000, -1.000000000000000000 ) ) ;
#299 = VECTOR ( 'NONE', #245, 39.37007874015748143 ) ;
#300 = EDGE_CURVE ( 'NONE', #273, #135, #194, .T. ) ;
#301 = ORIENTED_EDGE ( 'NONE', *, *, #175, .F. ) ;
#302 = CONICAL_SURFACE ( 'NONE', #42, 0.007499999999999999722, 0.7853981633974503884 ) ;
#303 = DIRECTION ( 'NONE',  ( 1.000000000000000000, 0.0000000000000000000, 0.0000000000000000000 ) ) ;
#304 = EDGE_LOOP ( 'NONE', ( #206, #14, #1, #52 ) ) ;
#305 = CARTESIAN_POINT ( 'NONE',  ( 0.0000000000000000000, 0.0000000000000000000, 0.4330709999999999837 ) ) ;
#306 = PRODUCT_DEFINITION ( 'UNKNOWN', '', #150, #145 ) ;
#307 = DIRECTION ( 'NONE',  ( -0.0000000000000000000, -0.0000000000000000000, -1.000000000000000000 ) ) ;
#308 = EDGE_LOOP ( 'NONE', ( #177, #232 ) ) ;
#309 = AXIS2_PLACEMENT_3D ( 'NONE', #99, #298, #76 ) ;
#310 = DIRECTION ( 'NONE',  ( -1.000000000000000000, 0.0000000000000000000, 0.0000000000000000000 ) ) ;
#311 = PRESENTATION_LAYER_ASSIGNMENT (  '', '', ( #182 ) ) ;
#312 = ORIENTED_EDGE ( 'NONE', *, *, #252, .T. ) ;
#313 = PRODUCT ( 'Micro_DMM-040-290X', 'Micro_DMM-040-290X', '', ( #49 ) ) ;
#314 = ORIENTED_EDGE ( 'NONE', *, *, #129, .T. ) ;
#315 = APPLICATION_PROTOCOL_DEFINITION ( 'draft international standard', 'automotive_design', 1998, #138 ) ;
#316 = VERTEX_POINT ( 'NONE', #226 ) ;
#317 = CARTESIAN_POINT ( 'NONE',  ( 0.07869000000000006545, 9.636745662490529768E-18, 0.4330709999999999837 ) ) ;
#318 = CARTESIAN_POINT ( 'NONE',  ( 0.0000000000000000000, 0.0000000000000000000, 0.4330709999999999837 ) ) ;
#319 = EDGE_CURVE ( 'NONE', #284, #287, #329, .T. ) ;
#320 = CYLINDRICAL_SURFACE ( 'NONE', #65, 0.07869000000000003769 ) ;
#321 = CARTESIAN_POINT ( 'NONE',  ( 0.0000000000000000000, 0.0000000000000000000, 1.707404996040164512E-17 ) ) ;
#322 = DIRECTION ( 'NONE',  ( -1.000000000000000000, 0.0000000000000000000, 0.0000000000000000000 ) ) ;
#323 = PRESENTATION_LAYER_ASSIGNMENT (  '', '', ( #69 ) ) ;
#324 = DIRECTION ( 'NONE',  ( 0.0000000000000000000, 0.0000000000000000000, -1.000000000000000000 ) ) ;
#325 = ADVANCED_FACE ( 'NONE', ( #233, #295 ), #288, .T. ) ;
#326 =( NAMED_UNIT ( * ) PLANE_ANGLE_UNIT ( ) SI_UNIT ( $, .RADIAN. ) );
#327 = CARTESIAN_POINT ( 'NONE',  ( 0.07874000000000000443, 9.642868896486258509E-18, 1.953504000000000129 ) ) ;
#328 = AXIS2_PLACEMENT_3D ( 'NONE', #196, #324, #322 ) ;
#329 = CIRCLE ( 'NONE', #53, 0.06374000000000018540 ) ;
ENDSEC;
END-ISO-10303-21;
