ISO-10303-21;
HEADER;
FILE_DESCRIPTION (( 'STEP AP214' ),
    '1' );
FILE_NAME ('Micro_GEM-078-3.STEP',
    '2021-09-01T19:08:24',
    ( '' ),
    ( '' ),
    'SwSTEP 2.0',
    'SolidWorks 2020',
    '' );
FILE_SCHEMA (( 'AUTOMOTIVE_DESIGN' ));
ENDSEC;

DATA;
#1 = ORIENTED_EDGE ( 'NONE', *, *, #124, .T. ) ;
#2 = ORIENTED_EDGE ( 'NONE', *, *, #108, .T. ) ;
#3 = CYLINDRICAL_SURFACE ( 'NONE', #81, 0.03901095000000000257 ) ;
#4 = CARTESIAN_POINT ( 'NONE',  ( 0.06250000000000002776, 7.654042494670959086E-18, 1.485000000000000764 ) ) ;
#5 =( LENGTH_UNIT ( ) NAMED_UNIT ( * ) SI_UNIT ( $, .METRE. ) );
#6 = LINE ( 'NONE', #109, #117 ) ;
#7 = FACE_OUTER_BOUND ( 'NONE', #273, .T. ) ;
#8 = CARTESIAN_POINT ( 'NONE',  ( 0.04750000000000064587, 5.817072295950006528E-18, 1.500000000000000222 ) ) ;
#9 =( NAMED_UNIT ( * ) SI_UNIT ( $, .STERADIAN. ) SOLID_ANGLE_UNIT ( ) );
#10 =( NAMED_UNIT ( * ) PLANE_ANGLE_UNIT ( ) SI_UNIT ( $, .RADIAN. ) );
#11 = EDGE_CURVE ( 'NONE', #91, #51, #281, .T. ) ;
#12 = DIRECTION ( 'NONE',  ( 0.0000000000000000000, 0.0000000000000000000, -1.000000000000000000 ) ) ;
#13 = SURFACE_STYLE_FILL_AREA ( #197 ) ;
#14 = DIMENSIONAL_EXPONENTS ( 1.000000000000000000, 0.0000000000000000000, 0.0000000000000000000, 0.0000000000000000000, 0.0000000000000000000, 0.0000000000000000000, 0.0000000000000000000 ) ;
#15 = FACE_OUTER_BOUND ( 'NONE', #100, .T. ) ;
#16 = ORIENTED_EDGE ( 'NONE', *, *, #75, .F. ) ;
#17 = PRODUCT_RELATED_PRODUCT_CATEGORY ( 'part', '', ( #295 ) ) ;
#18 = CIRCLE ( 'NONE', #167, 0.06250000000000002776 ) ;
#19 = PRODUCT_DEFINITION_FORMATION_WITH_SPECIFIED_SOURCE ( 'ANY', '', #295, .NOT_KNOWN. ) ;
#20 = ORIENTED_EDGE ( 'NONE', *, *, #296, .T. ) ;
#21 = EDGE_LOOP ( 'NONE', ( #2, #258, #119, #52 ) ) ;
#22 = CIRCLE ( 'NONE', #268, 0.04750000000000064587 ) ;
#23 = ORIENTED_EDGE ( 'NONE', *, *, #46, .T. ) ;
#24 = UNCERTAINTY_MEASURE_WITH_UNIT (LENGTH_MEASURE( 1.000000000000000082E-05 ), #285, 'distance_accuracy_value', 'NONE');
#25 = EDGE_LOOP ( 'NONE', ( #146, #1, #190, #298 ) ) ;
#26 = EDGE_CURVE ( 'NONE', #209, #123, #112, .T. ) ;
#27 =( GEOMETRIC_REPRESENTATION_CONTEXT ( 3 ) GLOBAL_UNCERTAINTY_ASSIGNED_CONTEXT ( ( #55 ) ) GLOBAL_UNIT_ASSIGNED_CONTEXT ( ( #263, #282, #202 ) ) REPRESENTATION_CONTEXT ( 'NONE', 'WORKASPACE' ) );
#28 = CARTESIAN_POINT ( 'NONE',  ( 0.03901095000000003032, 0.0000000000000000000, 0.1880000000000000282 ) ) ;
#29 = LENGTH_MEASURE_WITH_UNIT ( LENGTH_MEASURE( 0.02539999999999999897 ), #156 );
#30 = FACE_OUTER_BOUND ( 'NONE', #25, .T. ) ;
#31 = DIRECTION ( 'NONE',  ( -1.000000000000000000, 0.0000000000000000000, 0.0000000000000000000 ) ) ;
#32 = DIRECTION ( 'NONE',  ( 0.0000000000000000000, 0.0000000000000000000, 1.000000000000000000 ) ) ;
#33 = LENGTH_MEASURE_WITH_UNIT ( LENGTH_MEASURE( 0.02539999999999999897 ), #200 );
#34 = LINE ( 'NONE', #163, #292 ) ;
#35 = COLOUR_RGB ( '',0.7921568627450980005, 0.8196078431372548767, 0.9333333333333333481 ) ;
#36 = ADVANCED_FACE ( 'NONE', ( #7 ), #115, .T. ) ;
#37 = DIRECTION ( 'NONE',  ( 1.000000000000000000, 0.0000000000000000000, 0.0000000000000000000 ) ) ;
#38 = DIMENSIONAL_EXPONENTS ( 1.000000000000000000, 0.0000000000000000000, 0.0000000000000000000, 0.0000000000000000000, 0.0000000000000000000, 0.0000000000000000000, 0.0000000000000000000 ) ;
#39 = CYLINDRICAL_SURFACE ( 'NONE', #149, 0.06250000000000002776 ) ;
#40 = FILL_AREA_STYLE ('',( #65 ) ) ;
#41 = CARTESIAN_POINT ( 'NONE',  ( 0.06250000000000006939, 7.654042494670963708E-18, 0.3212130222250907940 ) ) ;
#42 = DIRECTION ( 'NONE',  ( 1.000000000000000000, 0.0000000000000000000, 0.0000000000000000000 ) ) ;
#43 = DIRECTION ( 'NONE',  ( -0.1736481776669311916, 2.126576849575783316E-17, 0.9848077530122080203 ) ) ;
#44 = AXIS2_PLACEMENT_3D ( 'NONE', #126, #283, #88 ) ;
#45 = VERTEX_POINT ( 'NONE', #218 ) ;
#46 = EDGE_CURVE ( 'NONE', #123, #168, #71, .T. ) ;
#47 = ORIENTED_EDGE ( 'NONE', *, *, #26, .T. ) ;
#48 = EDGE_CURVE ( 'NONE', #209, #250, #68, .T. ) ;
#49 = AXIS2_PLACEMENT_3D ( 'NONE', #177, #261, #236 ) ;
#50 = VERTEX_POINT ( 'NONE', #67 ) ;
#51 = VERTEX_POINT ( 'NONE', #4 ) ;
#52 = ORIENTED_EDGE ( 'NONE', *, *, #229, .F. ) ;
#53 = CIRCLE ( 'NONE', #49, 0.06250000000000002776 ) ;
#54 = ADVANCED_FACE ( 'NONE', ( #288 ), #39, .T. ) ;
#55 = UNCERTAINTY_MEASURE_WITH_UNIT (LENGTH_MEASURE( 1.000000000000000082E-05 ), #263, 'distance_accuracy_value', 'NONE');
#56 = EDGE_LOOP ( 'NONE', ( #253, #208 ) ) ;
#57 = FACE_OUTER_BOUND ( 'NONE', #76, .T. ) ;
#58 = CIRCLE ( 'NONE', #147, 0.06250000000000002776 ) ;
#59 = DIRECTION ( 'NONE',  ( 0.0000000000000000000, 0.0000000000000000000, -1.000000000000000000 ) ) ;
#60 = CARTESIAN_POINT ( 'NONE',  ( -0.04750000000000064587, 0.0000000000000000000, 1.500000000000000222 ) ) ;
#61 = CARTESIAN_POINT ( 'NONE',  ( 0.0000000000000000000, 0.0000000000000000000, 0.0000000000000000000 ) ) ;
#62 = SURFACE_SIDE_STYLE ('',( #13 ) ) ;
#63 = FACE_OUTER_BOUND ( 'NONE', #70, .T. ) ;
#64 = EDGE_CURVE ( 'NONE', #50, #168, #247, .T. ) ;
#65 = FILL_AREA_STYLE_COLOUR ( '', #182 ) ;
#66 = DIRECTION ( 'NONE',  ( -1.000000000000000000, 0.0000000000000000000, 1.224646799147353947E-16 ) ) ;
#67 = CARTESIAN_POINT ( 'NONE',  ( -0.03901094999999998175, 6.215752999795353296E-18, 0.1880000000000000282 ) ) ;
#68 = LINE ( 'NONE', #245, #152 ) ;
#69 = DIRECTION ( 'NONE',  ( 0.0000000000000000000, 0.0000000000000000000, -1.000000000000000000 ) ) ;
#70 = EDGE_LOOP ( 'NONE', ( #255, #233, #122, #150 ) ) ;
#71 = CIRCLE ( 'NONE', #276, 0.03901095000000000257 ) ;
#72 = AXIS2_PLACEMENT_3D ( 'NONE', #266, #290, #287 ) ;
#73 = ORIENTED_EDGE ( 'NONE', *, *, #108, .F. ) ;
#74 = ORIENTED_EDGE ( 'NONE', *, *, #296, .F. ) ;
#75 = EDGE_CURVE ( 'NONE', #144, #45, #265, .T. ) ;
#76 = EDGE_LOOP ( 'NONE', ( #99, #165, #207, #189 ) ) ;
#77 = AXIS2_PLACEMENT_3D ( 'NONE', #138, #106, #140 ) ;
#78 = SHAPE_DEFINITION_REPRESENTATION ( #249, #192 ) ;
#79 = CARTESIAN_POINT ( 'NONE',  ( 0.06250000000000002776, 7.654042494670959086E-18, 1.500000000000000222 ) ) ;
#80 = FACE_OUTER_BOUND ( 'NONE', #187, .T. ) ;
#81 = AXIS2_PLACEMENT_3D ( 'NONE', #221, #237, #128 ) ;
#82 = DIRECTION ( 'NONE',  ( -0.0000000000000000000, -0.0000000000000000000, -1.000000000000000000 ) ) ;
#83 = DIRECTION ( 'NONE',  ( 0.0000000000000000000, 0.0000000000000000000, 1.000000000000000000 ) ) ;
#84 = LENGTH_MEASURE_WITH_UNIT ( LENGTH_MEASURE( 0.02539999999999999897 ), #5 );
#85 = DIRECTION ( 'NONE',  ( -1.000000000000000000, 0.0000000000000000000, 0.0000000000000000000 ) ) ;
#86 = MECHANICAL_DESIGN_GEOMETRIC_PRESENTATION_REPRESENTATION (  '', ( #114 ), #27 ) ;
#87 = ADVANCED_FACE ( 'NONE', ( #139 ), #101, .T. ) ;
#88 = DIRECTION ( 'NONE',  ( 1.000000000000000000, 0.0000000000000000000, 0.0000000000000000000 ) ) ;
#89 = CARTESIAN_POINT ( 'NONE',  ( 0.0000000000000000000, 0.0000000000000000000, 1.500000000000000222 ) ) ;
#90 = CONICAL_SURFACE ( 'NONE', #72, 0.04750000000000064587, 0.7853981633974466137 ) ;
#91 = VERTEX_POINT ( 'NONE', #105 ) ;
#92 = EDGE_CURVE ( 'NONE', #50, #209, #286, .T. ) ;
#93 = ORIENTED_EDGE ( 'NONE', *, *, #186, .T. ) ;
#94 = ADVANCED_FACE ( 'NONE', ( #15 ), #220, .T. ) ;
#95 = DIRECTION ( 'NONE',  ( -1.224646799147353700E-16, -0.0000000000000000000, -1.000000000000000000 ) ) ;
#96 = ORIENTED_EDGE ( 'NONE', *, *, #46, .F. ) ;
#97 = EDGE_CURVE ( 'NONE', #91, #144, #22, .T. ) ;
#98 = ORIENTED_EDGE ( 'NONE', *, *, #97, .F. ) ;
#99 = ORIENTED_EDGE ( 'NONE', *, *, #11, .F. ) ;
#100 = EDGE_LOOP ( 'NONE', ( #164, #47, #280, #279 ) ) ;
#101 = CONICAL_SURFACE ( 'NONE', #260, 0.03901095000000000257, 0.1745329251994338915 ) ;
#102 = ADVANCED_FACE ( 'NONE', ( #284 ), #206, .T. ) ;
#103 = SURFACE_STYLE_FILL_AREA ( #40 ) ;
#104 = DIRECTION ( 'NONE',  ( 1.000000000000000000, 0.0000000000000000000, -0.0000000000000000000 ) ) ;
#105 = CARTESIAN_POINT ( 'NONE',  ( 0.04750000000000064587, 6.735557395310483192E-18, 1.500000000000000222 ) ) ;
#106 = DIRECTION ( 'NONE',  ( 0.0000000000000000000, 0.0000000000000000000, 1.000000000000000000 ) ) ;
#107 = DIRECTION ( 'NONE',  ( 1.000000000000000000, 0.0000000000000000000, 0.0000000000000000000 ) ) ;
#108 = EDGE_CURVE ( 'NONE', #45, #51, #58, .T. ) ;
#109 = CARTESIAN_POINT ( 'NONE',  ( -0.06250000000000002776, 0.0000000000000000000, 1.500000000000000222 ) ) ;
#110 = DIRECTION ( 'NONE',  ( 0.7071067811865462405, 8.659560562354916834E-17, -0.7071067811865486830 ) ) ;
#111 = PRESENTATION_STYLE_ASSIGNMENT (( #180 ) ) ;
#112 = LINE ( 'NONE', #267, #274 ) ;
#113 = DIRECTION ( 'NONE',  ( -1.224646799147353700E-16, -0.0000000000000000000, -1.000000000000000000 ) ) ;
#114 = STYLED_ITEM ( 'NONE', ( #111 ), #192 ) ;
#115 = CONICAL_SURFACE ( 'NONE', #195, 0.04750000000000064587, 0.7853981633974466137 ) ;
#116 = ADVANCED_FACE ( 'NONE', ( #63 ), #262, .T. ) ;
#117 = VECTOR ( 'NONE', #213, 39.37007874015748143 ) ;
#118 = ORIENTED_EDGE ( 'NONE', *, *, #26, .F. ) ;
#119 = ORIENTED_EDGE ( 'NONE', *, *, #215, .F. ) ;
#120 = PRODUCT_DEFINITION_CONTEXT ( 'detailed design', #239, 'design' ) ;
#121 = CIRCLE ( 'NONE', #257, 0.06250000000000002776 ) ;
#122 = ORIENTED_EDGE ( 'NONE', *, *, #229, .T. ) ;
#123 = VERTEX_POINT ( 'NONE', #240 ) ;
#124 = EDGE_CURVE ( 'NONE', #50, #230, #34, .T. ) ;
#125 = AXIS2_PLACEMENT_3D ( 'NONE', #264, #151, #66 ) ;
#126 = CARTESIAN_POINT ( 'NONE',  ( 2.302335982397025094E-17, 0.0000000000000000000, 0.1880000000000000282 ) ) ;
#127 = SURFACE_SIDE_STYLE ('',( #103 ) ) ;
#128 = DIRECTION ( 'NONE',  ( -1.000000000000000000, 0.0000000000000000000, 1.224646799147353947E-16 ) ) ;
#129 = DIRECTION ( 'NONE',  ( -1.224646799147353700E-16, -0.0000000000000000000, -1.000000000000000000 ) ) ;
#130 = ADVANCED_FACE ( 'NONE', ( #80 ), #174, .F. ) ;
#131 = DIRECTION ( 'NONE',  ( 1.000000000000000000, 0.0000000000000000000, 0.0000000000000000000 ) ) ;
#132 =( CONVERSION_BASED_UNIT ( 'INCH', #33 ) LENGTH_UNIT ( ) NAMED_UNIT ( #14 ) );
#133 = DIRECTION ( 'NONE',  ( 0.0000000000000000000, 0.0000000000000000000, 1.000000000000000000 ) ) ;
#134 = PRESENTATION_LAYER_ASSIGNMENT (  '', '', ( #251 ) ) ;
#135 = PRESENTATION_STYLE_ASSIGNMENT (( #244 ) ) ;
#136 = CARTESIAN_POINT ( 'NONE',  ( 2.302335982397025094E-17, 0.0000000000000000000, 0.1880000000000000282 ) ) ;
#137 = DIMENSIONAL_EXPONENTS ( 1.000000000000000000, 0.0000000000000000000, 0.0000000000000000000, 0.0000000000000000000, 0.0000000000000000000, 0.0000000000000000000, 0.0000000000000000000 ) ;
#138 = CARTESIAN_POINT ( 'NONE',  ( 0.0000000000000000000, 0.0000000000000000000, 1.500000000000000222 ) ) ;
#139 = FACE_OUTER_BOUND ( 'NONE', #228, .T. ) ;
#140 = DIRECTION ( 'NONE',  ( 1.000000000000000000, 0.0000000000000000000, 0.0000000000000000000 ) ) ;
#141 = AXIS2_PLACEMENT_3D ( 'NONE', #212, #157, #248 ) ;
#142 = CARTESIAN_POINT ( 'NONE',  ( 0.0000000000000000000, 0.0000000000000000000, 0.0000000000000000000 ) ) ;
#143 = CONICAL_SURFACE ( 'NONE', #44, 0.03901095000000000257, 0.1745329251994338915 ) ;
#144 = VERTEX_POINT ( 'NONE', #203 ) ;
#145 = EDGE_CURVE ( 'NONE', #51, #250, #259, .T. ) ;
#146 = ORIENTED_EDGE ( 'NONE', *, *, #92, .F. ) ;
#147 = AXIS2_PLACEMENT_3D ( 'NONE', #194, #69, #107 ) ;
#148 = ORIENTED_EDGE ( 'NONE', *, *, #64, .T. ) ;
#149 = AXIS2_PLACEMENT_3D ( 'NONE', #89, #82, #85 ) ;
#150 = ORIENTED_EDGE ( 'NONE', *, *, #154, .F. ) ;
#151 = DIRECTION ( 'NONE',  ( -1.224646799147353700E-16, -0.0000000000000000000, -1.000000000000000000 ) ) ;
#152 = VECTOR ( 'NONE', #155, 39.37007874015748143 ) ;
#153 = DIRECTION ( 'NONE',  ( -1.224646799147353700E-16, -0.0000000000000000000, -1.000000000000000000 ) ) ;
#154 = EDGE_CURVE ( 'NONE', #250, #230, #53, .T. ) ;
#155 = DIRECTION ( 'NONE',  ( 0.1736481776669313859, 0.0000000000000000000, 0.9848077530122077983 ) ) ;
#156 =( LENGTH_UNIT ( ) NAMED_UNIT ( * ) SI_UNIT ( $, .METRE. ) );
#157 = DIRECTION ( 'NONE',  ( -0.0000000000000000000, -0.0000000000000000000, -1.000000000000000000 ) ) ;
#158 = CARTESIAN_POINT ( 'NONE',  ( 3.933724995124051744E-17, 0.0000000000000000000, 0.3212130222250907940 ) ) ;
#159 = PRESENTATION_LAYER_ASSIGNMENT (  '', '', ( #114 ) ) ;
#160 = DIRECTION ( 'NONE',  ( -0.7071067811865462405, 0.0000000000000000000, -0.7071067811865486830 ) ) ;
#161 = DIRECTION ( 'NONE',  ( 1.000000000000000000, 0.0000000000000000000, 0.0000000000000000000 ) ) ;
#162 = DIRECTION ( 'NONE',  ( -1.224646799147353700E-16, -0.0000000000000000000, -1.000000000000000000 ) ) ;
#163 = CARTESIAN_POINT ( 'NONE',  ( -0.03901094999999998175, 4.777463504919744426E-18, 0.1880000000000000282 ) ) ;
#164 = ORIENTED_EDGE ( 'NONE', *, *, #92, .T. ) ;
#165 = ORIENTED_EDGE ( 'NONE', *, *, #271, .F. ) ;
#166 = ORIENTED_EDGE ( 'NONE', *, *, #48, .T. ) ;
#167 = AXIS2_PLACEMENT_3D ( 'NONE', #158, #153, #161 ) ;
#168 = VERTEX_POINT ( 'NONE', #181 ) ;
#169 = VECTOR ( 'NONE', #110, 39.37007874015748854 ) ;
#170 = CARTESIAN_POINT ( 'NONE',  ( 2.302335982397025094E-17, 0.0000000000000000000, 0.1880000000000000282 ) ) ;
#171 = PRODUCT_CONTEXT ( 'NONE', #224, 'mechanical' ) ;
#172 = APPLICATION_PROTOCOL_DEFINITION ( 'draft international standard', 'automotive_design', 1998, #224 ) ;
#173 = CIRCLE ( 'NONE', #125, 0.03901095000000000257 ) ;
#174 = PLANE ( 'NONE',  #299 ) ;
#175 = FACE_OUTER_BOUND ( 'NONE', #234, .T. ) ;
#176 = CARTESIAN_POINT ( 'NONE',  ( 0.0000000000000000000, 0.0000000000000000000, 1.500000000000000222 ) ) ;
#177 = CARTESIAN_POINT ( 'NONE',  ( 3.933724995124051744E-17, 0.0000000000000000000, 0.3212130222250907940 ) ) ;
#178 = CARTESIAN_POINT ( 'NONE',  ( 0.0000000000000000000, 0.0000000000000000000, 1.500000000000000222 ) ) ;
#179 = ADVANCED_FACE ( 'NONE', ( #57 ), #90, .T. ) ;
#180 = SURFACE_STYLE_USAGE ( .BOTH. , #127 ) ;
#181 = CARTESIAN_POINT ( 'NONE',  ( -0.03901095000000000257, 0.0000000000000000000, 9.554927009839493473E-18 ) ) ;
#182 = COLOUR_RGB ( '',0.7921568627450980005, 0.8196078431372548767, 0.9333333333333333481 ) ;
#183 = CARTESIAN_POINT ( 'NONE',  ( 0.0000000000000000000, 0.0000000000000000000, 1.500000000000000222 ) ) ;
#184 = EDGE_CURVE ( 'NONE', #51, #45, #121, .T. ) ;
#185 = DIRECTION ( 'NONE',  ( 1.000000000000000000, 0.0000000000000000000, 0.0000000000000000000 ) ) ;
#186 = EDGE_CURVE ( 'NONE', #168, #123, #173, .T. ) ;
#187 = EDGE_LOOP ( 'NONE', ( #93, #23 ) ) ;
#188 = ORIENTED_EDGE ( 'NONE', *, *, #154, .T. ) ;
#189 = ORIENTED_EDGE ( 'NONE', *, *, #184, .F. ) ;
#190 = ORIENTED_EDGE ( 'NONE', *, *, #215, .T. ) ;
#191 =( GEOMETRIC_REPRESENTATION_CONTEXT ( 3 ) GLOBAL_UNCERTAINTY_ASSIGNED_CONTEXT ( ( #256 ) ) GLOBAL_UNIT_ASSIGNED_CONTEXT ( ( #132, #10, #269 ) ) REPRESENTATION_CONTEXT ( 'NONE', 'WORKASPACE' ) );
#192 = ADVANCED_BREP_SHAPE_REPRESENTATION ( 'Micro_GEM-078-3', ( #241, #278 ), #226 ) ;
#193 = CARTESIAN_POINT ( 'NONE',  ( 0.0000000000000000000, 0.0000000000000000000, 1.485000000000000764 ) ) ;
#194 = CARTESIAN_POINT ( 'NONE',  ( 0.0000000000000000000, 0.0000000000000000000, 1.485000000000000764 ) ) ;
#195 = AXIS2_PLACEMENT_3D ( 'NONE', #183, #12, #204 ) ;
#196 = AXIS2_PLACEMENT_3D ( 'NONE', #136, #162, #31 ) ;
#197 = FILL_AREA_STYLE ('',( #205 ) ) ;
#198 = DIRECTION ( 'NONE',  ( -1.224646799147353700E-16, -0.0000000000000000000, -1.000000000000000000 ) ) ;
#199 =( NAMED_UNIT ( * ) PLANE_ANGLE_UNIT ( ) SI_UNIT ( $, .RADIAN. ) );
#200 =( LENGTH_UNIT ( ) NAMED_UNIT ( * ) SI_UNIT ( $, .METRE. ) );
#201 = CARTESIAN_POINT ( 'NONE',  ( 2.302335982397025094E-17, 0.0000000000000000000, 0.1880000000000000282 ) ) ;
#202 =( NAMED_UNIT ( * ) SI_UNIT ( $, .STERADIAN. ) SOLID_ANGLE_UNIT ( ) );
#203 = CARTESIAN_POINT ( 'NONE',  ( -0.04750000000000064587, 0.0000000000000000000, 1.500000000000000222 ) ) ;
#204 = DIRECTION ( 'NONE',  ( -1.000000000000000000, 0.0000000000000000000, 0.0000000000000000000 ) ) ;
#205 = FILL_AREA_STYLE_COLOUR ( '', #35 ) ;
#206 = PLANE ( 'NONE',  #297 ) ;
#207 = ORIENTED_EDGE ( 'NONE', *, *, #75, .T. ) ;
#208 = ORIENTED_EDGE ( 'NONE', *, *, #97, .T. ) ;
#209 = VERTEX_POINT ( 'NONE', #28 ) ;
#210 = CIRCLE ( 'NONE', #77, 0.04750000000000064587 ) ;
#211 = CARTESIAN_POINT ( 'NONE',  ( -0.06249999999999997918, 0.0000000000000000000, 0.3212130222250907940 ) ) ;
#212 = CARTESIAN_POINT ( 'NONE',  ( 0.0000000000000000000, 0.0000000000000000000, 1.500000000000000222 ) ) ;
#213 = DIRECTION ( 'NONE',  ( -0.0000000000000000000, -0.0000000000000000000, -1.000000000000000000 ) ) ;
#214 = CARTESIAN_POINT ( 'NONE',  ( 0.0000000000000000000, 0.0000000000000000000, 0.0000000000000000000 ) ) ;
#215 = EDGE_CURVE ( 'NONE', #230, #250, #18, .T. ) ;
#216 = VECTOR ( 'NONE', #129, 39.37007874015748143 ) ;
#217 = MECHANICAL_DESIGN_GEOMETRIC_PRESENTATION_REPRESENTATION (  '', ( #251 ), #191 ) ;
#218 = CARTESIAN_POINT ( 'NONE',  ( -0.06250000000000002776, 0.0000000000000000000, 1.485000000000000764 ) ) ;
#219 = DIRECTION ( 'NONE',  ( -1.000000000000000000, 0.0000000000000000000, 0.0000000000000000000 ) ) ;
#220 = CYLINDRICAL_SURFACE ( 'NONE', #275, 0.03901095000000000257 ) ;
#221 = CARTESIAN_POINT ( 'NONE',  ( 0.0000000000000000000, 0.0000000000000000000, 0.0000000000000000000 ) ) ;
#222 = DIRECTION ( 'NONE',  ( 1.224646799147353700E-16, 0.0000000000000000000, 1.000000000000000000 ) ) ;
#223 = VECTOR ( 'NONE', #293, 39.37007874015748143 ) ;
#224 = APPLICATION_CONTEXT ( 'automotive_design' ) ;
#225 = ORIENTED_EDGE ( 'NONE', *, *, #11, .T. ) ;
#226 =( GEOMETRIC_REPRESENTATION_CONTEXT ( 3 ) GLOBAL_UNCERTAINTY_ASSIGNED_CONTEXT ( ( #24 ) ) GLOBAL_UNIT_ASSIGNED_CONTEXT ( ( #285, #199, #9 ) ) REPRESENTATION_CONTEXT ( 'NONE', 'WORKASPACE' ) );
#227 = ADVANCED_FACE ( 'NONE', ( #30 ), #143, .T. ) ;
#228 = EDGE_LOOP ( 'NONE', ( #254, #74, #166, #188 ) ) ;
#229 = EDGE_CURVE ( 'NONE', #45, #230, #6, .T. ) ;
#230 = VERTEX_POINT ( 'NONE', #211 ) ;
#231 = ADVANCED_FACE ( 'NONE', ( #175 ), #3, .T. ) ;
#232 = CLOSED_SHELL ( 'NONE', ( #94, #227, #36, #54, #116, #102, #179, #87, #231, #130 ) ) ;
#233 = ORIENTED_EDGE ( 'NONE', *, *, #184, .T. ) ;
#234 = EDGE_LOOP ( 'NONE', ( #118, #20, #148, #96 ) ) ;
#235 = AXIS2_PLACEMENT_3D ( 'NONE', #170, #95, #219 ) ;
#236 = DIRECTION ( 'NONE',  ( 1.000000000000000000, 0.0000000000000000000, 0.0000000000000000000 ) ) ;
#237 = DIRECTION ( 'NONE',  ( -1.224646799147353700E-16, -0.0000000000000000000, -1.000000000000000000 ) ) ;
#238 = CARTESIAN_POINT ( 'NONE',  ( -0.03901095000000000257, 0.0000000000000000000, 4.777463504919746737E-18 ) ) ;
#239 = APPLICATION_CONTEXT ( 'automotive_design' ) ;
#240 = CARTESIAN_POINT ( 'NONE',  ( 0.03901095000000000257, 4.777463504919744426E-18, 0.0000000000000000000 ) ) ;
#241 = MANIFOLD_SOLID_BREP ( 'Cut-Revolve1', #232 ) ;
#242 = PRODUCT_DEFINITION ( 'UNKNOWN', '', #19, #120 ) ;
#243 = CIRCLE ( 'NONE', #235, 0.03901095000000000257 ) ;
#244 = SURFACE_STYLE_USAGE ( .BOTH. , #62 ) ;
#245 = CARTESIAN_POINT ( 'NONE',  ( 0.03901095000000003032, 0.0000000000000000000, 0.1880000000000000282 ) ) ;
#246 = APPLICATION_PROTOCOL_DEFINITION ( 'draft international standard', 'automotive_design', 1998, #239 ) ;
#247 = LINE ( 'NONE', #238, #216 ) ;
#248 = DIRECTION ( 'NONE',  ( -1.000000000000000000, 0.0000000000000000000, 0.0000000000000000000 ) ) ;
#249 = PRODUCT_DEFINITION_SHAPE ( 'NONE', 'NONE',  #242 ) ;
#250 = VERTEX_POINT ( 'NONE', #41 ) ;
#251 = STYLED_ITEM ( 'NONE', ( #135 ), #241 ) ;
#252 = VECTOR ( 'NONE', #160, 39.37007874015748854 ) ;
#253 = ORIENTED_EDGE ( 'NONE', *, *, #271, .T. ) ;
#254 = ORIENTED_EDGE ( 'NONE', *, *, #124, .F. ) ;
#255 = ORIENTED_EDGE ( 'NONE', *, *, #145, .F. ) ;
#256 = UNCERTAINTY_MEASURE_WITH_UNIT (LENGTH_MEASURE( 1.000000000000000082E-05 ), #132, 'distance_accuracy_value', 'NONE');
#257 = AXIS2_PLACEMENT_3D ( 'NONE', #193, #59, #37 ) ;
#258 = ORIENTED_EDGE ( 'NONE', *, *, #145, .T. ) ;
#259 = LINE ( 'NONE', #79, #223 ) ;
#260 = AXIS2_PLACEMENT_3D ( 'NONE', #201, #222, #42 ) ;
#261 = DIRECTION ( 'NONE',  ( -1.224646799147353700E-16, -0.0000000000000000000, -1.000000000000000000 ) ) ;
#262 = CYLINDRICAL_SURFACE ( 'NONE', #141, 0.06250000000000002776 ) ;
#263 =( CONVERSION_BASED_UNIT ( 'INCH', #29 ) LENGTH_UNIT ( ) NAMED_UNIT ( #38 ) );
#264 = CARTESIAN_POINT ( 'NONE',  ( 5.850705389343265247E-34, 0.0000000000000000000, 4.777463504919746737E-18 ) ) ;
#265 = LINE ( 'NONE', #60, #252 ) ;
#266 = CARTESIAN_POINT ( 'NONE',  ( 0.0000000000000000000, 0.0000000000000000000, 1.500000000000000222 ) ) ;
#267 = CARTESIAN_POINT ( 'NONE',  ( 0.03901095000000000257, 4.777463504919744426E-18, -4.777463504919746737E-18 ) ) ;
#268 = AXIS2_PLACEMENT_3D ( 'NONE', #176, #83, #185 ) ;
#269 =( NAMED_UNIT ( * ) SI_UNIT ( $, .STERADIAN. ) SOLID_ANGLE_UNIT ( ) );
#270 = DIRECTION ( 'NONE',  ( -1.224646799147353700E-16, -0.0000000000000000000, -1.000000000000000000 ) ) ;
#271 = EDGE_CURVE ( 'NONE', #144, #91, #210, .T. ) ;
#272 = DIRECTION ( 'NONE',  ( 1.000000000000000000, 0.0000000000000000000, -0.0000000000000000000 ) ) ;
#273 = EDGE_LOOP ( 'NONE', ( #98, #225, #73, #16 ) ) ;
#274 = VECTOR ( 'NONE', #270, 39.37007874015748143 ) ;
#275 = AXIS2_PLACEMENT_3D ( 'NONE', #214, #113, #289 ) ;
#276 = AXIS2_PLACEMENT_3D ( 'NONE', #294, #198, #291 ) ;
#277 = DIRECTION ( 'NONE',  ( 0.0000000000000000000, 0.0000000000000000000, 1.000000000000000000 ) ) ;
#278 = AXIS2_PLACEMENT_3D ( 'NONE', #61, #32, #131 ) ;
#279 = ORIENTED_EDGE ( 'NONE', *, *, #64, .F. ) ;
#280 = ORIENTED_EDGE ( 'NONE', *, *, #186, .F. ) ;
#281 = LINE ( 'NONE', #8, #169 ) ;
#282 =( NAMED_UNIT ( * ) PLANE_ANGLE_UNIT ( ) SI_UNIT ( $, .RADIAN. ) );
#283 = DIRECTION ( 'NONE',  ( 1.224646799147353700E-16, 0.0000000000000000000, 1.000000000000000000 ) ) ;
#284 = FACE_OUTER_BOUND ( 'NONE', #56, .T. ) ;
#285 =( CONVERSION_BASED_UNIT ( 'INCH', #84 ) LENGTH_UNIT ( ) NAMED_UNIT ( #137 ) );
#286 = CIRCLE ( 'NONE', #196, 0.03901095000000000257 ) ;
#287 = DIRECTION ( 'NONE',  ( -1.000000000000000000, 0.0000000000000000000, 0.0000000000000000000 ) ) ;
#288 = FACE_OUTER_BOUND ( 'NONE', #21, .T. ) ;
#289 = DIRECTION ( 'NONE',  ( -1.000000000000000000, 0.0000000000000000000, 1.224646799147353947E-16 ) ) ;
#290 = DIRECTION ( 'NONE',  ( 0.0000000000000000000, 0.0000000000000000000, -1.000000000000000000 ) ) ;
#291 = DIRECTION ( 'NONE',  ( -1.000000000000000000, 0.0000000000000000000, 1.224646799147353947E-16 ) ) ;
#292 = VECTOR ( 'NONE', #43, 39.37007874015747433 ) ;
#293 = DIRECTION ( 'NONE',  ( -0.0000000000000000000, -0.0000000000000000000, -1.000000000000000000 ) ) ;
#294 = CARTESIAN_POINT ( 'NONE',  ( 5.850705389343265247E-34, 0.0000000000000000000, 4.777463504919746737E-18 ) ) ;
#295 = PRODUCT ( 'Micro_GEM-078-3', 'Micro_GEM-078-3', '', ( #171 ) ) ;
#296 = EDGE_CURVE ( 'NONE', #209, #50, #243, .T. ) ;
#297 = AXIS2_PLACEMENT_3D ( 'NONE', #178, #133, #272 ) ;
#298 = ORIENTED_EDGE ( 'NONE', *, *, #48, .F. ) ;
#299 = AXIS2_PLACEMENT_3D ( 'NONE', #142, #277, #104 ) ;
ENDSEC;
END-ISO-10303-21;
