ISO-10303-21;
HEADER;
FILE_DESCRIPTION (( 'STEP AP214' ),
    '1' );
FILE_NAME ('Micro_KC-125-190-015X.STEP',
    '2021-09-03T19:06:08',
    ( '' ),
    ( '' ),
    'SwSTEP 2.0',
    'SolidWorks 2020',
    '' );
FILE_SCHEMA (( 'AUTOMOTIVE_DESIGN' ));
ENDSEC;

DATA;
#1 = ORIENTED_EDGE ( 'NONE', *, *, #62, .F. ) ;
#2 = PRODUCT_DEFINITION ( 'UNKNOWN', '', #330, #69 ) ;
#3 = DIRECTION ( 'NONE',  ( -0.0000000000000000000, -0.0000000000000000000, -1.000000000000000000 ) ) ;
#4 = ORIENTED_EDGE ( 'NONE', *, *, #178, .F. ) ;
#5 = AXIS2_PLACEMENT_3D ( 'NONE', #342, #373, #129 ) ;
#6 = CARTESIAN_POINT ( 'NONE',  ( 0.0000000000000000000, 0.0000000000000000000, 1.500000000000000222 ) ) ;
#7 = ORIENTED_EDGE ( 'NONE', *, *, #150, .F. ) ;
#8 = CARTESIAN_POINT ( 'NONE',  ( -0.06250000000000000000, 0.0000000000000000000, 1.500000000000000222 ) ) ;
#9 = ORIENTED_EDGE ( 'NONE', *, *, #354, .T. ) ;
#10 = CYLINDRICAL_SURFACE ( 'NONE', #370, 0.06250000000000000000 ) ;
#11 = ORIENTED_EDGE ( 'NONE', *, *, #216, .F. ) ;
#12 = AXIS2_PLACEMENT_3D ( 'NONE', #345, #160, #77 ) ;
#13 = DIRECTION ( 'NONE',  ( -1.000000000000000000, 0.0000000000000000000, 0.0000000000000000000 ) ) ;
#14 = CYLINDRICAL_SURFACE ( 'NONE', #5, 0.06250000000000000000 ) ;
#15 = CARTESIAN_POINT ( 'NONE',  ( 0.0000000000000000000, 0.0000000000000000000, 0.2214999999999998359 ) ) ;
#16 = LINE ( 'NONE', #125, #78 ) ;
#17 = CIRCLE ( 'NONE', #263, 0.04750000000000064587 ) ;
#18 = DIRECTION ( 'NONE',  ( -0.0000000000000000000, -0.0000000000000000000, -1.000000000000000000 ) ) ;
#19 = EDGE_CURVE ( 'NONE', #118, #175, #238, .T. ) ;
#20 =( CONVERSION_BASED_UNIT ( 'INCH', #166 ) LENGTH_UNIT ( ) NAMED_UNIT ( #196 ) );
#21 = ORIENTED_EDGE ( 'NONE', *, *, #272, .F. ) ;
#22 = ORIENTED_EDGE ( 'NONE', *, *, #216, .T. ) ;
#23 = ORIENTED_EDGE ( 'NONE', *, *, #135, .T. ) ;
#24 = ORIENTED_EDGE ( 'NONE', *, *, #202, .F. ) ;
#25 = ADVANCED_FACE ( 'NONE', ( #279 ), #365, .T. ) ;
#26 = SURFACE_STYLE_USAGE ( .BOTH. , #366 ) ;
#27 = EDGE_LOOP ( 'NONE', ( #332, #328, #21, #148 ) ) ;
#28 = CARTESIAN_POINT ( 'NONE',  ( -0.06250000000000000000, 0.0000000000000000000, 0.01499999999999999771 ) ) ;
#29 = AXIS2_PLACEMENT_3D ( 'NONE', #38, #221, #282 ) ;
#30 = ORIENTED_EDGE ( 'NONE', *, *, #178, .T. ) ;
#31 = CARTESIAN_POINT ( 'NONE',  ( 0.0000000000000000000, 0.0000000000000000000, 1.500000000000000222 ) ) ;
#32 = VERTEX_POINT ( 'NONE', #255 ) ;
#33 = CYLINDRICAL_SURFACE ( 'NONE', #83, 0.06250000000000000000 ) ;
#34 = ORIENTED_EDGE ( 'NONE', *, *, #199, .F. ) ;
#35 = CARTESIAN_POINT ( 'NONE',  ( 0.0000000000000000000, 0.0000000000000000000, 0.01499999999999999771 ) ) ;
#36 = CARTESIAN_POINT ( 'NONE',  ( 0.0000000000000000000, 0.0000000000000000000, 1.485000000000000764 ) ) ;
#37 = CONICAL_SURFACE ( 'NONE', #88, 0.03100000000000001713, 0.7853981633974502774 ) ;
#38 = CARTESIAN_POINT ( 'NONE',  ( 0.0000000000000000000, 0.0000000000000000000, 0.0000000000000000000 ) ) ;
#39 = CARTESIAN_POINT ( 'NONE',  ( 0.0000000000000000000, 0.0000000000000000000, 1.485000000000000764 ) ) ;
#40 = CARTESIAN_POINT ( 'NONE',  ( -0.03100000000000001713, 3.796405077356796551E-18, 0.1899999999999999745 ) ) ;
#41 = FACE_BOUND ( 'NONE', #277, .T. ) ;
#42 = ADVANCED_FACE ( 'NONE', ( #123 ), #99, .T. ) ;
#43 = DIRECTION ( 'NONE',  ( 0.7071067811865456854, 8.659560562354911904E-17, -0.7071067811865493491 ) ) ;
#44 = VECTOR ( 'NONE', #225, 39.37007874015748143 ) ;
#45 = CARTESIAN_POINT ( 'NONE',  ( 0.0000000000000000000, 0.0000000000000000000, 0.1899999999999999745 ) ) ;
#46 = UNCERTAINTY_MEASURE_WITH_UNIT (LENGTH_MEASURE( 1.000000000000000082E-05 ), #84, 'distance_accuracy_value', 'NONE');
#47 = DIRECTION ( 'NONE',  ( 0.0000000000000000000, 0.0000000000000000000, 1.000000000000000000 ) ) ;
#48 = EDGE_LOOP ( 'NONE', ( #34, #299, #9, #112 ) ) ;
#49 = ADVANCED_FACE ( 'NONE', ( #226 ), #323, .T. ) ;
#50 = AXIS2_PLACEMENT_3D ( 'NONE', #126, #47, #375 ) ;
#51 = ORIENTED_EDGE ( 'NONE', *, *, #80, .F. ) ;
#52 = EDGE_LOOP ( 'NONE', ( #117, #24, #58, #51 ) ) ;
#53 = CIRCLE ( 'NONE', #94, 0.06250000000000000000 ) ;
#54 = CIRCLE ( 'NONE', #377, 0.03100000000000001713 ) ;
#55 = ORIENTED_EDGE ( 'NONE', *, *, #135, .F. ) ;
#56 = VERTEX_POINT ( 'NONE', #334 ) ;
#57 = LINE ( 'NONE', #176, #72 ) ;
#58 = ORIENTED_EDGE ( 'NONE', *, *, #150, .T. ) ;
#59 = CARTESIAN_POINT ( 'NONE',  ( 0.0000000000000000000, 0.0000000000000000000, 1.500000000000000222 ) ) ;
#60 = CIRCLE ( 'NONE', #187, 0.03099999999999999978 ) ;
#61 = ORIENTED_EDGE ( 'NONE', *, *, #259, .F. ) ;
#62 = EDGE_CURVE ( 'NONE', #118, #56, #337, .T. ) ;
#63 = DIRECTION ( 'NONE',  ( 0.0000000000000000000, 0.0000000000000000000, 1.000000000000000000 ) ) ;
#64 = ORIENTED_EDGE ( 'NONE', *, *, #232, .F. ) ;
#65 = PRESENTATION_STYLE_ASSIGNMENT (( #26 ) ) ;
#66 = EDGE_CURVE ( 'NONE', #245, #56, #246, .T. ) ;
#67 = CARTESIAN_POINT ( 'NONE',  ( -0.03100000000000001713, 5.725223786013877433E-18, 0.1899999999999999745 ) ) ;
#68 = CARTESIAN_POINT ( 'NONE',  ( 0.0000000000000000000, 0.0000000000000000000, 1.500000000000000222 ) ) ;
#69 = PRODUCT_DEFINITION_CONTEXT ( 'detailed design', #338, 'design' ) ;
#70 = EDGE_CURVE ( 'NONE', #118, #204, #16, .T. ) ;
#71 = DIRECTION ( 'NONE',  ( 1.000000000000000000, 0.0000000000000000000, -0.0000000000000000000 ) ) ;
#72 = VECTOR ( 'NONE', #268, 39.37007874015748143 ) ;
#73 = CARTESIAN_POINT ( 'NONE',  ( 0.06250000000000000000, 7.654042494670956004E-18, 1.485000000000000764 ) ) ;
#74 = ADVANCED_FACE ( 'NONE', ( #130 ), #101, .F. ) ;
#75 = FACE_OUTER_BOUND ( 'NONE', #267, .T. ) ;
#76 = CARTESIAN_POINT ( 'NONE',  ( 0.0000000000000000000, 0.0000000000000000000, 0.0000000000000000000 ) ) ;
#77 = DIRECTION ( 'NONE',  ( 1.000000000000000000, 0.0000000000000000000, 0.0000000000000000000 ) ) ;
#78 = VECTOR ( 'NONE', #312, 39.37007874015748143 ) ;
#79 = DIRECTION ( 'NONE',  ( -0.0000000000000000000, -0.0000000000000000000, -1.000000000000000000 ) ) ;
#80 = EDGE_CURVE ( 'NONE', #91, #121, #53, .T. ) ;
#81 = SURFACE_SIDE_STYLE ('',( #134 ) ) ;
#82 = ORIENTED_EDGE ( 'NONE', *, *, #85, .T. ) ;
#83 = AXIS2_PLACEMENT_3D ( 'NONE', #59, #98, #325 ) ;
#84 =( CONVERSION_BASED_UNIT ( 'INCH', #200 ) LENGTH_UNIT ( ) NAMED_UNIT ( #257 ) );
#85 = EDGE_CURVE ( 'NONE', #32, #265, #203, .T. ) ;
#86 = APPLICATION_PROTOCOL_DEFINITION ( 'draft international standard', 'automotive_design', 1998, #338 ) ;
#87 = PRODUCT_RELATED_PRODUCT_CATEGORY ( 'part', '', ( #275 ) ) ;
#88 = AXIS2_PLACEMENT_3D ( 'NONE', #96, #63, #152 ) ;
#89 = ORIENTED_EDGE ( 'NONE', *, *, #360, .F. ) ;
#90 = DIRECTION ( 'NONE',  ( 1.000000000000000000, 0.0000000000000000000, 0.0000000000000000000 ) ) ;
#91 = VERTEX_POINT ( 'NONE', #73 ) ;
#92 = DIRECTION ( 'NONE',  ( -0.0000000000000000000, -0.0000000000000000000, -1.000000000000000000 ) ) ;
#93 = EDGE_LOOP ( 'NONE', ( #1, #89, #242, #136 ) ) ;
#94 = AXIS2_PLACEMENT_3D ( 'NONE', #36, #158, #223 ) ;
#95 = VERTEX_POINT ( 'NONE', #190 ) ;
#96 = CARTESIAN_POINT ( 'NONE',  ( 0.0000000000000000000, 0.0000000000000000000, 0.1899999999999999745 ) ) ;
#97 = EDGE_LOOP ( 'NONE', ( #61, #304, #177, #55 ) ) ;
#98 = DIRECTION ( 'NONE',  ( -0.0000000000000000000, -0.0000000000000000000, -1.000000000000000000 ) ) ;
#99 = CYLINDRICAL_SURFACE ( 'NONE', #239, 0.03100000000000000672 ) ;
#100 = CYLINDRICAL_SURFACE ( 'NONE', #264, 0.06250000000000000000 ) ;
#101 = PLANE ( 'NONE',  #29 ) ;
#102 = PRESENTATION_LAYER_ASSIGNMENT (  '', '', ( #339 ) ) ;
#103 = DIRECTION ( 'NONE',  ( -0.0000000000000000000, -0.0000000000000000000, -1.000000000000000000 ) ) ;
#104 = DIRECTION ( 'NONE',  ( 0.0000000000000000000, 0.0000000000000000000, 1.000000000000000000 ) ) ;
#105 = DIRECTION ( 'NONE',  ( 0.0000000000000000000, 0.0000000000000000000, 1.000000000000000000 ) ) ;
#106 = CARTESIAN_POINT ( 'NONE',  ( 0.0000000000000000000, 0.0000000000000000000, 0.0000000000000000000 ) ) ;
#107 =( NAMED_UNIT ( * ) SI_UNIT ( $, .STERADIAN. ) SOLID_ANGLE_UNIT ( ) );
#108 = VECTOR ( 'NONE', #305, 39.37007874015748143 ) ;
#109 = COLOUR_RGB ( '',0.7921568627450980005, 0.8196078431372548767, 0.9333333333333333481 ) ;
#110 = DIRECTION ( 'NONE',  ( 1.000000000000000000, 0.0000000000000000000, 0.0000000000000000000 ) ) ;
#111 = EDGE_LOOP ( 'NONE', ( #183, #237, #301, #64 ) ) ;
#112 = ORIENTED_EDGE ( 'NONE', *, *, #66, .F. ) ;
#113 = FACE_OUTER_BOUND ( 'NONE', #48, .T. ) ;
#114 = CIRCLE ( 'NONE', #297, 0.03099999999999999978 ) ;
#115 = ORIENTED_EDGE ( 'NONE', *, *, #70, .F. ) ;
#116 = CARTESIAN_POINT ( 'NONE',  ( 0.0000000000000000000, 0.0000000000000000000, 0.01500000000000000291 ) ) ;
#117 = ORIENTED_EDGE ( 'NONE', *, *, #143, .F. ) ;
#118 = VERTEX_POINT ( 'NONE', #67 ) ;
#119 = DIRECTION ( 'NONE',  ( -0.0000000000000000000, -0.0000000000000000000, -1.000000000000000000 ) ) ;
#120 = AXIS2_PLACEMENT_3D ( 'NONE', #243, #331, #327 ) ;
#121 = VERTEX_POINT ( 'NONE', #185 ) ;
#122 =( NAMED_UNIT ( * ) PLANE_ANGLE_UNIT ( ) SI_UNIT ( $, .RADIAN. ) );
#123 = FACE_OUTER_BOUND ( 'NONE', #97, .T. ) ;
#124 = DIRECTION ( 'NONE',  ( 0.0000000000000000000, 0.0000000000000000000, -1.000000000000000000 ) ) ;
#125 = CARTESIAN_POINT ( 'NONE',  ( -0.03100000000000000672, 0.0000000000000000000, 0.0000000000000000000 ) ) ;
#126 = CARTESIAN_POINT ( 'NONE',  ( 0.0000000000000000000, 0.0000000000000000000, 0.0000000000000000000 ) ) ;
#127 = DIRECTION ( 'NONE',  ( -0.0000000000000000000, -0.0000000000000000000, -1.000000000000000000 ) ) ;
#128 = AXIS2_PLACEMENT_3D ( 'NONE', #131, #291, #228 ) ;
#129 = DIRECTION ( 'NONE',  ( -1.000000000000000000, 0.0000000000000000000, 0.0000000000000000000 ) ) ;
#130 = FACE_OUTER_BOUND ( 'NONE', #324, .T. ) ;
#131 = CARTESIAN_POINT ( 'NONE',  ( 0.0000000000000000000, 0.0000000000000000000, 0.2214999999999998359 ) ) ;
#132 = FACE_OUTER_BOUND ( 'NONE', #52, .T. ) ;
#133 = CIRCLE ( 'NONE', #281, 0.04750000000000064587 ) ;
#134 = SURFACE_STYLE_FILL_AREA ( #292 ) ;
#135 = EDGE_CURVE ( 'NONE', #350, #204, #114, .T. ) ;
#136 = ORIENTED_EDGE ( 'NONE', *, *, #66, .T. ) ;
#137 = ADVANCED_FACE ( 'NONE', ( #367 ), #253, .T. ) ;
#138 = ORIENTED_EDGE ( 'NONE', *, *, #259, .T. ) ;
#139 =( LENGTH_UNIT ( ) NAMED_UNIT ( * ) SI_UNIT ( $, .METRE. ) );
#140 = AXIS2_PLACEMENT_3D ( 'NONE', #294, #173, #110 ) ;
#141 = VERTEX_POINT ( 'NONE', #343 ) ;
#142 = ORIENTED_EDGE ( 'NONE', *, *, #233, .F. ) ;
#143 = EDGE_CURVE ( 'NONE', #141, #91, #192, .T. ) ;
#144 = DIRECTION ( 'NONE',  ( 0.0000000000000000000, 0.0000000000000000000, 1.000000000000000000 ) ) ;
#145 = ORIENTED_EDGE ( 'NONE', *, *, #233, .T. ) ;
#146 = VECTOR ( 'NONE', #43, 39.37007874015748143 ) ;
#147 = CARTESIAN_POINT ( 'NONE',  ( 0.0000000000000000000, 0.0000000000000000000, 1.500000000000000222 ) ) ;
#148 = ORIENTED_EDGE ( 'NONE', *, *, #354, .F. ) ;
#149 = FILL_AREA_STYLE ('',( #364 ) ) ;
#150 = EDGE_CURVE ( 'NONE', #322, #121, #162, .T. ) ;
#151 = ORIENTED_EDGE ( 'NONE', *, *, #195, .F. ) ;
#152 = DIRECTION ( 'NONE',  ( 1.000000000000000000, 0.0000000000000000000, 0.0000000000000000000 ) ) ;
#153 = DIRECTION ( 'NONE',  ( -0.0000000000000000000, -0.0000000000000000000, -1.000000000000000000 ) ) ;
#154 =( CONVERSION_BASED_UNIT ( 'INCH', #308 ) LENGTH_UNIT ( ) NAMED_UNIT ( #218 ) );
#155 = COLOUR_RGB ( '',0.7921568627450980005, 0.8196078431372548767, 0.9333333333333333481 ) ;
#156 = CARTESIAN_POINT ( 'NONE',  ( 0.0000000000000000000, 0.0000000000000000000, 0.0000000000000000000 ) ) ;
#157 =( NAMED_UNIT ( * ) SI_UNIT ( $, .STERADIAN. ) SOLID_ANGLE_UNIT ( ) );
#158 = DIRECTION ( 'NONE',  ( 0.0000000000000000000, 0.0000000000000000000, -1.000000000000000000 ) ) ;
#159 = CARTESIAN_POINT ( 'NONE',  ( 0.03099999999999999978, 3.796405077356795010E-18, 0.01500000000000000291 ) ) ;
#160 = DIRECTION ( 'NONE',  ( 0.0000000000000000000, 0.0000000000000000000, 1.000000000000000000 ) ) ;
#161 = CARTESIAN_POINT ( 'NONE',  ( 0.0000000000000000000, 0.0000000000000000000, 1.500000000000000222 ) ) ;
#162 = LINE ( 'NONE', #290, #108 ) ;
#163 = VECTOR ( 'NONE', #369, 39.37007874015748143 ) ;
#164 =( GEOMETRIC_REPRESENTATION_CONTEXT ( 3 ) GLOBAL_UNCERTAINTY_ASSIGNED_CONTEXT ( ( #353 ) ) GLOBAL_UNIT_ASSIGNED_CONTEXT ( ( #20, #348, #157 ) ) REPRESENTATION_CONTEXT ( 'NONE', 'WORKASPACE' ) );
#165 = DIRECTION ( 'NONE',  ( 0.0000000000000000000, 0.0000000000000000000, -1.000000000000000000 ) ) ;
#166 = LENGTH_MEASURE_WITH_UNIT ( LENGTH_MEASURE( 0.02539999999999999897 ), #319 );
#167 = APPLICATION_PROTOCOL_DEFINITION ( 'draft international standard', 'automotive_design', 1998, #320 ) ;
#168 = CONICAL_SURFACE ( 'NONE', #298, 0.04750000000000064587, 0.7853981633974457255 ) ;
#169 = PRODUCT_CONTEXT ( 'NONE', #320, 'mechanical' ) ;
#170 = SHAPE_DEFINITION_REPRESENTATION ( #336, #286 ) ;
#171 = EDGE_LOOP ( 'NONE', ( #4, #212 ) ) ;
#172 = AXIS2_PLACEMENT_3D ( 'NONE', #251, #104, #71 ) ;
#173 = DIRECTION ( 'NONE',  ( 0.0000000000000000000, 0.0000000000000000000, 1.000000000000000000 ) ) ;
#174 = ORIENTED_EDGE ( 'NONE', *, *, #280, .T. ) ;
#175 = VERTEX_POINT ( 'NONE', #241 ) ;
#176 = CARTESIAN_POINT ( 'NONE',  ( 0.06250000000000000000, 7.654042494670956004E-18, 1.500000000000000222 ) ) ;
#177 = ORIENTED_EDGE ( 'NONE', *, *, #70, .T. ) ;
#178 = EDGE_CURVE ( 'NONE', #206, #95, #311, .T. ) ;
#179 = MECHANICAL_DESIGN_GEOMETRIC_PRESENTATION_REPRESENTATION (  '', ( #339 ), #329 ) ;
#180 = LINE ( 'NONE', #8, #293 ) ;
#181 = ORIENTED_EDGE ( 'NONE', *, *, #209, .T. ) ;
#182 = CARTESIAN_POINT ( 'NONE',  ( -0.03099999999999999978, 0.0000000000000000000, 0.01500000000000000291 ) ) ;
#183 = ORIENTED_EDGE ( 'NONE', *, *, #19, .F. ) ;
#184 =( LENGTH_UNIT ( ) NAMED_UNIT ( * ) SI_UNIT ( $, .METRE. ) );
#185 = CARTESIAN_POINT ( 'NONE',  ( -0.06250000000000000000, 0.0000000000000000000, 1.485000000000000764 ) ) ;
#186 = CLOSED_SHELL ( 'NONE', ( #309, #137, #49, #374, #224, #220, #25, #236, #189, #42, #302, #74, #262 ) ) ;
#187 = AXIS2_PLACEMENT_3D ( 'NONE', #116, #247, #210 ) ;
#188 = DIRECTION ( 'NONE',  ( -0.0000000000000000000, -0.0000000000000000000, -1.000000000000000000 ) ) ;
#189 = ADVANCED_FACE ( 'NONE', ( #300 ), #37, .T. ) ;
#190 = CARTESIAN_POINT ( 'NONE',  ( 0.06250000000000000000, 7.654042494670956004E-18, 0.01499999999999999771 ) ) ;
#191 = CARTESIAN_POINT ( 'NONE',  ( 0.06250000000000000000, 7.654042494670956004E-18, 0.0000000000000000000 ) ) ;
#192 = LINE ( 'NONE', #310, #146 ) ;
#193 = LINE ( 'NONE', #288, #44 ) ;
#194 = AXIS2_PLACEMENT_3D ( 'NONE', #315, #105, #368 ) ;
#195 = EDGE_CURVE ( 'NONE', #141, #322, #17, .T. ) ;
#196 = DIMENSIONAL_EXPONENTS ( 1.000000000000000000, 0.0000000000000000000, 0.0000000000000000000, 0.0000000000000000000, 0.0000000000000000000, 0.0000000000000000000, 0.0000000000000000000 ) ;
#197 =( NAMED_UNIT ( * ) SI_UNIT ( $, .STERADIAN. ) SOLID_ANGLE_UNIT ( ) );
#198 = CIRCLE ( 'NONE', #128, 0.06250000000000000000 ) ;
#199 = EDGE_CURVE ( 'NONE', #91, #245, #207, .T. ) ;
#200 = LENGTH_MEASURE_WITH_UNIT ( LENGTH_MEASURE( 0.02539999999999999897 ), #139 );
#201 = PRESENTATION_STYLE_ASSIGNMENT (( #261 ) ) ;
#202 = EDGE_CURVE ( 'NONE', #322, #141, #133, .T. ) ;
#203 = CIRCLE ( 'NONE', #321, 0.06250000000000000000 ) ;
#204 = VERTEX_POINT ( 'NONE', #182 ) ;
#205 = DIRECTION ( 'NONE',  ( -0.0000000000000000000, -0.0000000000000000000, -1.000000000000000000 ) ) ;
#206 = VERTEX_POINT ( 'NONE', #28 ) ;
#207 = LINE ( 'NONE', #213, #378 ) ;
#208 = ORIENTED_EDGE ( 'NONE', *, *, #19, .T. ) ;
#209 = EDGE_CURVE ( 'NONE', #95, #206, #318, .T. ) ;
#210 = DIRECTION ( 'NONE',  ( -1.000000000000000000, 0.0000000000000000000, 0.0000000000000000000 ) ) ;
#211 = STYLED_ITEM ( 'NONE', ( #201 ), #286 ) ;
#212 = ORIENTED_EDGE ( 'NONE', *, *, #209, .F. ) ;
#213 = CARTESIAN_POINT ( 'NONE',  ( 0.06250000000000000000, 7.654042494670956004E-18, 1.500000000000000222 ) ) ;
#214 = ORIENTED_EDGE ( 'NONE', *, *, #85, .F. ) ;
#215 = DIRECTION ( 'NONE',  ( 0.0000000000000000000, 0.0000000000000000000, 1.000000000000000000 ) ) ;
#216 = EDGE_CURVE ( 'NONE', #204, #350, #60, .T. ) ;
#217 = DIRECTION ( 'NONE',  ( -1.000000000000000000, 0.0000000000000000000, 0.0000000000000000000 ) ) ;
#218 = DIMENSIONAL_EXPONENTS ( 1.000000000000000000, 0.0000000000000000000, 0.0000000000000000000, 0.0000000000000000000, 0.0000000000000000000, 0.0000000000000000000, 0.0000000000000000000 ) ;
#219 = CONICAL_SURFACE ( 'NONE', #229, 0.04750000000000064587, 0.7853981633974457255 ) ;
#220 = ADVANCED_FACE ( 'NONE', ( #113 ), #10, .T. ) ;
#221 = DIRECTION ( 'NONE',  ( 0.0000000000000000000, 0.0000000000000000000, 1.000000000000000000 ) ) ;
#222 = CARTESIAN_POINT ( 'NONE',  ( -0.04750000000000064587, 0.0000000000000000000, 1.500000000000000222 ) ) ;
#223 = DIRECTION ( 'NONE',  ( 1.000000000000000000, 0.0000000000000000000, 0.0000000000000000000 ) ) ;
#224 = ADVANCED_FACE ( 'NONE', ( #273 ), #33, .T. ) ;
#225 = DIRECTION ( 'NONE',  ( -0.0000000000000000000, -0.0000000000000000000, -1.000000000000000000 ) ) ;
#226 = FACE_OUTER_BOUND ( 'NONE', #111, .T. ) ;
#227 = EDGE_CURVE ( 'NONE', #95, #265, #57, .T. ) ;
#228 = DIRECTION ( 'NONE',  ( 1.000000000000000000, 0.0000000000000000000, 0.0000000000000000000 ) ) ;
#229 = AXIS2_PLACEMENT_3D ( 'NONE', #31, #258, #313 ) ;
#230 = MECHANICAL_DESIGN_GEOMETRIC_PRESENTATION_REPRESENTATION (  '', ( #211 ), #271 ) ;
#231 = DIRECTION ( 'NONE',  ( 1.000000000000000000, 0.0000000000000000000, 0.0000000000000000000 ) ) ;
#232 = EDGE_CURVE ( 'NONE', #175, #245, #335, .T. ) ;
#233 = EDGE_CURVE ( 'NONE', #206, #32, #180, .T. ) ;
#234 = AXIS2_PLACEMENT_3D ( 'NONE', #35, #3, #303 ) ;
#235 = MANIFOLD_SOLID_BREP ( 'Cut-Revolve1', #186 ) ;
#236 = ADVANCED_FACE ( 'NONE', ( #132 ), #219, .T. ) ;
#237 = ORIENTED_EDGE ( 'NONE', *, *, #62, .T. ) ;
#238 = CIRCLE ( 'NONE', #347, 0.03100000000000001713 ) ;
#239 = AXIS2_PLACEMENT_3D ( 'NONE', #76, #18, #284 ) ;
#240 = VECTOR ( 'NONE', #79, 39.37007874015748143 ) ;
#241 = CARTESIAN_POINT ( 'NONE',  ( 0.03100000000000001713, 0.0000000000000000000, 0.1899999999999999745 ) ) ;
#242 = ORIENTED_EDGE ( 'NONE', *, *, #232, .T. ) ;
#243 = CARTESIAN_POINT ( 'NONE',  ( 0.0000000000000000000, 0.0000000000000000000, 0.01499999999999999771 ) ) ;
#244 = ORIENTED_EDGE ( 'NONE', *, *, #227, .T. ) ;
#245 = VERTEX_POINT ( 'NONE', #283 ) ;
#246 = CIRCLE ( 'NONE', #351, 0.06250000000000000000 ) ;
#247 = DIRECTION ( 'NONE',  ( -0.0000000000000000000, -0.0000000000000000000, -1.000000000000000000 ) ) ;
#248 = DIRECTION ( 'NONE',  ( -1.000000000000000000, 0.0000000000000000000, 0.0000000000000000000 ) ) ;
#249 = DIRECTION ( 'NONE',  ( 1.000000000000000000, 0.0000000000000000000, 0.0000000000000000000 ) ) ;
#250 = FACE_OUTER_BOUND ( 'NONE', #171, .T. ) ;
#251 = CARTESIAN_POINT ( 'NONE',  ( 0.0000000000000000000, 0.0000000000000000000, 1.500000000000000222 ) ) ;
#252 = DIRECTION ( 'NONE',  ( -1.000000000000000000, 0.0000000000000000000, 0.0000000000000000000 ) ) ;
#253 = CYLINDRICAL_SURFACE ( 'NONE', #376, 0.03100000000000000672 ) ;
#254 = CARTESIAN_POINT ( 'NONE',  ( 0.0000000000000000000, 0.0000000000000000000, 1.500000000000000222 ) ) ;
#255 = CARTESIAN_POINT ( 'NONE',  ( -0.06250000000000000000, 0.0000000000000000000, 0.0000000000000000000 ) ) ;
#256 = FACE_OUTER_BOUND ( 'NONE', #379, .T. ) ;
#257 = DIMENSIONAL_EXPONENTS ( 1.000000000000000000, 0.0000000000000000000, 0.0000000000000000000, 0.0000000000000000000, 0.0000000000000000000, 0.0000000000000000000, 0.0000000000000000000 ) ;
#258 = DIRECTION ( 'NONE',  ( 0.0000000000000000000, 0.0000000000000000000, -1.000000000000000000 ) ) ;
#259 = EDGE_CURVE ( 'NONE', #175, #350, #193, .T. ) ;
#260 = ORIENTED_EDGE ( 'NONE', *, *, #195, .T. ) ;
#261 = SURFACE_STYLE_USAGE ( .BOTH. , #81 ) ;
#262 = ADVANCED_FACE ( 'NONE', ( #256 ), #14, .T. ) ;
#263 = AXIS2_PLACEMENT_3D ( 'NONE', #68, #144, #356 ) ;
#264 = AXIS2_PLACEMENT_3D ( 'NONE', #254, #285, #217 ) ;
#265 = VERTEX_POINT ( 'NONE', #191 ) ;
#266 = FILL_AREA_STYLE_COLOUR ( '', #109 ) ;
#267 = EDGE_LOOP ( 'NONE', ( #151, #359, #361, #7 ) ) ;
#268 = DIRECTION ( 'NONE',  ( -0.0000000000000000000, -0.0000000000000000000, -1.000000000000000000 ) ) ;
#269 = AXIS2_PLACEMENT_3D ( 'NONE', #39, #124, #231 ) ;
#270 = CIRCLE ( 'NONE', #269, 0.06250000000000000000 ) ;
#271 =( GEOMETRIC_REPRESENTATION_CONTEXT ( 3 ) GLOBAL_UNCERTAINTY_ASSIGNED_CONTEXT ( ( #46 ) ) GLOBAL_UNIT_ASSIGNED_CONTEXT ( ( #84, #352, #197 ) ) REPRESENTATION_CONTEXT ( 'NONE', 'WORKASPACE' ) );
#272 = EDGE_CURVE ( 'NONE', #56, #245, #198, .T. ) ;
#273 = FACE_OUTER_BOUND ( 'NONE', #27, .T. ) ;
#274 = ORIENTED_EDGE ( 'NONE', *, *, #202, .T. ) ;
#275 = PRODUCT ( 'Micro_KC-125-190-015X', 'Micro_KC-125-190-015X', '', ( #169 ) ) ;
#276 = SURFACE_STYLE_FILL_AREA ( #149 ) ;
#277 = EDGE_LOOP ( 'NONE', ( #22, #23 ) ) ;
#278 = DIRECTION ( 'NONE',  ( -1.000000000000000000, 0.0000000000000000000, 0.0000000000000000000 ) ) ;
#279 = FACE_OUTER_BOUND ( 'NONE', #357, .T. ) ;
#280 = EDGE_CURVE ( 'NONE', #265, #32, #362, .T. ) ;
#281 = AXIS2_PLACEMENT_3D ( 'NONE', #6, #215, #90 ) ;
#282 = DIRECTION ( 'NONE',  ( 1.000000000000000000, 0.0000000000000000000, -0.0000000000000000000 ) ) ;
#283 = CARTESIAN_POINT ( 'NONE',  ( 0.06250000000000000000, 7.654042494670956004E-18, 0.2214999999999998359 ) ) ;
#284 = DIRECTION ( 'NONE',  ( -1.000000000000000000, 0.0000000000000000000, 0.0000000000000000000 ) ) ;
#285 = DIRECTION ( 'NONE',  ( -0.0000000000000000000, -0.0000000000000000000, -1.000000000000000000 ) ) ;
#286 = ADVANCED_BREP_SHAPE_REPRESENTATION ( 'Micro_KC-125-190-015X', ( #235, #140 ), #164 ) ;
#287 = DIRECTION ( 'NONE',  ( 1.000000000000000000, 0.0000000000000000000, 0.0000000000000000000 ) ) ;
#288 = CARTESIAN_POINT ( 'NONE',  ( 0.03100000000000000672, 3.796405077356795780E-18, 0.0000000000000000000 ) ) ;
#289 = VECTOR ( 'NONE', #333, 39.37007874015748143 ) ;
#290 = CARTESIAN_POINT ( 'NONE',  ( -0.04750000000000064587, 0.0000000000000000000, 1.500000000000000222 ) ) ;
#291 = DIRECTION ( 'NONE',  ( -0.0000000000000000000, -0.0000000000000000000, -1.000000000000000000 ) ) ;
#292 = FILL_AREA_STYLE ('',( #266 ) ) ;
#293 = VECTOR ( 'NONE', #119, 39.37007874015748143 ) ;
#294 = CARTESIAN_POINT ( 'NONE',  ( 0.0000000000000000000, 0.0000000000000000000, 0.0000000000000000000 ) ) ;
#295 = EDGE_CURVE ( 'NONE', #121, #91, #270, .T. ) ;
#296 = EDGE_LOOP ( 'NONE', ( #208, #138, #11, #115 ) ) ;
#297 = AXIS2_PLACEMENT_3D ( 'NONE', #314, #127, #13 ) ;
#298 = AXIS2_PLACEMENT_3D ( 'NONE', #161, #165, #340 ) ;
#299 = ORIENTED_EDGE ( 'NONE', *, *, #80, .T. ) ;
#300 = FACE_OUTER_BOUND ( 'NONE', #93, .T. ) ;
#301 = ORIENTED_EDGE ( 'NONE', *, *, #272, .T. ) ;
#302 = ADVANCED_FACE ( 'NONE', ( #41, #250 ), #346, .T. ) ;
#303 = DIRECTION ( 'NONE',  ( -1.000000000000000000, 0.0000000000000000000, 0.0000000000000000000 ) ) ;
#304 = ORIENTED_EDGE ( 'NONE', *, *, #360, .T. ) ;
#305 = DIRECTION ( 'NONE',  ( -0.7071067811865456854, 0.0000000000000000000, -0.7071067811865493491 ) ) ;
#306 = EDGE_LOOP ( 'NONE', ( #30, #244, #174, #142 ) ) ;
#307 = CARTESIAN_POINT ( 'NONE',  ( 0.0000000000000000000, 0.0000000000000000000, 0.1899999999999999745 ) ) ;
#308 = LENGTH_MEASURE_WITH_UNIT ( LENGTH_MEASURE( 0.02539999999999999897 ), #184 );
#309 = ADVANCED_FACE ( 'NONE', ( #344 ), #100, .T. ) ;
#310 = CARTESIAN_POINT ( 'NONE',  ( 0.04750000000000064587, 5.817072295950006528E-18, 1.500000000000000222 ) ) ;
#311 = CIRCLE ( 'NONE', #120, 0.06250000000000000000 ) ;
#312 = DIRECTION ( 'NONE',  ( -0.0000000000000000000, -0.0000000000000000000, -1.000000000000000000 ) ) ;
#313 = DIRECTION ( 'NONE',  ( -1.000000000000000000, 0.0000000000000000000, 0.0000000000000000000 ) ) ;
#314 = CARTESIAN_POINT ( 'NONE',  ( 0.0000000000000000000, 0.0000000000000000000, 0.01500000000000000291 ) ) ;
#315 = CARTESIAN_POINT ( 'NONE',  ( 0.06250000000000000000, 0.0000000000000000000, 0.01499999999999999944 ) ) ;
#316 = DIRECTION ( 'NONE',  ( -0.0000000000000000000, -0.0000000000000000000, -1.000000000000000000 ) ) ;
#317 = CARTESIAN_POINT ( 'NONE',  ( -0.06250000000000000000, 0.0000000000000000000, 1.500000000000000222 ) ) ;
#318 = CIRCLE ( 'NONE', #234, 0.06250000000000000000 ) ;
#319 =( LENGTH_UNIT ( ) NAMED_UNIT ( * ) SI_UNIT ( $, .METRE. ) );
#320 = APPLICATION_CONTEXT ( 'automotive_design' ) ;
#321 = AXIS2_PLACEMENT_3D ( 'NONE', #106, #341, #249 ) ;
#322 = VERTEX_POINT ( 'NONE', #222 ) ;
#323 = CONICAL_SURFACE ( 'NONE', #12, 0.03100000000000001713, 0.7853981633974502774 ) ;
#324 = EDGE_LOOP ( 'NONE', ( #214, #355 ) ) ;
#325 = DIRECTION ( 'NONE',  ( -1.000000000000000000, 0.0000000000000000000, 0.0000000000000000000 ) ) ;
#326 = ORIENTED_EDGE ( 'NONE', *, *, #227, .F. ) ;
#327 = DIRECTION ( 'NONE',  ( -1.000000000000000000, 0.0000000000000000000, 0.0000000000000000000 ) ) ;
#328 = ORIENTED_EDGE ( 'NONE', *, *, #199, .T. ) ;
#329 =( GEOMETRIC_REPRESENTATION_CONTEXT ( 3 ) GLOBAL_UNCERTAINTY_ASSIGNED_CONTEXT ( ( #349 ) ) GLOBAL_UNIT_ASSIGNED_CONTEXT ( ( #154, #122, #107 ) ) REPRESENTATION_CONTEXT ( 'NONE', 'WORKASPACE' ) );
#330 = PRODUCT_DEFINITION_FORMATION_WITH_SPECIFIED_SOURCE ( 'ANY', '', #275, .NOT_KNOWN. ) ;
#331 = DIRECTION ( 'NONE',  ( -0.0000000000000000000, -0.0000000000000000000, -1.000000000000000000 ) ) ;
#332 = ORIENTED_EDGE ( 'NONE', *, *, #295, .T. ) ;
#333 = DIRECTION ( 'NONE',  ( 0.7071067811865489050, 0.0000000000000000000, 0.7071067811865461294 ) ) ;
#334 = CARTESIAN_POINT ( 'NONE',  ( -0.06250000000000000000, 0.0000000000000000000, 0.2214999999999998359 ) ) ;
#335 = LINE ( 'NONE', #358, #289 ) ;
#336 = PRODUCT_DEFINITION_SHAPE ( 'NONE', 'NONE',  #2 ) ;
#337 = LINE ( 'NONE', #40, #163 ) ;
#338 = APPLICATION_CONTEXT ( 'automotive_design' ) ;
#339 = STYLED_ITEM ( 'NONE', ( #65 ), #235 ) ;
#340 = DIRECTION ( 'NONE',  ( -1.000000000000000000, 0.0000000000000000000, 0.0000000000000000000 ) ) ;
#341 = DIRECTION ( 'NONE',  ( 0.0000000000000000000, 0.0000000000000000000, 1.000000000000000000 ) ) ;
#342 = CARTESIAN_POINT ( 'NONE',  ( 0.0000000000000000000, 0.0000000000000000000, 1.500000000000000222 ) ) ;
#343 = CARTESIAN_POINT ( 'NONE',  ( 0.04750000000000064587, 6.735557395310482421E-18, 1.500000000000000222 ) ) ;
#344 = FACE_OUTER_BOUND ( 'NONE', #306, .T. ) ;
#345 = CARTESIAN_POINT ( 'NONE',  ( 0.0000000000000000000, 0.0000000000000000000, 0.1899999999999999745 ) ) ;
#346 = PLANE ( 'NONE',  #194 ) ;
#347 = AXIS2_PLACEMENT_3D ( 'NONE', #307, #153, #248 ) ;
#348 =( NAMED_UNIT ( * ) PLANE_ANGLE_UNIT ( ) SI_UNIT ( $, .RADIAN. ) );
#349 = UNCERTAINTY_MEASURE_WITH_UNIT (LENGTH_MEASURE( 1.000000000000000082E-05 ), #154, 'distance_accuracy_value', 'NONE');
#350 = VERTEX_POINT ( 'NONE', #159 ) ;
#351 = AXIS2_PLACEMENT_3D ( 'NONE', #15, #188, #287 ) ;
#352 =( NAMED_UNIT ( * ) PLANE_ANGLE_UNIT ( ) SI_UNIT ( $, .RADIAN. ) );
#353 = UNCERTAINTY_MEASURE_WITH_UNIT (LENGTH_MEASURE( 1.000000000000000082E-05 ), #20, 'distance_accuracy_value', 'NONE');
#354 = EDGE_CURVE ( 'NONE', #121, #56, #372, .T. ) ;
#355 = ORIENTED_EDGE ( 'NONE', *, *, #280, .F. ) ;
#356 = DIRECTION ( 'NONE',  ( 1.000000000000000000, 0.0000000000000000000, 0.0000000000000000000 ) ) ;
#357 = EDGE_LOOP ( 'NONE', ( #274, #260 ) ) ;
#358 = CARTESIAN_POINT ( 'NONE',  ( 0.03100000000000001713, 0.0000000000000000000, 0.1899999999999999745 ) ) ;
#359 = ORIENTED_EDGE ( 'NONE', *, *, #143, .T. ) ;
#360 = EDGE_CURVE ( 'NONE', #175, #118, #54, .T. ) ;
#361 = ORIENTED_EDGE ( 'NONE', *, *, #295, .F. ) ;
#362 = CIRCLE ( 'NONE', #50, 0.06250000000000000000 ) ;
#363 = PRESENTATION_LAYER_ASSIGNMENT (  '', '', ( #211 ) ) ;
#364 = FILL_AREA_STYLE_COLOUR ( '', #155 ) ;
#365 = PLANE ( 'NONE',  #172 ) ;
#366 = SURFACE_SIDE_STYLE ('',( #276 ) ) ;
#367 = FACE_OUTER_BOUND ( 'NONE', #296, .T. ) ;
#368 = DIRECTION ( 'NONE',  ( 1.000000000000000000, 0.0000000000000000000, -0.0000000000000000000 ) ) ;
#369 = DIRECTION ( 'NONE',  ( -0.7071067811865489050, 8.659560562354950115E-17, 0.7071067811865461294 ) ) ;
#370 = AXIS2_PLACEMENT_3D ( 'NONE', #147, #92, #278 ) ;
#371 = DIRECTION ( 'NONE',  ( -1.000000000000000000, 0.0000000000000000000, 0.0000000000000000000 ) ) ;
#372 = LINE ( 'NONE', #317, #240 ) ;
#373 = DIRECTION ( 'NONE',  ( -0.0000000000000000000, -0.0000000000000000000, -1.000000000000000000 ) ) ;
#374 = ADVANCED_FACE ( 'NONE', ( #75 ), #168, .T. ) ;
#375 = DIRECTION ( 'NONE',  ( 1.000000000000000000, 0.0000000000000000000, 0.0000000000000000000 ) ) ;
#376 = AXIS2_PLACEMENT_3D ( 'NONE', #156, #316, #371 ) ;
#377 = AXIS2_PLACEMENT_3D ( 'NONE', #45, #103, #252 ) ;
#378 = VECTOR ( 'NONE', #205, 39.37007874015748143 ) ;
#379 = EDGE_LOOP ( 'NONE', ( #326, #181, #145, #82 ) ) ;
ENDSEC;
END-ISO-10303-21;
