ISO-10303-21;
HEADER;
FILE_DESCRIPTION (( 'STEP AP214' ),
    '1' );
FILE_NAME ('59590.STEP',
    '2023-07-24T15:13:20',
    ( '' ),
    ( '' ),
    'SwSTEP 2.0',
    'SolidWorks 2023',
    '' );
FILE_SCHEMA (( 'AUTOMOTIVE_DESIGN' ));
ENDSEC;

DATA;
#1 = DIRECTION ( 'NONE',  ( -1.576935716305902603E-16, 1.000000000000000000, -0.000000000000000000 ) ) ;
#2 = VERTEX_POINT ( 'NONE', #158 ) ;
#3 = EDGE_CURVE ( 'NONE', #2, #325, #188, .T. ) ;
#4 = AXIS2_PLACEMENT_3D ( 'NONE', #286, #25, #170 ) ;
#5 = AXIS2_PLACEMENT_3D ( 'NONE', #261, #233, #61 ) ;
#6 = SURFACE_STYLE_FILL_AREA ( #296 ) ;
#7 = EDGE_LOOP ( 'NONE', ( #265, #209 ) ) ;
#8 = SURFACE_SIDE_STYLE ('',( #207 ) ) ;
#9 = EDGE_CURVE ( 'NONE', #193, #299, #341, .T. ) ;
#10 = DIRECTION ( 'NONE',  ( -1.000000000000000000, 0.000000000000000000, 0.000000000000000000 ) ) ;
#11 = ORIENTED_EDGE ( 'NONE', *, *, #3, .F. ) ;
#12 = AXIS2_PLACEMENT_3D ( 'NONE', #225, #197, #54 ) ;
#13 =( NAMED_UNIT ( * ) SI_UNIT ( $, .STERADIAN. ) SOLID_ANGLE_UNIT ( ) );
#14 = SURFACE_STYLE_USAGE ( .BOTH. , #19 ) ;
#15 = APPLICATION_CONTEXT ( 'automotive_design' ) ;
#16 = ORIENTED_EDGE ( 'NONE', *, *, #349, .T. ) ;
#17 = PRODUCT_RELATED_PRODUCT_CATEGORY ( 'part', '', ( #82 ) ) ;
#18 = FILL_AREA_STYLE_COLOUR ( '', #43 ) ;
#19 = SURFACE_SIDE_STYLE ('',( #97 ) ) ;
#20 = PRESENTATION_LAYER_ASSIGNMENT (  '', '', ( #108 ) ) ;
#21 = DIRECTION ( 'NONE',  ( -1.576935716305902603E-16, 1.000000000000000000, -0.000000000000000000 ) ) ;
#22 = SURFACE_STYLE_USAGE ( .BOTH. , #354 ) ;
#23 = EDGE_LOOP ( 'NONE', ( #244, #347 ) ) ;
#24 = CARTESIAN_POINT ( 'NONE',  ( 0.000000000000000000, 30.00000000000000000, 0.000000000000000000 ) ) ;
#25 = DIRECTION ( 'NONE',  ( -0.000000000000000000, -1.000000000000000000, -0.000000000000000000 ) ) ;
#26 = DIRECTION ( 'NONE',  ( 0.000000000000000000, 0.000000000000000000, -1.000000000000000000 ) ) ;
#27 = FILL_AREA_STYLE_COLOUR ( '', #222 ) ;
#28 = PRESENTATION_LAYER_ASSIGNMENT (  '', '', ( #62 ) ) ;
#29 = CARTESIAN_POINT ( 'NONE',  ( 7.589415207398531038E-15, 30.00000000000000000, 0.000000000000000000 ) ) ;
#30 = CARTESIAN_POINT ( 'NONE',  ( 10.00000000000000000, 89.00000000000000000, 1.224646799147353256E-15 ) ) ;
#31 = CARTESIAN_POINT ( 'NONE',  ( 0.000000000000000000, 30.00000000000000000, 0.000000000000000000 ) ) ;
#32 = DIRECTION ( 'NONE',  ( -0.000000000000000000, -1.000000000000000000, -0.000000000000000000 ) ) ;
#33 = STYLED_ITEM ( 'NONE', ( #184 ), #267 ) ;
#34 = DIRECTION ( 'NONE',  ( 0.000000000000000000, -1.000000000000000000, -0.000000000000000000 ) ) ;
#35 = EDGE_LOOP ( 'NONE', ( #157, #217 ) ) ;
#36 = ADVANCED_FACE ( 'NONE', ( #212 ), #303, .T. ) ;
#37 = EDGE_LOOP ( 'NONE', ( #65, #78, #239, #124 ) ) ;
#38 = CARTESIAN_POINT ( 'NONE',  ( 0.000000000000000000, 30.00000000000000000, -10.00000000000000000 ) ) ;
#39 = VECTOR ( 'NONE', #111, 1000.000000000000000 ) ;
#40 =( LENGTH_UNIT ( ) NAMED_UNIT ( * ) SI_UNIT ( .MILLI., .METRE. ) );
#41 = EDGE_LOOP ( 'NONE', ( #360, #73, #320, #89 ) ) ;
#42 = FILL_AREA_STYLE ('',( #220 ) ) ;
#43 = COLOUR_RGB ( '',0.7921568627450980005, 0.8196078431372548767, 0.9333333333333333481 ) ;
#44 = LINE ( 'NONE', #139, #301 ) ;
#45 = DIRECTION ( 'NONE',  ( 0.000000000000000000, 0.000000000000000000, -1.000000000000000000 ) ) ;
#46 = ADVANCED_FACE ( 'NONE', ( #304 ), #187, .T. ) ;
#47 = SURFACE_STYLE_USAGE ( .BOTH. , #71 ) ;
#48 = FACE_OUTER_BOUND ( 'NONE', #134, .T. ) ;
#49 =( GEOMETRIC_REPRESENTATION_CONTEXT ( 3 ) GLOBAL_UNCERTAINTY_ASSIGNED_CONTEXT ( ( #103 ) ) GLOBAL_UNIT_ASSIGNED_CONTEXT ( ( #169, #285, #255 ) ) REPRESENTATION_CONTEXT ( 'NONE', 'WORKASPACE' ) );
#50 = ORIENTED_EDGE ( 'NONE', *, *, #221, .F. ) ;
#51 = PRODUCT_DEFINITION_FORMATION_WITH_SPECIFIED_SOURCE ( 'ANY', '', #82, .NOT_KNOWN. ) ;
#52 = ADVANCED_FACE ( 'NONE', ( #248 ), #269, .T. ) ;
#53 = SURFACE_SIDE_STYLE ('',( #282 ) ) ;
#54 = DIRECTION ( 'NONE',  ( -1.000000000000000000, 0.000000000000000000, 0.000000000000000000 ) ) ;
#55 = CARTESIAN_POINT ( 'NONE',  ( 0.000000000000000000, 0.000000000000000000, 0.000000000000000000 ) ) ;
#56 = COLOUR_RGB ( '',1.000000000000000000, 0.000000000000000000, 0.000000000000000000 ) ;
#57 = AXIS2_PLACEMENT_3D ( 'NONE', #272, #156, #327 ) ;
#58 = AXIS2_PLACEMENT_3D ( 'NONE', #29, #59, #251 ) ;
#59 = DIRECTION ( 'NONE',  ( -1.576935716305902603E-16, 1.000000000000000000, -0.000000000000000000 ) ) ;
#60 =( LENGTH_UNIT ( ) NAMED_UNIT ( * ) SI_UNIT ( .MILLI., .METRE. ) );
#61 = DIRECTION ( 'NONE',  ( 0.000000000000000000, 0.000000000000000000, -1.000000000000000000 ) ) ;
#62 = STYLED_ITEM ( 'NONE', ( #128 ), #36 ) ;
#63 = AXIS2_PLACEMENT_3D ( 'NONE', #243, #163, #359 ) ;
#64 = AXIS2_PLACEMENT_3D ( 'NONE', #317, #202, #344 ) ;
#65 = ORIENTED_EDGE ( 'NONE', *, *, #221, .T. ) ;
#66 = FILL_AREA_STYLE ('',( #87 ) ) ;
#67 = CIRCLE ( 'NONE', #84, 10.00000000000000178 ) ;
#68 = PRESENTATION_LAYER_ASSIGNMENT (  '', '', ( #259 ) ) ;
#69 =( NAMED_UNIT ( * ) SI_UNIT ( $, .STERADIAN. ) SOLID_ANGLE_UNIT ( ) );
#70 = MECHANICAL_DESIGN_GEOMETRIC_PRESENTATION_REPRESENTATION (  '', ( #259 ), #189 ) ;
#71 = SURFACE_SIDE_STYLE ('',( #133 ) ) ;
#72 = PRODUCT_DEFINITION_SHAPE ( 'NONE', 'NONE',  #144 ) ;
#73 = ORIENTED_EDGE ( 'NONE', *, *, #88, .T. ) ;
#74 = CARTESIAN_POINT ( 'NONE',  ( 0.000000000000000000, 0.000000000000000000, 0.000000000000000000 ) ) ;
#75 = ORIENTED_EDGE ( 'NONE', *, *, #153, .T. ) ;
#76 = UNCERTAINTY_MEASURE_WITH_UNIT (LENGTH_MEASURE( 1.000000000000000082E-05 ), #176, 'distance_accuracy_value', 'NONE');
#77 = CIRCLE ( 'NONE', #12, 10.00000000000000178 ) ;
#78 = ORIENTED_EDGE ( 'NONE', *, *, #326, .T. ) ;
#79 =( NAMED_UNIT ( * ) SI_UNIT ( $, .STERADIAN. ) SOLID_ANGLE_UNIT ( ) );
#80 = CARTESIAN_POINT ( 'NONE',  ( -10.00000000000000000, 89.00000000000000000, 0.000000000000000000 ) ) ;
#81 = DIRECTION ( 'NONE',  ( -0.000000000000000000, -1.000000000000000000, -0.000000000000000000 ) ) ;
#82 = PRODUCT ( '59590', '59590', '', ( #258 ) ) ;
#83 = SURFACE_SIDE_STYLE ('',( #231 ) ) ;
#84 = AXIS2_PLACEMENT_3D ( 'NONE', #260, #1, #266 ) ;
#85 = CARTESIAN_POINT ( 'NONE',  ( -10.00000000000000355, 89.00000000000000000, 0.000000000000000000 ) ) ;
#86 = FACE_OUTER_BOUND ( 'NONE', #35, .T. ) ;
#87 = FILL_AREA_STYLE_COLOUR ( '', #263 ) ;
#88 = EDGE_CURVE ( 'NONE', #190, #299, #44, .T. ) ;
#89 = ORIENTED_EDGE ( 'NONE', *, *, #98, .F. ) ;
#90 = AXIS2_PLACEMENT_3D ( 'NONE', #171, #34, #148 ) ;
#91 = CARTESIAN_POINT ( 'NONE',  ( 1.224646799147353256E-15, 30.00000000000000000, 10.00000000000000000 ) ) ;
#92 = ADVANCED_FACE ( 'NONE', ( #86 ), #345, .T. ) ;
#93 = CARTESIAN_POINT ( 'NONE',  ( 7.589415207398531038E-15, 30.00000000000000000, 0.000000000000000000 ) ) ;
#94 = SURFACE_STYLE_USAGE ( .BOTH. , #294 ) ;
#95 = CIRCLE ( 'NONE', #57, 0.5000000000000004441 ) ;
#96 = PRESENTATION_STYLE_ASSIGNMENT (( #22 ) ) ;
#97 = SURFACE_STYLE_FILL_AREA ( #42 ) ;
#98 = EDGE_CURVE ( 'NONE', #105, #193, #362, .T. ) ;
#99 =( LENGTH_UNIT ( ) NAMED_UNIT ( * ) SI_UNIT ( .MILLI., .METRE. ) );
#100 = ORIENTED_EDGE ( 'NONE', *, *, #9, .T. ) ;
#101 = STYLED_ITEM ( 'NONE', ( #254 ), #279 ) ;
#102 = CARTESIAN_POINT ( 'NONE',  ( 0.000000000000000000, 0.000000000000000000, 0.000000000000000000 ) ) ;
#103 = UNCERTAINTY_MEASURE_WITH_UNIT (LENGTH_MEASURE( 1.000000000000000082E-05 ), #169, 'distance_accuracy_value', 'NONE');
#104 = EDGE_CURVE ( 'NONE', #234, #370, #336, .T. ) ;
#105 = VERTEX_POINT ( 'NONE', #38 ) ;
#106 = CARTESIAN_POINT ( 'NONE',  ( 1.224646799147353256E-15, 0.5000000000000000000, 10.00000000000000000 ) ) ;
#107 = ORIENTED_EDGE ( 'NONE', *, *, #165, .T. ) ;
#108 = STYLED_ITEM ( 'NONE', ( #310 ), #92 ) ;
#109 = FILL_AREA_STYLE_COLOUR ( '', #167 ) ;
#110 = COLOUR_RGB ( '',1.000000000000000000, 0.000000000000000000, 0.000000000000000000 ) ;
#111 = DIRECTION ( 'NONE',  ( -0.000000000000000000, -1.000000000000000000, -0.000000000000000000 ) ) ;
#112 = SURFACE_STYLE_FILL_AREA ( #314 ) ;
#113 =( NAMED_UNIT ( * ) PLANE_ANGLE_UNIT ( ) SI_UNIT ( $, .RADIAN. ) );
#114 = FACE_OUTER_BOUND ( 'NONE', #329, .T. ) ;
#115 = TOROIDAL_SURFACE ( 'NONE', #63, 9.500000000000000000, 0.5000000000000002220 ) ;
#116 = APPLICATION_PROTOCOL_DEFINITION ( 'draft international standard', 'automotive_design', 1998, #15 ) ;
#117 = SURFACE_STYLE_USAGE ( .BOTH. , #53 ) ;
#118 = ORIENTED_EDGE ( 'NONE', *, *, #88, .F. ) ;
#119 = PRESENTATION_STYLE_ASSIGNMENT (( #94 ) ) ;
#120 = MECHANICAL_DESIGN_GEOMETRIC_PRESENTATION_REPRESENTATION (  '', ( #108 ), #151 ) ;
#121 = PRESENTATION_LAYER_ASSIGNMENT (  '', '', ( #253 ) ) ;
#122 = AXIS2_PLACEMENT_3D ( 'NONE', #223, #364, #166 ) ;
#123 = FACE_OUTER_BOUND ( 'NONE', #23, .T. ) ;
#124 = ORIENTED_EDGE ( 'NONE', *, *, #104, .F. ) ;
#125 = SURFACE_STYLE_USAGE ( .BOTH. , #8 ) ;
#126 = DIRECTION ( 'NONE',  ( -0.000000000000000000, -1.000000000000000000, -0.000000000000000000 ) ) ;
#127 = AXIS2_PLACEMENT_3D ( 'NONE', #24, #32, #135 ) ;
#128 = PRESENTATION_STYLE_ASSIGNMENT (( #14 ) ) ;
#129 = CARTESIAN_POINT ( 'NONE',  ( 10.00000000000000000, 30.00000000000000000, 1.224646799147353256E-15 ) ) ;
#130 = CARTESIAN_POINT ( 'NONE',  ( 0.000000000000000000, 0.5000000000000000000, 0.000000000000000000 ) ) ;
#131 = EDGE_CURVE ( 'NONE', #370, #330, #67, .T. ) ;
#132 = AXIS2_PLACEMENT_3D ( 'NONE', #262, #126, #150 ) ;
#133 = SURFACE_STYLE_FILL_AREA ( #300 ) ;
#134 = EDGE_LOOP ( 'NONE', ( #100, #355, #305, #185 ) ) ;
#135 = DIRECTION ( 'NONE',  ( 0.000000000000000000, 0.000000000000000000, -1.000000000000000000 ) ) ;
#136 = COLOUR_RGB ( '',1.000000000000000000, 0.000000000000000000, 0.000000000000000000 ) ;
#137 = DIRECTION ( 'NONE',  ( -1.576935716305902603E-16, 1.000000000000000000, 0.000000000000000000 ) ) ;
#138 = MECHANICAL_DESIGN_GEOMETRIC_PRESENTATION_REPRESENTATION (  '', ( #33 ), #180 ) ;
#139 = CARTESIAN_POINT ( 'NONE',  ( 1.224646799147353256E-15, 0.000000000000000000, 10.00000000000000000 ) ) ;
#140 = DIRECTION ( 'NONE',  ( 0.000000000000000000, 0.000000000000000000, -1.000000000000000000 ) ) ;
#141 = FILL_AREA_STYLE ('',( #219 ) ) ;
#142 = UNCERTAINTY_MEASURE_WITH_UNIT (LENGTH_MEASURE( 1.000000000000000082E-05 ), #99, 'distance_accuracy_value', 'NONE');
#143 = DIRECTION ( 'NONE',  ( -0.000000000000000000, -1.000000000000000000, -0.000000000000000000 ) ) ;
#144 = PRODUCT_DEFINITION ( 'UNKNOWN', '', #51, #215 ) ;
#145 = SURFACE_STYLE_USAGE ( .BOTH. , #83 ) ;
#146 = MECHANICAL_DESIGN_GEOMETRIC_PRESENTATION_REPRESENTATION (  '', ( #62 ), #194 ) ;
#147 = MANIFOLD_SOLID_BREP ( 'Revolve - Tool Body (Straight Shanked)', #199 ) ;
#148 = DIRECTION ( 'NONE',  ( 0.000000000000000000, 0.000000000000000000, -1.000000000000000000 ) ) ;
#149 = ORIENTED_EDGE ( 'NONE', *, *, #165, .F. ) ;
#150 = DIRECTION ( 'NONE',  ( 0.000000000000000000, 0.000000000000000000, -1.000000000000000000 ) ) ;
#151 =( GEOMETRIC_REPRESENTATION_CONTEXT ( 3 ) GLOBAL_UNCERTAINTY_ASSIGNED_CONTEXT ( ( #288 ) ) GLOBAL_UNIT_ASSIGNED_CONTEXT ( ( #198, #281, #257 ) ) REPRESENTATION_CONTEXT ( 'NONE', 'WORKASPACE' ) );
#152 = ORIENTED_EDGE ( 'NONE', *, *, #104, .T. ) ;
#153 = EDGE_CURVE ( 'NONE', #193, #325, #270, .T. ) ;
#154 = CARTESIAN_POINT ( 'NONE',  ( -9.999999999999985789, 30.00000000000000000, 0.000000000000000000 ) ) ;
#155 = EDGE_LOOP ( 'NONE', ( #191, #107, #75, #11 ) ) ;
#156 = DIRECTION ( 'NONE',  ( 1.000000000000000000, 0.000000000000000000, -1.224646799147353207E-16 ) ) ;
#157 = ORIENTED_EDGE ( 'NONE', *, *, #312, .F. ) ;
#158 = CARTESIAN_POINT ( 'NONE',  ( 1.194030629168669469E-15, 0.000000000000000000, 9.500000000000000000 ) ) ;
#159 = CLOSED_SHELL ( 'NONE', ( #279, #274, #226, #52, #36, #92 ) ) ;
#160 = CIRCLE ( 'NONE', #132, 10.00000000000000000 ) ;
#161 = FILL_AREA_STYLE ('',( #186 ) ) ;
#162 = DIRECTION ( 'NONE',  ( 0.000000000000000000, 0.000000000000000000, -1.000000000000000000 ) ) ;
#163 = DIRECTION ( 'NONE',  ( -0.000000000000000000, -1.000000000000000000, -0.000000000000000000 ) ) ;
#164 = CARTESIAN_POINT ( 'NONE',  ( 0.000000000000000000, 0.000000000000000000, 0.000000000000000000 ) ) ;
#165 = EDGE_CURVE ( 'NONE', #299, #193, #160, .T. ) ;
#166 = DIRECTION ( 'NONE',  ( -1.000000000000000000, 0.000000000000000000, 0.000000000000000000 ) ) ;
#167 = COLOUR_RGB ( '',1.000000000000000000, 0.000000000000000000, 0.000000000000000000 ) ;
#168 = EDGE_CURVE ( 'NONE', #190, #105, #278, .T. ) ;
#169 =( LENGTH_UNIT ( ) NAMED_UNIT ( * ) SI_UNIT ( .MILLI., .METRE. ) );
#170 = DIRECTION ( 'NONE',  ( 0.000000000000000000, 0.000000000000000000, -1.000000000000000000 ) ) ;
#171 = CARTESIAN_POINT ( 'NONE',  ( 0.000000000000000000, 0.000000000000000000, 0.000000000000000000 ) ) ;
#172 = VECTOR ( 'NONE', #361, 1000.000000000000000 ) ;
#173 =( GEOMETRIC_REPRESENTATION_CONTEXT ( 3 ) GLOBAL_UNCERTAINTY_ASSIGNED_CONTEXT ( ( #358 ) ) GLOBAL_UNIT_ASSIGNED_CONTEXT ( ( #249, #335, #79 ) ) REPRESENTATION_CONTEXT ( 'NONE', 'WORKASPACE' ) );
#174 = FILL_AREA_STYLE_COLOUR ( '', #324 ) ;
#175 = ORIENTED_EDGE ( 'NONE', *, *, #349, .F. ) ;
#176 =( LENGTH_UNIT ( ) NAMED_UNIT ( * ) SI_UNIT ( .MILLI., .METRE. ) );
#177 = APPLICATION_CONTEXT ( 'automotive_design' ) ;
#178 = PRESENTATION_STYLE_ASSIGNMENT (( #125 ) ) ;
#179 = STYLED_ITEM ( 'NONE', ( #201 ), #52 ) ;
#180 =( GEOMETRIC_REPRESENTATION_CONTEXT ( 3 ) GLOBAL_UNCERTAINTY_ASSIGNED_CONTEXT ( ( #192 ) ) GLOBAL_UNIT_ASSIGNED_CONTEXT ( ( #353, #245, #218 ) ) REPRESENTATION_CONTEXT ( 'NONE', 'WORKASPACE' ) );
#181 = AXIS2_PLACEMENT_3D ( 'NONE', #164, #143, #140 ) ;
#182 = DIRECTION ( 'NONE',  ( 0.000000000000000000, 0.000000000000000000, 1.000000000000000000 ) ) ;
#183 = ADVANCED_FACE ( 'NONE', ( #123 ), #208, .F. ) ;
#184 = PRESENTATION_STYLE_ASSIGNMENT (( #47 ) ) ;
#185 = ORIENTED_EDGE ( 'NONE', *, *, #153, .F. ) ;
#186 = FILL_AREA_STYLE_COLOUR ( '', #110 ) ;
#187 = CYLINDRICAL_SURFACE ( 'NONE', #283, 9.999999999999998224 ) ;
#188 = CIRCLE ( 'NONE', #351, 9.500000000000000000 ) ;
#189 =( GEOMETRIC_REPRESENTATION_CONTEXT ( 3 ) GLOBAL_UNCERTAINTY_ASSIGNED_CONTEXT ( ( #142 ) ) GLOBAL_UNIT_ASSIGNED_CONTEXT ( ( #99, #268, #13 ) ) REPRESENTATION_CONTEXT ( 'NONE', 'WORKASPACE' ) );
#190 = VERTEX_POINT ( 'NONE', #91 ) ;
#191 = ORIENTED_EDGE ( 'NONE', *, *, #264, .F. ) ;
#192 = UNCERTAINTY_MEASURE_WITH_UNIT (LENGTH_MEASURE( 1.000000000000000082E-05 ), #353, 'distance_accuracy_value', 'NONE');
#193 = VERTEX_POINT ( 'NONE', #322 ) ;
#194 =( GEOMETRIC_REPRESENTATION_CONTEXT ( 3 ) GLOBAL_UNCERTAINTY_ASSIGNED_CONTEXT ( ( #227 ) ) GLOBAL_UNIT_ASSIGNED_CONTEXT ( ( #246, #242, #69 ) ) REPRESENTATION_CONTEXT ( 'NONE', 'WORKASPACE' ) );
#195 = UNCERTAINTY_MEASURE_WITH_UNIT (LENGTH_MEASURE( 1.000000000000000082E-05 ), #60, 'distance_accuracy_value', 'NONE');
#196 = DIRECTION ( 'NONE',  ( -1.576935716305902603E-16, 1.000000000000000000, -0.000000000000000000 ) ) ;
#197 = DIRECTION ( 'NONE',  ( -1.576935716305902603E-16, 1.000000000000000000, -0.000000000000000000 ) ) ;
#198 =( LENGTH_UNIT ( ) NAMED_UNIT ( * ) SI_UNIT ( .MILLI., .METRE. ) );
#199 = CLOSED_SHELL ( 'NONE', ( #46, #367, #337, #183 ) ) ;
#200 = MECHANICAL_DESIGN_GEOMETRIC_PRESENTATION_REPRESENTATION (  '', ( #342 ), #328 ) ;
#201 = PRESENTATION_STYLE_ASSIGNMENT (( #117 ) ) ;
#202 = DIRECTION ( 'NONE',  ( 0.000000000000000000, 0.000000000000000000, 1.000000000000000000 ) ) ;
#203 = PLANE ( 'NONE',  #90 ) ;
#204 =( NAMED_UNIT ( * ) PLANE_ANGLE_UNIT ( ) SI_UNIT ( $, .RADIAN. ) );
#205 = ORIENTED_EDGE ( 'NONE', *, *, #287, .F. ) ;
#206 = DIRECTION ( 'NONE',  ( -1.576935716305902603E-16, 1.000000000000000000, -0.000000000000000000 ) ) ;
#207 = SURFACE_STYLE_FILL_AREA ( #66 ) ;
#208 = PLANE ( 'NONE',  #334 ) ;
#209 = ORIENTED_EDGE ( 'NONE', *, *, #3, .T. ) ;
#210 = MECHANICAL_DESIGN_GEOMETRIC_PRESENTATION_REPRESENTATION (  '', ( #253 ), #307 ) ;
#211 = ORIENTED_EDGE ( 'NONE', *, *, #326, .F. ) ;
#212 = FACE_OUTER_BOUND ( 'NONE', #332, .T. ) ;
#213 = DIRECTION ( 'NONE',  ( -0.000000000000000000, -1.000000000000000000, -0.000000000000000000 ) ) ;
#214 = AXIS2_PLACEMENT_3D ( 'NONE', #74, #271, #45 ) ;
#215 = PRODUCT_DEFINITION_CONTEXT ( 'detailed design', #15, 'design' ) ;
#216 = CIRCLE ( 'NONE', #181, 9.500000000000000000 ) ;
#217 = ORIENTED_EDGE ( 'NONE', *, *, #168, .F. ) ;
#218 =( NAMED_UNIT ( * ) SI_UNIT ( $, .STERADIAN. ) SOLID_ANGLE_UNIT ( ) );
#219 = FILL_AREA_STYLE_COLOUR ( '', #136 ) ;
#220 = FILL_AREA_STYLE_COLOUR ( '', #56 ) ;
#221 = EDGE_CURVE ( 'NONE', #234, #273, #230, .T. ) ;
#222 = COLOUR_RGB ( '',1.000000000000000000, 0.000000000000000000, 0.000000000000000000 ) ;
#223 = CARTESIAN_POINT ( 'NONE',  ( -1.714505518806293849E-15, 89.00000000000000000, 0.000000000000000000 ) ) ;
#224 =( NAMED_UNIT ( * ) SI_UNIT ( $, .STERADIAN. ) SOLID_ANGLE_UNIT ( ) );
#225 = CARTESIAN_POINT ( 'NONE',  ( -1.714505518806293652E-15, 89.00000000000000000, 0.000000000000000000 ) ) ;
#226 = ADVANCED_FACE ( 'NONE', ( #321 ), #203, .T. ) ;
#227 = UNCERTAINTY_MEASURE_WITH_UNIT (LENGTH_MEASURE( 1.000000000000000082E-05 ), #246, 'distance_accuracy_value', 'NONE');
#228 = VECTOR ( 'NONE', #196, 1000.000000000000000 ) ;
#229 = CARTESIAN_POINT ( 'NONE',  ( 7.589415207398531038E-15, 30.00000000000000000, 0.000000000000000000 ) ) ;
#230 = CIRCLE ( 'NONE', #318, 9.999999999999992895 ) ;
#231 = SURFACE_STYLE_FILL_AREA ( #291 ) ;
#232 = SHAPE_DEFINITION_REPRESENTATION ( #72, #339 ) ;
#233 = DIRECTION ( 'NONE',  ( -0.000000000000000000, -1.000000000000000000, -0.000000000000000000 ) ) ;
#234 = VERTEX_POINT ( 'NONE', #154 ) ;
#235 = PRESENTATION_LAYER_ASSIGNMENT (  '', '', ( #179 ) ) ;
#236 = CARTESIAN_POINT ( 'NONE',  ( 0.000000000000000000, 0.5000000000000000000, -9.500000000000000000 ) ) ;
#237 = ORIENTED_EDGE ( 'NONE', *, *, #168, .T. ) ;
#238 = DIRECTION ( 'NONE',  ( 1.000000000000000000, 1.576935716305902603E-16, 0.000000000000000000 ) ) ;
#239 = ORIENTED_EDGE ( 'NONE', *, *, #131, .F. ) ;
#240 = MECHANICAL_DESIGN_GEOMETRIC_PRESENTATION_REPRESENTATION (  '', ( #101 ), #49 ) ;
#241 = FACE_OUTER_BOUND ( 'NONE', #41, .T. ) ;
#242 =( NAMED_UNIT ( * ) PLANE_ANGLE_UNIT ( ) SI_UNIT ( $, .RADIAN. ) );
#243 = CARTESIAN_POINT ( 'NONE',  ( 0.000000000000000000, 0.5000000000000000000, 0.000000000000000000 ) ) ;
#244 = ORIENTED_EDGE ( 'NONE', *, *, #131, .T. ) ;
#245 =( NAMED_UNIT ( * ) PLANE_ANGLE_UNIT ( ) SI_UNIT ( $, .RADIAN. ) );
#246 =( LENGTH_UNIT ( ) NAMED_UNIT ( * ) SI_UNIT ( .MILLI., .METRE. ) );
#247 = PRESENTATION_LAYER_ASSIGNMENT (  '', '', ( #33 ) ) ;
#248 = FACE_OUTER_BOUND ( 'NONE', #155, .T. ) ;
#249 =( LENGTH_UNIT ( ) NAMED_UNIT ( * ) SI_UNIT ( .MILLI., .METRE. ) );
#250 = DIRECTION ( 'NONE',  ( 0.000000000000000000, 0.000000000000000000, -1.000000000000000000 ) ) ;
#251 = DIRECTION ( 'NONE',  ( -1.000000000000000000, 0.000000000000000000, 0.000000000000000000 ) ) ;
#252 = DIRECTION ( 'NONE',  ( 0.000000000000000000, -0.000000000000000000, 1.000000000000000000 ) ) ;
#253 = STYLED_ITEM ( 'NONE', ( #119 ), #147 ) ;
#254 = PRESENTATION_STYLE_ASSIGNMENT (( #331 ) ) ;
#255 =( NAMED_UNIT ( * ) SI_UNIT ( $, .STERADIAN. ) SOLID_ANGLE_UNIT ( ) );
#256 = CYLINDRICAL_SURFACE ( 'NONE', #122, 9.999999999999998224 ) ;
#257 =( NAMED_UNIT ( * ) SI_UNIT ( $, .STERADIAN. ) SOLID_ANGLE_UNIT ( ) );
#258 = PRODUCT_CONTEXT ( 'NONE', #177, 'mechanical' ) ;
#259 = STYLED_ITEM ( 'NONE', ( #96 ), #274 ) ;
#260 = CARTESIAN_POINT ( 'NONE',  ( -1.714505518806293652E-15, 89.00000000000000000, 0.000000000000000000 ) ) ;
#261 = CARTESIAN_POINT ( 'NONE',  ( 0.000000000000000000, 30.00000000000000000, 0.000000000000000000 ) ) ;
#262 = CARTESIAN_POINT ( 'NONE',  ( 0.000000000000000000, 0.5000000000000000000, 0.000000000000000000 ) ) ;
#263 = COLOUR_RGB ( '',1.000000000000000000, 0.000000000000000000, 0.000000000000000000 ) ;
#264 = EDGE_CURVE ( 'NONE', #299, #2, #95, .T. ) ;
#265 = ORIENTED_EDGE ( 'NONE', *, *, #352, .T. ) ;
#266 = DIRECTION ( 'NONE',  ( -1.000000000000000000, 0.000000000000000000, 0.000000000000000000 ) ) ;
#267 = MANIFOLD_SOLID_BREP ( 'Revolve - Cutting Edge', #159 ) ;
#268 =( NAMED_UNIT ( * ) PLANE_ANGLE_UNIT ( ) SI_UNIT ( $, .RADIAN. ) );
#269 = TOROIDAL_SURFACE ( 'NONE', #4, 9.500000000000000000, 0.5000000000000002220 ) ;
#270 = CIRCLE ( 'NONE', #284, 0.5000000000000004441 ) ;
#271 = DIRECTION ( 'NONE',  ( -0.000000000000000000, -1.000000000000000000, -0.000000000000000000 ) ) ;
#272 = CARTESIAN_POINT ( 'NONE',  ( 1.163414459189985485E-15, 0.5000000000000000000, 9.500000000000000000 ) ) ;
#273 = VERTEX_POINT ( 'NONE', #129 ) ;
#274 = ADVANCED_FACE ( 'NONE', ( #48 ), #115, .T. ) ;
#275 = DIRECTION ( 'NONE',  ( -0.000000000000000000, -1.000000000000000000, -0.000000000000000000 ) ) ;
#276 = CARTESIAN_POINT ( 'NONE',  ( -1.714505518806293849E-15, 89.00000000000000000, 0.000000000000000000 ) ) ;
#277 =( GEOMETRIC_REPRESENTATION_CONTEXT ( 3 ) GLOBAL_UNCERTAINTY_ASSIGNED_CONTEXT ( ( #195 ) ) GLOBAL_UNIT_ASSIGNED_CONTEXT ( ( #60, #113, #224 ) ) REPRESENTATION_CONTEXT ( 'NONE', 'WORKASPACE' ) );
#278 = CIRCLE ( 'NONE', #5, 10.00000000000000000 ) ;
#279 = ADVANCED_FACE ( 'NONE', ( #241 ), #365, .T. ) ;
#280 = SURFACE_STYLE_FILL_AREA ( #161 ) ;
#281 =( NAMED_UNIT ( * ) PLANE_ANGLE_UNIT ( ) SI_UNIT ( $, .RADIAN. ) );
#282 = SURFACE_STYLE_FILL_AREA ( #141 ) ;
#283 = AXIS2_PLACEMENT_3D ( 'NONE', #276, #21, #302 ) ;
#284 = AXIS2_PLACEMENT_3D ( 'NONE', #236, #10, #182 ) ;
#285 =( NAMED_UNIT ( * ) PLANE_ANGLE_UNIT ( ) SI_UNIT ( $, .RADIAN. ) );
#286 = CARTESIAN_POINT ( 'NONE',  ( 0.000000000000000000, 0.5000000000000000000, 0.000000000000000000 ) ) ;
#287 = EDGE_CURVE ( 'NONE', #330, #370, #77, .T. ) ;
#288 = UNCERTAINTY_MEASURE_WITH_UNIT (LENGTH_MEASURE( 1.000000000000000082E-05 ), #198, 'distance_accuracy_value', 'NONE');
#289 = CARTESIAN_POINT ( 'NONE',  ( 9.999999999999996447, 89.00000000000000000, 1.224646799147353059E-15 ) ) ;
#290 = SURFACE_SIDE_STYLE ('',( #112 ) ) ;
#291 = FILL_AREA_STYLE ('',( #27 ) ) ;
#292 = CIRCLE ( 'NONE', #127, 10.00000000000000000 ) ;
#293 = AXIS2_PLACEMENT_3D ( 'NONE', #55, #81, #26 ) ;
#294 = SURFACE_SIDE_STYLE ('',( #6 ) ) ;
#295 = EDGE_LOOP ( 'NONE', ( #211, #16, #152, #205 ) ) ;
#296 = FILL_AREA_STYLE ('',( #174 ) ) ;
#297 = ORIENTED_EDGE ( 'NONE', *, *, #98, .T. ) ;
#298 =( NAMED_UNIT ( * ) SI_UNIT ( $, .STERADIAN. ) SOLID_ANGLE_UNIT ( ) );
#299 = VERTEX_POINT ( 'NONE', #106 ) ;
#300 = FILL_AREA_STYLE ('',( #18 ) ) ;
#301 = VECTOR ( 'NONE', #366, 1000.000000000000000 ) ;
#302 = DIRECTION ( 'NONE',  ( -1.000000000000000000, 0.000000000000000000, 0.000000000000000000 ) ) ;
#303 = CYLINDRICAL_SURFACE ( 'NONE', #214, 10.00000000000000000 ) ;
#304 = FACE_OUTER_BOUND ( 'NONE', #37, .T. ) ;
#305 = ORIENTED_EDGE ( 'NONE', *, *, #352, .F. ) ;
#306 = AXIS2_PLACEMENT_3D ( 'NONE', #130, #213, #250 ) ;
#307 =( GEOMETRIC_REPRESENTATION_CONTEXT ( 3 ) GLOBAL_UNCERTAINTY_ASSIGNED_CONTEXT ( ( #76 ) ) GLOBAL_UNIT_ASSIGNED_CONTEXT ( ( #176, #204, #350 ) ) REPRESENTATION_CONTEXT ( 'NONE', 'WORKASPACE' ) );
#308 = DIRECTION ( 'NONE',  ( 0.000000000000000000, 1.000000000000000000, 0.000000000000000000 ) ) ;
#309 = LINE ( 'NONE', #289, #172 ) ;
#310 = PRESENTATION_STYLE_ASSIGNMENT (( #145 ) ) ;
#311 = FACE_OUTER_BOUND ( 'NONE', #295, .T. ) ;
#312 = EDGE_CURVE ( 'NONE', #105, #190, #292, .T. ) ;
#313 = PRESENTATION_LAYER_ASSIGNMENT (  '', '', ( #101 ) ) ;
#314 = FILL_AREA_STYLE ('',( #109 ) ) ;
#315 = UNCERTAINTY_MEASURE_WITH_UNIT (LENGTH_MEASURE( 1.000000000000000082E-05 ), #40, 'distance_accuracy_value', 'NONE');
#316 = DIRECTION ( 'NONE',  ( -1.000000000000000000, -1.576935716305902603E-16, 0.000000000000000000 ) ) ;
#317 = CARTESIAN_POINT ( 'NONE',  ( 0.000000000000000000, 0.000000000000000000, 0.000000000000000000 ) ) ;
#318 = AXIS2_PLACEMENT_3D ( 'NONE', #93, #206, #319 ) ;
#319 = DIRECTION ( 'NONE',  ( -1.000000000000000000, 0.000000000000000000, 0.000000000000000000 ) ) ;
#320 = ORIENTED_EDGE ( 'NONE', *, *, #9, .F. ) ;
#321 = FACE_OUTER_BOUND ( 'NONE', #7, .T. ) ;
#322 = CARTESIAN_POINT ( 'NONE',  ( 0.000000000000000000, 0.5000000000000000000, -10.00000000000000000 ) ) ;
#323 =( NAMED_UNIT ( * ) PLANE_ANGLE_UNIT ( ) SI_UNIT ( $, .RADIAN. ) );
#324 = COLOUR_RGB ( '',0.7921568627450980005, 0.8196078431372548767, 0.9333333333333333481 ) ;
#325 = VERTEX_POINT ( 'NONE', #340 ) ;
#326 = EDGE_CURVE ( 'NONE', #273, #330, #309, .T. ) ;
#327 = DIRECTION ( 'NONE',  ( -1.224646799147353454E-16, 0.000000000000000000, -1.000000000000000000 ) ) ;
#328 =( GEOMETRIC_REPRESENTATION_CONTEXT ( 3 ) GLOBAL_UNCERTAINTY_ASSIGNED_CONTEXT ( ( #315 ) ) GLOBAL_UNIT_ASSIGNED_CONTEXT ( ( #40, #323, #298 ) ) REPRESENTATION_CONTEXT ( 'NONE', 'WORKASPACE' ) );
#329 = EDGE_LOOP ( 'NONE', ( #50, #175 ) ) ;
#330 = VERTEX_POINT ( 'NONE', #30 ) ;
#331 = SURFACE_STYLE_USAGE ( .BOTH. , #290 ) ;
#332 = EDGE_LOOP ( 'NONE', ( #118, #237, #297, #149 ) ) ;
#333 = MECHANICAL_DESIGN_GEOMETRIC_PRESENTATION_REPRESENTATION (  '', ( #179 ), #277 ) ;
#334 = AXIS2_PLACEMENT_3D ( 'NONE', #346, #348, #238 ) ;
#335 =( NAMED_UNIT ( * ) PLANE_ANGLE_UNIT ( ) SI_UNIT ( $, .RADIAN. ) );
#336 = LINE ( 'NONE', #80, #228 ) ;
#337 = ADVANCED_FACE ( 'NONE', ( #311 ), #256, .T. ) ;
#338 = CARTESIAN_POINT ( 'NONE',  ( 0.000000000000000000, 0.000000000000000000, -10.00000000000000000 ) ) ;
#339 = ADVANCED_BREP_SHAPE_REPRESENTATION ( '59590', ( #267, #147, #64 ), #173 ) ;
#340 = CARTESIAN_POINT ( 'NONE',  ( 0.000000000000000000, 0.000000000000000000, -9.500000000000000000 ) ) ;
#341 = CIRCLE ( 'NONE', #306, 10.00000000000000000 ) ;
#342 = STYLED_ITEM ( 'NONE', ( #178 ), #226 ) ;
#343 = PLANE ( 'NONE',  #368 ) ;
#344 = DIRECTION ( 'NONE',  ( 1.000000000000000000, 0.000000000000000000, 0.000000000000000000 ) ) ;
#345 = PLANE ( 'NONE',  #356 ) ;
#346 = CARTESIAN_POINT ( 'NONE',  ( 10.00000000000000000, 89.00000000000000000, 0.000000000000000000 ) ) ;
#347 = ORIENTED_EDGE ( 'NONE', *, *, #287, .T. ) ;
#348 = DIRECTION ( 'NONE',  ( 1.576935716305902603E-16, -1.000000000000000000, 0.000000000000000000 ) ) ;
#349 = EDGE_CURVE ( 'NONE', #273, #234, #363, .T. ) ;
#350 =( NAMED_UNIT ( * ) SI_UNIT ( $, .STERADIAN. ) SOLID_ANGLE_UNIT ( ) );
#351 = AXIS2_PLACEMENT_3D ( 'NONE', #102, #275, #162 ) ;
#352 = EDGE_CURVE ( 'NONE', #325, #2, #216, .T. ) ;
#353 =( LENGTH_UNIT ( ) NAMED_UNIT ( * ) SI_UNIT ( .MILLI., .METRE. ) );
#354 = SURFACE_SIDE_STYLE ('',( #280 ) ) ;
#355 = ORIENTED_EDGE ( 'NONE', *, *, #264, .T. ) ;
#356 = AXIS2_PLACEMENT_3D ( 'NONE', #31, #308, #252 ) ;
#357 = PRESENTATION_LAYER_ASSIGNMENT (  '', '', ( #342 ) ) ;
#358 = UNCERTAINTY_MEASURE_WITH_UNIT (LENGTH_MEASURE( 1.000000000000000082E-05 ), #249, 'distance_accuracy_value', 'NONE');
#359 = DIRECTION ( 'NONE',  ( 0.000000000000000000, 0.000000000000000000, -1.000000000000000000 ) ) ;
#360 = ORIENTED_EDGE ( 'NONE', *, *, #312, .T. ) ;
#361 = DIRECTION ( 'NONE',  ( -1.576935716305902603E-16, 1.000000000000000000, -0.000000000000000000 ) ) ;
#362 = LINE ( 'NONE', #338, #39 ) ;
#363 = CIRCLE ( 'NONE', #58, 9.999999999999992895 ) ;
#364 = DIRECTION ( 'NONE',  ( -1.576935716305902603E-16, 1.000000000000000000, -0.000000000000000000 ) ) ;
#365 = CYLINDRICAL_SURFACE ( 'NONE', #293, 10.00000000000000000 ) ;
#366 = DIRECTION ( 'NONE',  ( -0.000000000000000000, -1.000000000000000000, -0.000000000000000000 ) ) ;
#367 = ADVANCED_FACE ( 'NONE', ( #114 ), #343, .F. ) ;
#368 = AXIS2_PLACEMENT_3D ( 'NONE', #229, #137, #316 ) ;
#369 = APPLICATION_PROTOCOL_DEFINITION ( 'draft international standard', 'automotive_design', 1998, #177 ) ;
#370 = VERTEX_POINT ( 'NONE', #85 ) ;
ENDSEC;
END-ISO-10303-21;
