ISO-10303-21;
HEADER;
FILE_DESCRIPTION (( 'STEP AP214' ),
    '1' );
FILE_NAME ('84689.STEP',
    '2023-06-23T14:42:01',
    ( '' ),
    ( '' ),
    'SwSTEP 2.0',
    'SolidWorks 2023',
    '' );
FILE_SCHEMA (( 'AUTOMOTIVE_DESIGN' ));
ENDSEC;

DATA;
#1 = CARTESIAN_POINT ( 'NONE',  ( 0.000000000000000000, 2.500000000000000000, -0.1875000000000000278 ) ) ;
#2 = DIRECTION ( 'NONE',  ( -9.797174393178823685E-17, 1.000000000000000000, -0.000000000000000000 ) ) ;
#3 = LENGTH_MEASURE_WITH_UNIT ( LENGTH_MEASURE( 0.02539999999999999897 ), #94 );
#4 = CARTESIAN_POINT ( 'NONE',  ( 2.296212748401287726E-17, 0.000000000000000000, 0.1875000000000000278 ) ) ;
#5 = SURFACE_STYLE_FILL_AREA ( #51 ) ;
#6 = CARTESIAN_POINT ( 'NONE',  ( 0.000000000000000000, 2.500000000000000000, 0.000000000000000000 ) ) ;
#7 = CIRCLE ( 'NONE', #164, 0.1875000000000000278 ) ;
#8 = AXIS2_PLACEMENT_3D ( 'NONE', #6, #35, #49 ) ;
#9 =( NAMED_UNIT ( * ) SI_UNIT ( $, .STERADIAN. ) SOLID_ANGLE_UNIT ( ) );
#10 = APPLICATION_CONTEXT ( 'automotive_design' ) ;
#11 = MECHANICAL_DESIGN_GEOMETRIC_PRESENTATION_REPRESENTATION (  '', ( #140 ), #165 ) ;
#12 = AXIS2_PLACEMENT_3D ( 'NONE', #241, #116, #67 ) ;
#13 = ORIENTED_EDGE ( 'NONE', *, *, #230, .T. ) ;
#14 = ADVANCED_FACE ( 'NONE', ( #257 ), #81, .F. ) ;
#15 = DIMENSIONAL_EXPONENTS ( 1.000000000000000000, 0.000000000000000000, 0.000000000000000000, 0.000000000000000000, 0.000000000000000000, 0.000000000000000000, 0.000000000000000000 ) ;
#16 =( NAMED_UNIT ( * ) SI_UNIT ( $, .STERADIAN. ) SOLID_ANGLE_UNIT ( ) );
#17 = CIRCLE ( 'NONE', #184, 0.1875000000000000278 ) ;
#18 = ORIENTED_EDGE ( 'NONE', *, *, #114, .T. ) ;
#19 = EDGE_LOOP ( 'NONE', ( #57, #109 ) ) ;
#20 = ORIENTED_EDGE ( 'NONE', *, *, #230, .F. ) ;
#21 = DIRECTION ( 'NONE',  ( 1.000000000000000000, 9.797174393178823685E-17, 0.000000000000000000 ) ) ;
#22 = CLOSED_SHELL ( 'NONE', ( #155, #14, #192, #29 ) ) ;
#23 = ADVANCED_FACE ( 'NONE', ( #56 ), #157, .T. ) ;
#24 = LENGTH_MEASURE_WITH_UNIT ( LENGTH_MEASURE( 0.02539999999999999897 ), #282 );
#25 = CARTESIAN_POINT ( 'NONE',  ( -0.1875000000000004996, 5.000000000000000000, 0.000000000000000000 ) ) ;
#26 = FILL_AREA_STYLE ('',( #65 ) ) ;
#27 = AXIS2_PLACEMENT_3D ( 'NONE', #141, #264, #168 ) ;
#28 = CARTESIAN_POINT ( 'NONE',  ( -0.1875000000000000278, 2.500000000000000000, 0.000000000000000000 ) ) ;
#29 = ADVANCED_FACE ( 'NONE', ( #134 ), #228, .F. ) ;
#30 = LINE ( 'NONE', #93, #222 ) ;
#31 = CARTESIAN_POINT ( 'NONE',  ( 0.1875000000000000278, 5.000000000000000000, 2.296212748401289883E-17 ) ) ;
#32 = DIRECTION ( 'NONE',  ( -0.000000000000000000, -1.000000000000000000, -0.000000000000000000 ) ) ;
#33 =( GEOMETRIC_REPRESENTATION_CONTEXT ( 3 ) GLOBAL_UNCERTAINTY_ASSIGNED_CONTEXT ( ( #212 ) ) GLOBAL_UNIT_ASSIGNED_CONTEXT ( ( #171, #242, #9 ) ) REPRESENTATION_CONTEXT ( 'NONE', 'WORKASPACE' ) );
#34 = AXIS2_PLACEMENT_3D ( 'NONE', #194, #236, #87 ) ;
#35 = DIRECTION ( 'NONE',  ( -0.000000000000000000, -1.000000000000000000, -0.000000000000000000 ) ) ;
#36 = MECHANICAL_DESIGN_GEOMETRIC_PRESENTATION_REPRESENTATION (  '', ( #175 ), #127 ) ;
#37 = DIRECTION ( 'NONE',  ( 1.000000000000000000, 0.000000000000000000, 0.000000000000000000 ) ) ;
#38 = CIRCLE ( 'NONE', #120, 0.1875000000000002498 ) ;
#39 = CARTESIAN_POINT ( 'NONE',  ( 0.000000000000000000, 0.000000000000000000, 0.000000000000000000 ) ) ;
#40 = FILL_AREA_STYLE_COLOUR ( '', #308 ) ;
#41 = CIRCLE ( 'NONE', #48, 0.1875000000000000278 ) ;
#42 = FILL_AREA_STYLE ('',( #40 ) ) ;
#43 = PRESENTATION_STYLE_ASSIGNMENT (( #215 ) ) ;
#44 = EDGE_CURVE ( 'NONE', #98, #132, #38, .T. ) ;
#45 = FILL_AREA_STYLE_COLOUR ( '', #176 ) ;
#46 =( NAMED_UNIT ( * ) SI_UNIT ( $, .STERADIAN. ) SOLID_ANGLE_UNIT ( ) );
#47 = UNCERTAINTY_MEASURE_WITH_UNIT (LENGTH_MEASURE( 1.000000000000000082E-05 ), #146, 'distance_accuracy_value', 'NONE');
#48 = AXIS2_PLACEMENT_3D ( 'NONE', #289, #166, #62 ) ;
#49 = DIRECTION ( 'NONE',  ( 0.000000000000000000, 0.000000000000000000, -1.000000000000000000 ) ) ;
#50 = LINE ( 'NONE', #266, #199 ) ;
#51 = FILL_AREA_STYLE ('',( #193 ) ) ;
#52 = SURFACE_SIDE_STYLE ('',( #5 ) ) ;
#53 = FILL_AREA_STYLE_COLOUR ( '', #233 ) ;
#54 = FILL_AREA_STYLE ('',( #245 ) ) ;
#55 = ORIENTED_EDGE ( 'NONE', *, *, #44, .F. ) ;
#56 = FACE_OUTER_BOUND ( 'NONE', #158, .T. ) ;
#57 = ORIENTED_EDGE ( 'NONE', *, *, #299, .F. ) ;
#58 = EDGE_CURVE ( 'NONE', #107, #307, #106, .T. ) ;
#59 = SURFACE_STYLE_USAGE ( .BOTH. , #177 ) ;
#60 = ORIENTED_EDGE ( 'NONE', *, *, #129, .T. ) ;
#61 = CARTESIAN_POINT ( 'NONE',  ( 0.000000000000000000, 0.000000000000000000, 0.000000000000000000 ) ) ;
#62 = DIRECTION ( 'NONE',  ( -1.000000000000000000, 0.000000000000000000, 0.000000000000000000 ) ) ;
#63 = CARTESIAN_POINT ( 'NONE',  ( 0.000000000000000000, 0.000000000000000000, 0.000000000000000000 ) ) ;
#64 = AXIS2_PLACEMENT_3D ( 'NONE', #208, #89, #267 ) ;
#65 = FILL_AREA_STYLE_COLOUR ( '', #203 ) ;
#66 = DIRECTION ( 'NONE',  ( -0.000000000000000000, -1.000000000000000000, -0.000000000000000000 ) ) ;
#67 = DIRECTION ( 'NONE',  ( -1.000000000000000000, 0.000000000000000000, 0.000000000000000000 ) ) ;
#68 = SURFACE_STYLE_FILL_AREA ( #172 ) ;
#69 = ORIENTED_EDGE ( 'NONE', *, *, #181, .F. ) ;
#70 = PRESENTATION_LAYER_ASSIGNMENT (  '', '', ( #303 ) ) ;
#71 =( GEOMETRIC_REPRESENTATION_CONTEXT ( 3 ) GLOBAL_UNCERTAINTY_ASSIGNED_CONTEXT ( ( #234 ) ) GLOBAL_UNIT_ASSIGNED_CONTEXT ( ( #170, #243, #174 ) ) REPRESENTATION_CONTEXT ( 'NONE', 'WORKASPACE' ) );
#72 = PLANE ( 'NONE',  #64 ) ;
#73 = LENGTH_MEASURE_WITH_UNIT ( LENGTH_MEASURE( 0.02539999999999999897 ), #150 );
#74 = EDGE_LOOP ( 'NONE', ( #183, #306, #148, #130 ) ) ;
#75 = FACE_OUTER_BOUND ( 'NONE', #19, .T. ) ;
#76 = AXIS2_PLACEMENT_3D ( 'NONE', #123, #273, #297 ) ;
#77 = DIRECTION ( 'NONE',  ( 0.000000000000000000, -1.000000000000000000, -0.000000000000000000 ) ) ;
#78 = DIRECTION ( 'NONE',  ( 0.000000000000000000, 0.000000000000000000, -1.000000000000000000 ) ) ;
#79 = PRODUCT_RELATED_PRODUCT_CATEGORY ( 'part', '', ( #104 ) ) ;
#80 = AXIS2_PLACEMENT_3D ( 'NONE', #227, #159, #283 ) ;
#81 = PLANE ( 'NONE',  #80 ) ;
#82 = DIRECTION ( 'NONE',  ( -0.000000000000000000, -1.000000000000000000, -0.000000000000000000 ) ) ;
#83 = VERTEX_POINT ( 'NONE', #286 ) ;
#84 = ADVANCED_FACE ( 'NONE', ( #260 ), #235, .T. ) ;
#85 =( NAMED_UNIT ( * ) PLANE_ANGLE_UNIT ( ) SI_UNIT ( $, .RADIAN. ) );
#86 = PRESENTATION_LAYER_ASSIGNMENT (  '', '', ( #226 ) ) ;
#87 = DIRECTION ( 'NONE',  ( -1.000000000000000000, 0.000000000000000000, 0.000000000000000000 ) ) ;
#88 = EDGE_CURVE ( 'NONE', #198, #124, #7, .T. ) ;
#89 = DIRECTION ( 'NONE',  ( 0.000000000000000000, 1.000000000000000000, 0.000000000000000000 ) ) ;
#90 = CARTESIAN_POINT ( 'NONE',  ( 0.000000000000000000, 0.000000000000000000, 0.000000000000000000 ) ) ;
#91 =( GEOMETRIC_REPRESENTATION_CONTEXT ( 3 ) GLOBAL_UNCERTAINTY_ASSIGNED_CONTEXT ( ( #136 ) ) GLOBAL_UNIT_ASSIGNED_CONTEXT ( ( #117, #169, #186 ) ) REPRESENTATION_CONTEXT ( 'NONE', 'WORKASPACE' ) );
#92 = CIRCLE ( 'NONE', #34, 0.1875000000000002498 ) ;
#93 = CARTESIAN_POINT ( 'NONE',  ( -0.1875000000000003608, 5.000000000000000000, 0.000000000000000000 ) ) ;
#94 =( LENGTH_UNIT ( ) NAMED_UNIT ( * ) SI_UNIT ( $, .METRE. ) );
#95 = LENGTH_MEASURE_WITH_UNIT ( LENGTH_MEASURE( 0.02539999999999999897 ), #145 );
#96 = DIRECTION ( 'NONE',  ( -0.000000000000000000, -1.000000000000000000, -0.000000000000000000 ) ) ;
#97 = SURFACE_SIDE_STYLE ('',( #102 ) ) ;
#98 = VERTEX_POINT ( 'NONE', #31 ) ;
#99 = AXIS2_PLACEMENT_3D ( 'NONE', #270, #96, #275 ) ;
#100 = DIMENSIONAL_EXPONENTS ( 1.000000000000000000, 0.000000000000000000, 0.000000000000000000, 0.000000000000000000, 0.000000000000000000, 0.000000000000000000, 0.000000000000000000 ) ;
#101 =( NAMED_UNIT ( * ) PLANE_ANGLE_UNIT ( ) SI_UNIT ( $, .RADIAN. ) );
#102 = SURFACE_STYLE_FILL_AREA ( #54 ) ;
#103 = ORIENTED_EDGE ( 'NONE', *, *, #58, .F. ) ;
#104 = PRODUCT ( '84689', '84689', '', ( #274 ) ) ;
#105 =( NAMED_UNIT ( * ) SI_UNIT ( $, .STERADIAN. ) SOLID_ANGLE_UNIT ( ) );
#106 = LINE ( 'NONE', #133, #265 ) ;
#107 = VERTEX_POINT ( 'NONE', #1 ) ;
#108 = CARTESIAN_POINT ( 'NONE',  ( -2.449293598294705921E-16, 5.000000000000000000, 0.000000000000000000 ) ) ;
#109 = ORIENTED_EDGE ( 'NONE', *, *, #201, .F. ) ;
#110 = SURFACE_SIDE_STYLE ('',( #231 ) ) ;
#111 = CARTESIAN_POINT ( 'NONE',  ( 0.1875000000000000278, 2.500000000000000000, 2.296212748401289883E-17 ) ) ;
#112 = MECHANICAL_DESIGN_GEOMETRIC_PRESENTATION_REPRESENTATION (  '', ( #303 ), #296 ) ;
#113 = DIRECTION ( 'NONE',  ( 0.000000000000000000, 0.000000000000000000, -1.000000000000000000 ) ) ;
#114 = EDGE_CURVE ( 'NONE', #83, #278, #50, .T. ) ;
#115 = PRODUCT_DEFINITION_CONTEXT ( 'detailed design', #10, 'design' ) ;
#116 = DIRECTION ( 'NONE',  ( -9.797174393178823685E-17, 1.000000000000000000, -0.000000000000000000 ) ) ;
#117 =( CONVERSION_BASED_UNIT ( 'INCH', #3 ) LENGTH_UNIT ( ) NAMED_UNIT ( #126 ) );
#118 = PRESENTATION_STYLE_ASSIGNMENT (( #167 ) ) ;
#119 = PRESENTATION_LAYER_ASSIGNMENT (  '', '', ( #209 ) ) ;
#120 = AXIS2_PLACEMENT_3D ( 'NONE', #108, #156, #204 ) ;
#121 = VECTOR ( 'NONE', #2, 39.37007874015748143 ) ;
#122 = FACE_OUTER_BOUND ( 'NONE', #298, .T. ) ;
#123 = CARTESIAN_POINT ( 'NONE',  ( -2.449293598294705921E-16, 5.000000000000000000, 0.000000000000000000 ) ) ;
#124 = VERTEX_POINT ( 'NONE', #111 ) ;
#125 = LENGTH_MEASURE_WITH_UNIT ( LENGTH_MEASURE( 0.02539999999999999897 ), #247 );
#126 = DIMENSIONAL_EXPONENTS ( 1.000000000000000000, 0.000000000000000000, 0.000000000000000000, 0.000000000000000000, 0.000000000000000000, 0.000000000000000000, 0.000000000000000000 ) ;
#127 =( GEOMETRIC_REPRESENTATION_CONTEXT ( 3 ) GLOBAL_UNCERTAINTY_ASSIGNED_CONTEXT ( ( #261 ) ) GLOBAL_UNIT_ASSIGNED_CONTEXT ( ( #229, #256, #105 ) ) REPRESENTATION_CONTEXT ( 'NONE', 'WORKASPACE' ) );
#128 = EDGE_LOOP ( 'NONE', ( #225, #252 ) ) ;
#129 = EDGE_CURVE ( 'NONE', #278, #307, #17, .T. ) ;
#130 = ORIENTED_EDGE ( 'NONE', *, *, #129, .F. ) ;
#131 = PRODUCT_DEFINITION_FORMATION_WITH_SPECIFIED_SOURCE ( 'ANY', '', #104, .NOT_KNOWN. ) ;
#132 = VERTEX_POINT ( 'NONE', #25 ) ;
#133 = CARTESIAN_POINT ( 'NONE',  ( 0.000000000000000000, 0.000000000000000000, -0.1875000000000000278 ) ) ;
#134 = FACE_OUTER_BOUND ( 'NONE', #128, .T. ) ;
#135 = MECHANICAL_DESIGN_GEOMETRIC_PRESENTATION_REPRESENTATION (  '', ( #209 ), #91 ) ;
#136 = UNCERTAINTY_MEASURE_WITH_UNIT (LENGTH_MEASURE( 1.000000000000000082E-05 ), #117, 'distance_accuracy_value', 'NONE');
#137 = DIRECTION ( 'NONE',  ( -1.000000000000000000, 0.000000000000000000, 0.000000000000000000 ) ) ;
#138 =( NAMED_UNIT ( * ) SI_UNIT ( $, .STERADIAN. ) SOLID_ANGLE_UNIT ( ) );
#139 = PRODUCT_DEFINITION ( 'UNKNOWN', '', #131, #115 ) ;
#140 = STYLED_ITEM ( 'NONE', ( #153 ), #173 ) ;
#141 = CARTESIAN_POINT ( 'NONE',  ( 0.000000000000000000, 2.500000000000000000, 0.000000000000000000 ) ) ;
#142 = DIRECTION ( 'NONE',  ( -0.000000000000000000, -1.000000000000000000, -0.000000000000000000 ) ) ;
#143 = MANIFOLD_SOLID_BREP ( 'Revolve - Cutting Edge', #258 ) ;
#144 = DIMENSIONAL_EXPONENTS ( 1.000000000000000000, 0.000000000000000000, 0.000000000000000000, 0.000000000000000000, 0.000000000000000000, 0.000000000000000000, 0.000000000000000000 ) ;
#145 =( LENGTH_UNIT ( ) NAMED_UNIT ( * ) SI_UNIT ( $, .METRE. ) );
#146 =( CONVERSION_BASED_UNIT ( 'INCH', #213 ) LENGTH_UNIT ( ) NAMED_UNIT ( #144 ) );
#147 = FACE_OUTER_BOUND ( 'NONE', #259, .T. ) ;
#148 = ORIENTED_EDGE ( 'NONE', *, *, #58, .T. ) ;
#149 = SHAPE_DEFINITION_REPRESENTATION ( #254, #216 ) ;
#150 =( LENGTH_UNIT ( ) NAMED_UNIT ( * ) SI_UNIT ( $, .METRE. ) );
#151 = ORIENTED_EDGE ( 'NONE', *, *, #255, .T. ) ;
#152 = COLOUR_RGB ( '',1.000000000000000000, 0.000000000000000000, 0.000000000000000000 ) ;
#153 = PRESENTATION_STYLE_ASSIGNMENT (( #272 ) ) ;
#154 = DIRECTION ( 'NONE',  ( 9.797174393178823685E-17, -1.000000000000000000, 0.000000000000000000 ) ) ;
#155 = ADVANCED_FACE ( 'NONE', ( #122 ), #188, .T. ) ;
#156 = DIRECTION ( 'NONE',  ( -9.797174393178823685E-17, 1.000000000000000000, -0.000000000000000000 ) ) ;
#157 = PLANE ( 'NONE',  #179 ) ;
#158 = EDGE_LOOP ( 'NONE', ( #249, #60 ) ) ;
#159 = DIRECTION ( 'NONE',  ( -9.797174393178823685E-17, 1.000000000000000000, 0.000000000000000000 ) ) ;
#160 = CARTESIAN_POINT ( 'NONE',  ( 3.032960542342103792E-32, 2.500000000000000000, 0.000000000000000000 ) ) ;
#161 = SURFACE_SIDE_STYLE ('',( #187 ) ) ;
#162 = ADVANCED_FACE ( 'NONE', ( #220 ), #221, .T. ) ;
#163 = DIRECTION ( 'NONE',  ( -9.797174393178823685E-17, 1.000000000000000000, -0.000000000000000000 ) ) ;
#164 = AXIS2_PLACEMENT_3D ( 'NONE', #160, #163, #137 ) ;
#165 =( GEOMETRIC_REPRESENTATION_CONTEXT ( 3 ) GLOBAL_UNCERTAINTY_ASSIGNED_CONTEXT ( ( #285 ) ) GLOBAL_UNIT_ASSIGNED_CONTEXT ( ( #223, #101, #16 ) ) REPRESENTATION_CONTEXT ( 'NONE', 'WORKASPACE' ) );
#166 = DIRECTION ( 'NONE',  ( -9.797174393178823685E-17, 1.000000000000000000, -0.000000000000000000 ) ) ;
#167 = SURFACE_STYLE_USAGE ( .BOTH. , #110 ) ;
#168 = DIRECTION ( 'NONE',  ( 0.000000000000000000, 0.000000000000000000, -1.000000000000000000 ) ) ;
#169 =( NAMED_UNIT ( * ) PLANE_ANGLE_UNIT ( ) SI_UNIT ( $, .RADIAN. ) );
#170 =( CONVERSION_BASED_UNIT ( 'INCH', #95 ) LENGTH_UNIT ( ) NAMED_UNIT ( #276 ) );
#171 =( CONVERSION_BASED_UNIT ( 'INCH', #73 ) LENGTH_UNIT ( ) NAMED_UNIT ( #195 ) );
#172 = FILL_AREA_STYLE ('',( #53 ) ) ;
#173 = ADVANCED_FACE ( 'NONE', ( #75 ), #72, .T. ) ;
#174 =( NAMED_UNIT ( * ) SI_UNIT ( $, .STERADIAN. ) SOLID_ANGLE_UNIT ( ) );
#175 = STYLED_ITEM ( 'NONE', ( #182 ), #23 ) ;
#176 = COLOUR_RGB ( '',0.7921568627450980005, 0.8196078431372548767, 0.9333333333333333481 ) ;
#177 = SURFACE_SIDE_STYLE ('',( #284 ) ) ;
#178 = CARTESIAN_POINT ( 'NONE',  ( 0.1875000000000000278, 5.000000000000000000, 0.000000000000000000 ) ) ;
#179 = AXIS2_PLACEMENT_3D ( 'NONE', #39, #77, #78 ) ;
#180 = ORIENTED_EDGE ( 'NONE', *, *, #211, .F. ) ;
#181 = EDGE_CURVE ( 'NONE', #132, #98, #92, .T. ) ;
#182 = PRESENTATION_STYLE_ASSIGNMENT (( #59 ) ) ;
#183 = ORIENTED_EDGE ( 'NONE', *, *, #114, .F. ) ;
#184 = AXIS2_PLACEMENT_3D ( 'NONE', #90, #142, #269 ) ;
#185 = PRESENTATION_STYLE_ASSIGNMENT (( #262 ) ) ;
#186 =( NAMED_UNIT ( * ) SI_UNIT ( $, .STERADIAN. ) SOLID_ANGLE_UNIT ( ) );
#187 = SURFACE_STYLE_FILL_AREA ( #232 ) ;
#188 = CYLINDRICAL_SURFACE ( 'NONE', #76, 0.1875000000000001110 ) ;
#189 = AXIS2_PLACEMENT_3D ( 'NONE', #178, #154, #21 ) ;
#190 = PRESENTATION_LAYER_ASSIGNMENT (  '', '', ( #281 ) ) ;
#191 = CARTESIAN_POINT ( 'NONE',  ( 0.1874999999999998890, 5.000000000000000000, 2.296212748401288650E-17 ) ) ;
#192 = ADVANCED_FACE ( 'NONE', ( #147 ), #293, .T. ) ;
#193 = FILL_AREA_STYLE_COLOUR ( '', #280 ) ;
#194 = CARTESIAN_POINT ( 'NONE',  ( -2.449293598294705921E-16, 5.000000000000000000, 0.000000000000000000 ) ) ;
#195 = DIMENSIONAL_EXPONENTS ( 1.000000000000000000, 0.000000000000000000, 0.000000000000000000, 0.000000000000000000, 0.000000000000000000, 0.000000000000000000, 0.000000000000000000 ) ;
#196 = EDGE_LOOP ( 'NONE', ( #251, #224 ) ) ;
#197 = PRESENTATION_LAYER_ASSIGNMENT (  '', '', ( #175 ) ) ;
#198 = VERTEX_POINT ( 'NONE', #28 ) ;
#199 = VECTOR ( 'NONE', #288, 39.37007874015748143 ) ;
#200 = AXIS2_PLACEMENT_3D ( 'NONE', #277, #302, #37 ) ;
#201 = EDGE_CURVE ( 'NONE', #83, #107, #271, .T. ) ;
#202 = ORIENTED_EDGE ( 'NONE', *, *, #244, .F. ) ;
#203 = COLOUR_RGB ( '',0.7921568627450980005, 0.8196078431372548767, 0.9333333333333333481 ) ;
#204 = DIRECTION ( 'NONE',  ( -1.000000000000000000, 0.000000000000000000, 0.000000000000000000 ) ) ;
#205 = ORIENTED_EDGE ( 'NONE', *, *, #211, .T. ) ;
#206 = UNCERTAINTY_MEASURE_WITH_UNIT (LENGTH_MEASURE( 1.000000000000000082E-05 ), #207, 'distance_accuracy_value', 'NONE');
#207 =( CONVERSION_BASED_UNIT ( 'INCH', #263 ) LENGTH_UNIT ( ) NAMED_UNIT ( #15 ) );
#208 = CARTESIAN_POINT ( 'NONE',  ( 0.000000000000000000, 2.500000000000000000, 0.000000000000000000 ) ) ;
#209 = STYLED_ITEM ( 'NONE', ( #43 ), #84 ) ;
#210 =( GEOMETRIC_REPRESENTATION_CONTEXT ( 3 ) GLOBAL_UNCERTAINTY_ASSIGNED_CONTEXT ( ( #47 ) ) GLOBAL_UNIT_ASSIGNED_CONTEXT ( ( #146, #219, #138 ) ) REPRESENTATION_CONTEXT ( 'NONE', 'WORKASPACE' ) );
#211 = EDGE_CURVE ( 'NONE', #198, #132, #30, .T. ) ;
#212 = UNCERTAINTY_MEASURE_WITH_UNIT (LENGTH_MEASURE( 1.000000000000000082E-05 ), #171, 'distance_accuracy_value', 'NONE');
#213 = LENGTH_MEASURE_WITH_UNIT ( LENGTH_MEASURE( 0.02539999999999999897 ), #287 );
#214 = LINE ( 'NONE', #191, #121 ) ;
#215 = SURFACE_STYLE_USAGE ( .BOTH. , #52 ) ;
#216 = ADVANCED_BREP_SHAPE_REPRESENTATION ( '84689', ( #143, #250, #200 ), #71 ) ;
#217 = MECHANICAL_DESIGN_GEOMETRIC_PRESENTATION_REPRESENTATION (  '', ( #226 ), #33 ) ;
#218 = AXIS2_PLACEMENT_3D ( 'NONE', #61, #32, #113 ) ;
#219 =( NAMED_UNIT ( * ) PLANE_ANGLE_UNIT ( ) SI_UNIT ( $, .RADIAN. ) );
#220 = FACE_OUTER_BOUND ( 'NONE', #74, .T. ) ;
#221 = CYLINDRICAL_SURFACE ( 'NONE', #99, 0.1875000000000000278 ) ;
#222 = VECTOR ( 'NONE', #291, 39.37007874015748143 ) ;
#223 =( CONVERSION_BASED_UNIT ( 'INCH', #125 ) LENGTH_UNIT ( ) NAMED_UNIT ( #248 ) );
#224 = ORIENTED_EDGE ( 'NONE', *, *, #255, .F. ) ;
#225 = ORIENTED_EDGE ( 'NONE', *, *, #181, .T. ) ;
#226 = STYLED_ITEM ( 'NONE', ( #294 ), #162 ) ;
#227 = CARTESIAN_POINT ( 'NONE',  ( 8.998558695971142910E-34, 2.500000000000000000, 0.000000000000000000 ) ) ;
#228 = PLANE ( 'NONE',  #189 ) ;
#229 =( CONVERSION_BASED_UNIT ( 'INCH', #24 ) LENGTH_UNIT ( ) NAMED_UNIT ( #100 ) );
#230 = EDGE_CURVE ( 'NONE', #124, #98, #214, .T. ) ;
#231 = SURFACE_STYLE_FILL_AREA ( #26 ) ;
#232 = FILL_AREA_STYLE ('',( #45 ) ) ;
#233 = COLOUR_RGB ( '',1.000000000000000000, 0.000000000000000000, 0.000000000000000000 ) ;
#234 = UNCERTAINTY_MEASURE_WITH_UNIT (LENGTH_MEASURE( 1.000000000000000082E-05 ), #170, 'distance_accuracy_value', 'NONE');
#235 = CYLINDRICAL_SURFACE ( 'NONE', #253, 0.1875000000000000278 ) ;
#236 = DIRECTION ( 'NONE',  ( -9.797174393178823685E-17, 1.000000000000000000, -0.000000000000000000 ) ) ;
#237 =( LENGTH_UNIT ( ) NAMED_UNIT ( * ) SI_UNIT ( $, .METRE. ) );
#238 = APPLICATION_CONTEXT ( 'automotive_design' ) ;
#239 = PRESENTATION_LAYER_ASSIGNMENT (  '', '', ( #140 ) ) ;
#240 = CIRCLE ( 'NONE', #218, 0.1875000000000000278 ) ;
#241 = CARTESIAN_POINT ( 'NONE',  ( -2.449293598294705921E-16, 5.000000000000000000, 0.000000000000000000 ) ) ;
#242 =( NAMED_UNIT ( * ) PLANE_ANGLE_UNIT ( ) SI_UNIT ( $, .RADIAN. ) );
#243 =( NAMED_UNIT ( * ) PLANE_ANGLE_UNIT ( ) SI_UNIT ( $, .RADIAN. ) );
#244 = EDGE_CURVE ( 'NONE', #307, #278, #240, .T. ) ;
#245 = FILL_AREA_STYLE_COLOUR ( '', #152 ) ;
#246 = SURFACE_SIDE_STYLE ('',( #68 ) ) ;
#247 =( LENGTH_UNIT ( ) NAMED_UNIT ( * ) SI_UNIT ( $, .METRE. ) );
#248 = DIMENSIONAL_EXPONENTS ( 1.000000000000000000, 0.000000000000000000, 0.000000000000000000, 0.000000000000000000, 0.000000000000000000, 0.000000000000000000, 0.000000000000000000 ) ;
#249 = ORIENTED_EDGE ( 'NONE', *, *, #244, .T. ) ;
#250 = MANIFOLD_SOLID_BREP ( 'Revolve - Tool Body (Straight Shanked)', #22 ) ;
#251 = ORIENTED_EDGE ( 'NONE', *, *, #88, .F. ) ;
#252 = ORIENTED_EDGE ( 'NONE', *, *, #44, .T. ) ;
#253 = AXIS2_PLACEMENT_3D ( 'NONE', #63, #66, #290 ) ;
#254 = PRODUCT_DEFINITION_SHAPE ( 'NONE', 'NONE',  #139 ) ;
#255 = EDGE_CURVE ( 'NONE', #124, #198, #41, .T. ) ;
#256 =( NAMED_UNIT ( * ) PLANE_ANGLE_UNIT ( ) SI_UNIT ( $, .RADIAN. ) );
#257 = FACE_OUTER_BOUND ( 'NONE', #196, .T. ) ;
#258 = CLOSED_SHELL ( 'NONE', ( #84, #173, #162, #23 ) ) ;
#259 = EDGE_LOOP ( 'NONE', ( #20, #151, #205, #55 ) ) ;
#260 = FACE_OUTER_BOUND ( 'NONE', #279, .T. ) ;
#261 = UNCERTAINTY_MEASURE_WITH_UNIT (LENGTH_MEASURE( 1.000000000000000082E-05 ), #229, 'distance_accuracy_value', 'NONE');
#262 = SURFACE_STYLE_USAGE ( .BOTH. , #161 ) ;
#263 = LENGTH_MEASURE_WITH_UNIT ( LENGTH_MEASURE( 0.02539999999999999897 ), #237 );
#264 = DIRECTION ( 'NONE',  ( -0.000000000000000000, -1.000000000000000000, -0.000000000000000000 ) ) ;
#265 = VECTOR ( 'NONE', #82, 39.37007874015748143 ) ;
#266 = CARTESIAN_POINT ( 'NONE',  ( 2.296212748401287726E-17, 0.000000000000000000, 0.1875000000000000278 ) ) ;
#267 = DIRECTION ( 'NONE',  ( 0.000000000000000000, -0.000000000000000000, 1.000000000000000000 ) ) ;
#268 = CARTESIAN_POINT ( 'NONE',  ( 0.000000000000000000, 0.000000000000000000, -0.1875000000000000278 ) ) ;
#269 = DIRECTION ( 'NONE',  ( 0.000000000000000000, 0.000000000000000000, -1.000000000000000000 ) ) ;
#270 = CARTESIAN_POINT ( 'NONE',  ( 0.000000000000000000, 0.000000000000000000, 0.000000000000000000 ) ) ;
#271 = CIRCLE ( 'NONE', #8, 0.1875000000000000278 ) ;
#272 = SURFACE_STYLE_USAGE ( .BOTH. , #246 ) ;
#273 = DIRECTION ( 'NONE',  ( -9.797174393178823685E-17, 1.000000000000000000, -0.000000000000000000 ) ) ;
#274 = PRODUCT_CONTEXT ( 'NONE', #238, 'mechanical' ) ;
#275 = DIRECTION ( 'NONE',  ( 0.000000000000000000, 0.000000000000000000, -1.000000000000000000 ) ) ;
#276 = DIMENSIONAL_EXPONENTS ( 1.000000000000000000, 0.000000000000000000, 0.000000000000000000, 0.000000000000000000, 0.000000000000000000, 0.000000000000000000, 0.000000000000000000 ) ;
#277 = CARTESIAN_POINT ( 'NONE',  ( 0.000000000000000000, 0.000000000000000000, 0.000000000000000000 ) ) ;
#278 = VERTEX_POINT ( 'NONE', #4 ) ;
#279 = EDGE_LOOP ( 'NONE', ( #309, #18, #202, #103 ) ) ;
#280 = COLOUR_RGB ( '',1.000000000000000000, 0.000000000000000000, 0.000000000000000000 ) ;
#281 = STYLED_ITEM ( 'NONE', ( #185 ), #250 ) ;
#282 =( LENGTH_UNIT ( ) NAMED_UNIT ( * ) SI_UNIT ( $, .METRE. ) );
#283 = DIRECTION ( 'NONE',  ( -1.000000000000000000, -9.797174393178823685E-17, 0.000000000000000000 ) ) ;
#284 = SURFACE_STYLE_FILL_AREA ( #42 ) ;
#285 = UNCERTAINTY_MEASURE_WITH_UNIT (LENGTH_MEASURE( 1.000000000000000082E-05 ), #223, 'distance_accuracy_value', 'NONE');
#286 = CARTESIAN_POINT ( 'NONE',  ( 2.296212748401287726E-17, 2.500000000000000000, 0.1875000000000000278 ) ) ;
#287 =( LENGTH_UNIT ( ) NAMED_UNIT ( * ) SI_UNIT ( $, .METRE. ) );
#288 = DIRECTION ( 'NONE',  ( -0.000000000000000000, -1.000000000000000000, -0.000000000000000000 ) ) ;
#289 = CARTESIAN_POINT ( 'NONE',  ( 3.032960542342103792E-32, 2.500000000000000000, 0.000000000000000000 ) ) ;
#290 = DIRECTION ( 'NONE',  ( 0.000000000000000000, 0.000000000000000000, -1.000000000000000000 ) ) ;
#291 = DIRECTION ( 'NONE',  ( -9.797174393178823685E-17, 1.000000000000000000, -0.000000000000000000 ) ) ;
#292 = CIRCLE ( 'NONE', #27, 0.1875000000000000278 ) ;
#293 = CYLINDRICAL_SURFACE ( 'NONE', #12, 0.1875000000000001110 ) ;
#294 = PRESENTATION_STYLE_ASSIGNMENT (( #301 ) ) ;
#295 = ORIENTED_EDGE ( 'NONE', *, *, #88, .T. ) ;
#296 =( GEOMETRIC_REPRESENTATION_CONTEXT ( 3 ) GLOBAL_UNCERTAINTY_ASSIGNED_CONTEXT ( ( #206 ) ) GLOBAL_UNIT_ASSIGNED_CONTEXT ( ( #207, #85, #46 ) ) REPRESENTATION_CONTEXT ( 'NONE', 'WORKASPACE' ) );
#297 = DIRECTION ( 'NONE',  ( -1.000000000000000000, 0.000000000000000000, 0.000000000000000000 ) ) ;
#298 = EDGE_LOOP ( 'NONE', ( #295, #13, #69, #180 ) ) ;
#299 = EDGE_CURVE ( 'NONE', #107, #83, #292, .T. ) ;
#300 = APPLICATION_PROTOCOL_DEFINITION ( 'draft international standard', 'automotive_design', 1998, #10 ) ;
#301 = SURFACE_STYLE_USAGE ( .BOTH. , #97 ) ;
#302 = DIRECTION ( 'NONE',  ( 0.000000000000000000, 0.000000000000000000, 1.000000000000000000 ) ) ;
#303 = STYLED_ITEM ( 'NONE', ( #118 ), #143 ) ;
#304 = MECHANICAL_DESIGN_GEOMETRIC_PRESENTATION_REPRESENTATION (  '', ( #281 ), #210 ) ;
#305 = APPLICATION_PROTOCOL_DEFINITION ( 'draft international standard', 'automotive_design', 1998, #238 ) ;
#306 = ORIENTED_EDGE ( 'NONE', *, *, #201, .T. ) ;
#307 = VERTEX_POINT ( 'NONE', #268 ) ;
#308 = COLOUR_RGB ( '',1.000000000000000000, 0.000000000000000000, 0.000000000000000000 ) ;
#309 = ORIENTED_EDGE ( 'NONE', *, *, #299, .T. ) ;
ENDSEC;
END-ISO-10303-21;
