ISO-10303-21;
HEADER;
FILE_DESCRIPTION (( 'STEP AP214' ),
    '1' );
FILE_NAME ('Micro_KC-125-190-040X.STEP',
    '2021-09-03T19:07:57',
    ( '' ),
    ( '' ),
    'SwSTEP 2.0',
    'SolidWorks 2020',
    '' );
FILE_SCHEMA (( 'AUTOMOTIVE_DESIGN' ));
ENDSEC;

DATA;
#1 = DIRECTION ( 'NONE',  ( 0.0000000000000000000, 0.0000000000000000000, -1.000000000000000000 ) ) ;
#2 = ORIENTED_EDGE ( 'NONE', *, *, #6, .T. ) ;
#3 = PRODUCT_DEFINITION_CONTEXT ( 'detailed design', #311, 'design' ) ;
#4 = CYLINDRICAL_SURFACE ( 'NONE', #61, 0.03100000000000000672 ) ;
#5 = ORIENTED_EDGE ( 'NONE', *, *, #220, .T. ) ;
#6 = EDGE_CURVE ( 'NONE', #240, #245, #209, .T. ) ;
#7 = LINE ( 'NONE', #295, #223 ) ;
#8 = DIRECTION ( 'NONE',  ( 0.0000000000000000000, 0.0000000000000000000, 1.000000000000000000 ) ) ;
#9 = ADVANCED_FACE ( 'NONE', ( #42 ), #181, .F. ) ;
#10 = DIRECTION ( 'NONE',  ( -0.0000000000000000000, -0.0000000000000000000, -1.000000000000000000 ) ) ;
#11 = CARTESIAN_POINT ( 'NONE',  ( 0.0000000000000000000, 0.0000000000000000000, 0.0000000000000000000 ) ) ;
#12 = DIRECTION ( 'NONE',  ( -0.0000000000000000000, -0.0000000000000000000, -1.000000000000000000 ) ) ;
#13 = EDGE_CURVE ( 'NONE', #328, #240, #300, .T. ) ;
#14 = CARTESIAN_POINT ( 'NONE',  ( 0.06250000000000000000, 7.654042494670956004E-18, 1.500000000000000222 ) ) ;
#15 = VECTOR ( 'NONE', #10, 39.37007874015748143 ) ;
#16 =( LENGTH_UNIT ( ) NAMED_UNIT ( * ) SI_UNIT ( $, .METRE. ) );
#17 = EDGE_LOOP ( 'NONE', ( #321, #235, #353, #33 ) ) ;
#18 = PRESENTATION_LAYER_ASSIGNMENT (  '', '', ( #163 ) ) ;
#19 = CARTESIAN_POINT ( 'NONE',  ( 0.03100000000000000672, 3.796405077356795780E-18, 0.0000000000000000000 ) ) ;
#20 = EDGE_CURVE ( 'NONE', #134, #86, #293, .T. ) ;
#21 = AXIS2_PLACEMENT_3D ( 'NONE', #29, #316, #173 ) ;
#22 = CONICAL_SURFACE ( 'NONE', #21, 0.04750000000000064587, 0.7853981633974457255 ) ;
#23 = DIRECTION ( 'NONE',  ( 1.000000000000000000, 0.0000000000000000000, 0.0000000000000000000 ) ) ;
#24 = CARTESIAN_POINT ( 'NONE',  ( 0.0000000000000000000, 0.0000000000000000000, 0.0000000000000000000 ) ) ;
#25 = PRODUCT_RELATED_PRODUCT_CATEGORY ( 'part', '', ( #171 ) ) ;
#26 = SURFACE_STYLE_USAGE ( .BOTH. , #198 ) ;
#27 = AXIS2_PLACEMENT_3D ( 'NONE', #229, #369, #31 ) ;
#28 = ORIENTED_EDGE ( 'NONE', *, *, #200, .F. ) ;
#29 = CARTESIAN_POINT ( 'NONE',  ( 0.0000000000000000000, 0.0000000000000000000, 1.500000000000000222 ) ) ;
#30 = ORIENTED_EDGE ( 'NONE', *, *, #222, .F. ) ;
#31 = DIRECTION ( 'NONE',  ( -1.000000000000000000, 0.0000000000000000000, 0.0000000000000000000 ) ) ;
#32 =( CONVERSION_BASED_UNIT ( 'INCH', #143 ) LENGTH_UNIT ( ) NAMED_UNIT ( #259 ) );
#33 = ORIENTED_EDGE ( 'NONE', *, *, #132, .F. ) ;
#34 = VECTOR ( 'NONE', #131, 39.37007874015748143 ) ;
#35 = DIRECTION ( 'NONE',  ( 0.0000000000000000000, 0.0000000000000000000, 1.000000000000000000 ) ) ;
#36 = FACE_BOUND ( 'NONE', #308, .T. ) ;
#37 = EDGE_LOOP ( 'NONE', ( #271, #127, #2, #347 ) ) ;
#38 = DIRECTION ( 'NONE',  ( -1.000000000000000000, 0.0000000000000000000, 0.0000000000000000000 ) ) ;
#39 = ORIENTED_EDGE ( 'NONE', *, *, #62, .T. ) ;
#40 = EDGE_CURVE ( 'NONE', #326, #277, #113, .T. ) ;
#41 = DIRECTION ( 'NONE',  ( -0.0000000000000000000, -0.0000000000000000000, -1.000000000000000000 ) ) ;
#42 = FACE_OUTER_BOUND ( 'NONE', #208, .T. ) ;
#43 = LINE ( 'NONE', #60, #15 ) ;
#44 = ORIENTED_EDGE ( 'NONE', *, *, #340, .F. ) ;
#45 = EDGE_CURVE ( 'NONE', #205, #303, #47, .T. ) ;
#46 = CARTESIAN_POINT ( 'NONE',  ( -0.06250000000000000000, 0.0000000000000000000, 0.04000000000000000083 ) ) ;
#47 = LINE ( 'NONE', #161, #322 ) ;
#48 = FACE_OUTER_BOUND ( 'NONE', #291, .T. ) ;
#49 = ORIENTED_EDGE ( 'NONE', *, *, #157, .T. ) ;
#50 = CONICAL_SURFACE ( 'NONE', #313, 0.03100000000000001713, 0.7853981633974502774 ) ;
#51 = SURFACE_STYLE_FILL_AREA ( #362 ) ;
#52 = DIRECTION ( 'NONE',  ( 0.0000000000000000000, 0.0000000000000000000, 1.000000000000000000 ) ) ;
#53 = LENGTH_MEASURE_WITH_UNIT ( LENGTH_MEASURE( 0.02539999999999999897 ), #16 );
#54 = CARTESIAN_POINT ( 'NONE',  ( 0.06250000000000000000, 7.654042494670956004E-18, 0.2214999999999998359 ) ) ;
#55 = AXIS2_PLACEMENT_3D ( 'NONE', #187, #52, #23 ) ;
#56 = CARTESIAN_POINT ( 'NONE',  ( 0.03100000000000000325, 3.796405077356795010E-18, 0.04000000000000000083 ) ) ;
#57 = FACE_OUTER_BOUND ( 'NONE', #37, .T. ) ;
#58 = AXIS2_PLACEMENT_3D ( 'NONE', #24, #231, #348 ) ;
#59 = SHAPE_DEFINITION_REPRESENTATION ( #128, #315 ) ;
#60 = CARTESIAN_POINT ( 'NONE',  ( 0.06250000000000000000, 7.654042494670956004E-18, 1.500000000000000222 ) ) ;
#61 = AXIS2_PLACEMENT_3D ( 'NONE', #180, #325, #38 ) ;
#62 = EDGE_CURVE ( 'NONE', #211, #124, #280, .T. ) ;
#63 = CARTESIAN_POINT ( 'NONE',  ( -0.06250000000000000000, 0.0000000000000000000, 0.2214999999999998359 ) ) ;
#64 = ORIENTED_EDGE ( 'NONE', *, *, #298, .F. ) ;
#65 = DIRECTION ( 'NONE',  ( 0.0000000000000000000, 0.0000000000000000000, -1.000000000000000000 ) ) ;
#66 = ORIENTED_EDGE ( 'NONE', *, *, #222, .T. ) ;
#67 = DIRECTION ( 'NONE',  ( 1.000000000000000000, 0.0000000000000000000, 0.0000000000000000000 ) ) ;
#68 = MANIFOLD_SOLID_BREP ( 'Cut-Revolve1', #292 ) ;
#69 = ORIENTED_EDGE ( 'NONE', *, *, #13, .T. ) ;
#70 = DIRECTION ( 'NONE',  ( -0.0000000000000000000, -0.0000000000000000000, -1.000000000000000000 ) ) ;
#71 = CARTESIAN_POINT ( 'NONE',  ( 0.0000000000000000000, 0.0000000000000000000, 0.04000000000000000083 ) ) ;
#72 = CARTESIAN_POINT ( 'NONE',  ( 0.0000000000000000000, 0.0000000000000000000, 0.04000000000000000083 ) ) ;
#73 = ORIENTED_EDGE ( 'NONE', *, *, #298, .T. ) ;
#74 =( GEOMETRIC_REPRESENTATION_CONTEXT ( 3 ) GLOBAL_UNCERTAINTY_ASSIGNED_CONTEXT ( ( #306 ) ) GLOBAL_UNIT_ASSIGNED_CONTEXT ( ( #137, #247, #368 ) ) REPRESENTATION_CONTEXT ( 'NONE', 'WORKASPACE' ) );
#75 = FACE_OUTER_BOUND ( 'NONE', #217, .T. ) ;
#76 = ADVANCED_FACE ( 'NONE', ( #288 ), #22, .T. ) ;
#77 = SURFACE_SIDE_STYLE ('',( #51 ) ) ;
#78 = ADVANCED_FACE ( 'NONE', ( #145 ), #314, .T. ) ;
#79 = AXIS2_PLACEMENT_3D ( 'NONE', #373, #139, #254 ) ;
#80 = CARTESIAN_POINT ( 'NONE',  ( 0.06250000000000000000, 7.654042494670956004E-18, 0.0000000000000000000 ) ) ;
#81 = ORIENTED_EDGE ( 'NONE', *, *, #284, .F. ) ;
#82 = CIRCLE ( 'NONE', #55, 0.06250000000000000000 ) ;
#83 = ORIENTED_EDGE ( 'NONE', *, *, #40, .T. ) ;
#84 = COLOUR_RGB ( '',0.7921568627450980005, 0.8196078431372548767, 0.9333333333333333481 ) ;
#85 = PRESENTATION_STYLE_ASSIGNMENT (( #26 ) ) ;
#86 = VERTEX_POINT ( 'NONE', #56 ) ;
#87 = ADVANCED_FACE ( 'NONE', ( #57 ), #258, .T. ) ;
#88 =( NAMED_UNIT ( * ) PLANE_ANGLE_UNIT ( ) SI_UNIT ( $, .RADIAN. ) );
#89 = ORIENTED_EDGE ( 'NONE', *, *, #103, .T. ) ;
#90 =( NAMED_UNIT ( * ) SI_UNIT ( $, .STERADIAN. ) SOLID_ANGLE_UNIT ( ) );
#91 = CARTESIAN_POINT ( 'NONE',  ( -0.06250000000000000000, 0.0000000000000000000, 1.500000000000000222 ) ) ;
#92 = EDGE_LOOP ( 'NONE', ( #238, #248, #69, #95 ) ) ;
#93 = AXIS2_PLACEMENT_3D ( 'NONE', #114, #225, #201 ) ;
#94 = DIRECTION ( 'NONE',  ( -0.0000000000000000000, -0.0000000000000000000, -1.000000000000000000 ) ) ;
#95 = ORIENTED_EDGE ( 'NONE', *, *, #170, .F. ) ;
#96 = DIRECTION ( 'NONE',  ( 1.000000000000000000, 0.0000000000000000000, 0.0000000000000000000 ) ) ;
#97 = FACE_OUTER_BOUND ( 'NONE', #379, .T. ) ;
#98 = DIRECTION ( 'NONE',  ( 1.000000000000000000, 0.0000000000000000000, -0.0000000000000000000 ) ) ;
#99 = DIRECTION ( 'NONE',  ( -0.0000000000000000000, -0.0000000000000000000, -1.000000000000000000 ) ) ;
#100 = DIRECTION ( 'NONE',  ( -0.7071067811865456854, 0.0000000000000000000, -0.7071067811865493491 ) ) ;
#101 = DIRECTION ( 'NONE',  ( 1.000000000000000000, 0.0000000000000000000, 0.0000000000000000000 ) ) ;
#102 = CARTESIAN_POINT ( 'NONE',  ( -0.06250000000000000000, 0.0000000000000000000, 1.500000000000000222 ) ) ;
#103 = EDGE_CURVE ( 'NONE', #328, #205, #125, .T. ) ;
#104 = FACE_OUTER_BOUND ( 'NONE', #355, .T. ) ;
#105 = FILL_AREA_STYLE_COLOUR ( '', #84 ) ;
#106 = ADVANCED_FACE ( 'NONE', ( #346 ), #367, .T. ) ;
#107 = CARTESIAN_POINT ( 'NONE',  ( -0.06250000000000000000, 0.0000000000000000000, 0.0000000000000000000 ) ) ;
#108 = PRESENTATION_LAYER_ASSIGNMENT (  '', '', ( #172 ) ) ;
#109 = PRODUCT_DEFINITION_FORMATION_WITH_SPECIFIED_SOURCE ( 'ANY', '', #171, .NOT_KNOWN. ) ;
#110 = DIRECTION ( 'NONE',  ( 0.0000000000000000000, 0.0000000000000000000, 1.000000000000000000 ) ) ;
#111 = CARTESIAN_POINT ( 'NONE',  ( -0.04750000000000064587, 0.0000000000000000000, 1.500000000000000222 ) ) ;
#112 = PRESENTATION_STYLE_ASSIGNMENT (( #252 ) ) ;
#113 = CIRCLE ( 'NONE', #255, 0.03100000000000001713 ) ;
#114 = CARTESIAN_POINT ( 'NONE',  ( 0.0000000000000000000, 0.0000000000000000000, 0.0000000000000000000 ) ) ;
#115 = VECTOR ( 'NONE', #100, 39.37007874015748143 ) ;
#116 = ORIENTED_EDGE ( 'NONE', *, *, #13, .F. ) ;
#117 = DIRECTION ( 'NONE',  ( 0.0000000000000000000, 0.0000000000000000000, 1.000000000000000000 ) ) ;
#118 = AXIS2_PLACEMENT_3D ( 'NONE', #304, #1, #242 ) ;
#119 = ORIENTED_EDGE ( 'NONE', *, *, #220, .F. ) ;
#120 = ORIENTED_EDGE ( 'NONE', *, *, #265, .T. ) ;
#121 = EDGE_CURVE ( 'NONE', #124, #335, #370, .T. ) ;
#122 = FACE_OUTER_BOUND ( 'NONE', #153, .T. ) ;
#123 = DIRECTION ( 'NONE',  ( -1.000000000000000000, 0.0000000000000000000, 0.0000000000000000000 ) ) ;
#124 = VERTEX_POINT ( 'NONE', #80 ) ;
#125 = CIRCLE ( 'NONE', #136, 0.04750000000000064587 ) ;
#126 = CYLINDRICAL_SURFACE ( 'NONE', #164, 0.06250000000000000000 ) ;
#127 = ORIENTED_EDGE ( 'NONE', *, *, #170, .T. ) ;
#128 = PRODUCT_DEFINITION_SHAPE ( 'NONE', 'NONE',  #361 ) ;
#129 = ORIENTED_EDGE ( 'NONE', *, *, #232, .F. ) ;
#130 = CARTESIAN_POINT ( 'NONE',  ( -0.06250000000000000000, 0.0000000000000000000, 1.485000000000000764 ) ) ;
#131 = DIRECTION ( 'NONE',  ( -0.0000000000000000000, -0.0000000000000000000, -1.000000000000000000 ) ) ;
#132 = EDGE_CURVE ( 'NONE', #277, #134, #320, .T. ) ;
#133 = CIRCLE ( 'NONE', #195, 0.06250000000000000000 ) ;
#134 = VERTEX_POINT ( 'NONE', #147 ) ;
#135 = CYLINDRICAL_SURFACE ( 'NONE', #286, 0.06250000000000000000 ) ;
#136 = AXIS2_PLACEMENT_3D ( 'NONE', #203, #117, #227 ) ;
#137 =( CONVERSION_BASED_UNIT ( 'INCH', #53 ) LENGTH_UNIT ( ) NAMED_UNIT ( #350 ) );
#138 = UNCERTAINTY_MEASURE_WITH_UNIT (LENGTH_MEASURE( 1.000000000000000082E-05 ), #374, 'distance_accuracy_value', 'NONE');
#139 = DIRECTION ( 'NONE',  ( -0.0000000000000000000, -0.0000000000000000000, -1.000000000000000000 ) ) ;
#140 = VECTOR ( 'NONE', #216, 39.37007874015748143 ) ;
#141 = VECTOR ( 'NONE', #175, 39.37007874015748143 ) ;
#142 = AXIS2_PLACEMENT_3D ( 'NONE', #169, #285, #364 ) ;
#143 = LENGTH_MEASURE_WITH_UNIT ( LENGTH_MEASURE( 0.02539999999999999897 ), #378 );
#144 = ADVANCED_FACE ( 'NONE', ( #262 ), #4, .T. ) ;
#145 = FACE_OUTER_BOUND ( 'NONE', #17, .T. ) ;
#146 = ORIENTED_EDGE ( 'NONE', *, *, #166, .T. ) ;
#147 = CARTESIAN_POINT ( 'NONE',  ( -0.03100000000000000325, 0.0000000000000000000, 0.04000000000000000083 ) ) ;
#148 = VECTOR ( 'NONE', #41, 39.37007874015748143 ) ;
#149 = ORIENTED_EDGE ( 'NONE', *, *, #261, .T. ) ;
#150 = CARTESIAN_POINT ( 'NONE',  ( 0.04750000000000064587, 6.735557395310482421E-18, 1.500000000000000222 ) ) ;
#151 = ORIENTED_EDGE ( 'NONE', *, *, #226, .T. ) ;
#152 = CARTESIAN_POINT ( 'NONE',  ( 0.0000000000000000000, 0.0000000000000000000, 0.1899999999999999745 ) ) ;
#153 = EDGE_LOOP ( 'NONE', ( #66, #49, #289, #230 ) ) ;
#154 = CARTESIAN_POINT ( 'NONE',  ( 0.03100000000000001713, 0.0000000000000000000, 0.1899999999999999745 ) ) ;
#155 = EDGE_LOOP ( 'NONE', ( #344, #376, #30, #116 ) ) ;
#156 = MECHANICAL_DESIGN_GEOMETRIC_PRESENTATION_REPRESENTATION (  '', ( #172 ), #294 ) ;
#157 = EDGE_CURVE ( 'NONE', #303, #290, #43, .T. ) ;
#158 = CARTESIAN_POINT ( 'NONE',  ( 0.0000000000000000000, 0.0000000000000000000, 0.04000000000000000083 ) ) ;
#159 = ORIENTED_EDGE ( 'NONE', *, *, #196, .F. ) ;
#160 = CARTESIAN_POINT ( 'NONE',  ( 0.0000000000000000000, 0.0000000000000000000, 0.2214999999999998359 ) ) ;
#161 = CARTESIAN_POINT ( 'NONE',  ( 0.04750000000000064587, 5.817072295950006528E-18, 1.500000000000000222 ) ) ;
#162 = FACE_OUTER_BOUND ( 'NONE', #305, .T. ) ;
#163 = STYLED_ITEM ( 'NONE', ( #85 ), #68 ) ;
#164 = AXIS2_PLACEMENT_3D ( 'NONE', #323, #179, #123 ) ;
#165 = CARTESIAN_POINT ( 'NONE',  ( 0.03100000000000001713, 0.0000000000000000000, 0.1899999999999999745 ) ) ;
#166 = EDGE_CURVE ( 'NONE', #86, #134, #377, .T. ) ;
#167 = AXIS2_PLACEMENT_3D ( 'NONE', #71, #214, #188 ) ;
#168 = AXIS2_PLACEMENT_3D ( 'NONE', #269, #99, #244 ) ;
#169 = CARTESIAN_POINT ( 'NONE',  ( 0.0000000000000000000, 0.0000000000000000000, 1.500000000000000222 ) ) ;
#170 = EDGE_CURVE ( 'NONE', #303, #240, #133, .T. ) ;
#171 = PRODUCT ( 'Micro_KC-125-190-040X', 'Micro_KC-125-190-040X', '', ( #182 ) ) ;
#172 = STYLED_ITEM ( 'NONE', ( #112 ), #315 ) ;
#173 = DIRECTION ( 'NONE',  ( -1.000000000000000000, 0.0000000000000000000, 0.0000000000000000000 ) ) ;
#174 = ORIENTED_EDGE ( 'NONE', *, *, #132, .T. ) ;
#175 = DIRECTION ( 'NONE',  ( -0.0000000000000000000, -0.0000000000000000000, -1.000000000000000000 ) ) ;
#176 = VERTEX_POINT ( 'NONE', #46 ) ;
#177 = CARTESIAN_POINT ( 'NONE',  ( 0.06250000000000000000, 7.654042494670956004E-18, 0.04000000000000000083 ) ) ;
#178 = AXIS2_PLACEMENT_3D ( 'NONE', #152, #299, #354 ) ;
#179 = DIRECTION ( 'NONE',  ( -0.0000000000000000000, -0.0000000000000000000, -1.000000000000000000 ) ) ;
#180 = CARTESIAN_POINT ( 'NONE',  ( 0.0000000000000000000, 0.0000000000000000000, 0.0000000000000000000 ) ) ;
#181 = PLANE ( 'NONE',  #341 ) ;
#182 = PRODUCT_CONTEXT ( 'NONE', #241, 'mechanical' ) ;
#183 = DIRECTION ( 'NONE',  ( -0.0000000000000000000, -0.0000000000000000000, -1.000000000000000000 ) ) ;
#184 = VECTOR ( 'NONE', #193, 39.37007874015748143 ) ;
#185 = DIRECTION ( 'NONE',  ( -1.000000000000000000, 0.0000000000000000000, 0.0000000000000000000 ) ) ;
#186 = DIRECTION ( 'NONE',  ( -1.000000000000000000, 0.0000000000000000000, 0.0000000000000000000 ) ) ;
#187 = CARTESIAN_POINT ( 'NONE',  ( 0.0000000000000000000, 0.0000000000000000000, 0.0000000000000000000 ) ) ;
#188 = DIRECTION ( 'NONE',  ( -1.000000000000000000, 0.0000000000000000000, 0.0000000000000000000 ) ) ;
#189 = CARTESIAN_POINT ( 'NONE',  ( 0.0000000000000000000, 0.0000000000000000000, 0.1899999999999999745 ) ) ;
#190 = AXIS2_PLACEMENT_3D ( 'NONE', #158, #94, #185 ) ;
#191 = CYLINDRICAL_SURFACE ( 'NONE', #207, 0.06250000000000000000 ) ;
#192 = DIRECTION ( 'NONE',  ( -0.0000000000000000000, -0.0000000000000000000, -1.000000000000000000 ) ) ;
#193 = DIRECTION ( 'NONE',  ( -0.0000000000000000000, -0.0000000000000000000, -1.000000000000000000 ) ) ;
#194 = LENGTH_MEASURE_WITH_UNIT ( LENGTH_MEASURE( 0.02539999999999999897 ), #199 );
#195 = AXIS2_PLACEMENT_3D ( 'NONE', #356, #65, #67 ) ;
#196 = EDGE_CURVE ( 'NONE', #277, #326, #318, .T. ) ;
#197 = ADVANCED_FACE ( 'NONE', ( #97 ), #50, .T. ) ;
#198 = SURFACE_SIDE_STYLE ('',( #257 ) ) ;
#199 =( LENGTH_UNIT ( ) NAMED_UNIT ( * ) SI_UNIT ( $, .METRE. ) );
#200 = EDGE_CURVE ( 'NONE', #326, #290, #210, .T. ) ;
#201 = DIRECTION ( 'NONE',  ( 1.000000000000000000, 0.0000000000000000000, 0.0000000000000000000 ) ) ;
#202 = ADVANCED_FACE ( 'NONE', ( #36, #279 ), #276, .T. ) ;
#203 = CARTESIAN_POINT ( 'NONE',  ( 0.0000000000000000000, 0.0000000000000000000, 1.500000000000000222 ) ) ;
#204 = DIRECTION ( 'NONE',  ( 1.000000000000000000, 0.0000000000000000000, 0.0000000000000000000 ) ) ;
#205 = VERTEX_POINT ( 'NONE', #150 ) ;
#206 = LINE ( 'NONE', #91, #148 ) ;
#207 = AXIS2_PLACEMENT_3D ( 'NONE', #366, #192, #281 ) ;
#208 = EDGE_LOOP ( 'NONE', ( #44, #282 ) ) ;
#209 = LINE ( 'NONE', #102, #140 ) ;
#210 = LINE ( 'NONE', #154, #256 ) ;
#211 = VERTEX_POINT ( 'NONE', #177 ) ;
#212 = CARTESIAN_POINT ( 'NONE',  ( 0.0000000000000000000, 0.0000000000000000000, 0.0000000000000000000 ) ) ;
#213 = DIRECTION ( 'NONE',  ( 0.0000000000000000000, 0.0000000000000000000, 1.000000000000000000 ) ) ;
#214 = DIRECTION ( 'NONE',  ( -0.0000000000000000000, -0.0000000000000000000, -1.000000000000000000 ) ) ;
#215 = CIRCLE ( 'NONE', #118, 0.06250000000000000000 ) ;
#216 = DIRECTION ( 'NONE',  ( -0.0000000000000000000, -0.0000000000000000000, -1.000000000000000000 ) ) ;
#217 = EDGE_LOOP ( 'NONE', ( #89, #266 ) ) ;
#218 = COLOUR_RGB ( '',0.7921568627450980005, 0.8196078431372548767, 0.9333333333333333481 ) ;
#219 = APPLICATION_PROTOCOL_DEFINITION ( 'draft international standard', 'automotive_design', 1998, #241 ) ;
#220 = EDGE_CURVE ( 'NONE', #176, #335, #206, .T. ) ;
#221 = DIRECTION ( 'NONE',  ( -0.0000000000000000000, -0.0000000000000000000, -1.000000000000000000 ) ) ;
#222 = EDGE_CURVE ( 'NONE', #240, #303, #215, .T. ) ;
#223 = VECTOR ( 'NONE', #267, 39.37007874015748143 ) ;
#224 = MECHANICAL_DESIGN_GEOMETRIC_PRESENTATION_REPRESENTATION (  '', ( #163 ), #251 ) ;
#225 = DIRECTION ( 'NONE',  ( 0.0000000000000000000, 0.0000000000000000000, 1.000000000000000000 ) ) ;
#226 = EDGE_CURVE ( 'NONE', #290, #245, #250, .T. ) ;
#227 = DIRECTION ( 'NONE',  ( 1.000000000000000000, 0.0000000000000000000, 0.0000000000000000000 ) ) ;
#228 = CIRCLE ( 'NONE', #283, 0.06250000000000000000 ) ;
#229 = CARTESIAN_POINT ( 'NONE',  ( 0.0000000000000000000, 0.0000000000000000000, 1.500000000000000222 ) ) ;
#230 = ORIENTED_EDGE ( 'NONE', *, *, #6, .F. ) ;
#231 = DIRECTION ( 'NONE',  ( -0.0000000000000000000, -0.0000000000000000000, -1.000000000000000000 ) ) ;
#232 = EDGE_CURVE ( 'NONE', #211, #176, #345, .T. ) ;
#233 =( NAMED_UNIT ( * ) PLANE_ANGLE_UNIT ( ) SI_UNIT ( $, .RADIAN. ) );
#234 = DIRECTION ( 'NONE',  ( 1.000000000000000000, 0.0000000000000000000, -0.0000000000000000000 ) ) ;
#235 = ORIENTED_EDGE ( 'NONE', *, *, #284, .T. ) ;
#236 = AXIS2_PLACEMENT_3D ( 'NONE', #189, #287, #101 ) ;
#237 = CARTESIAN_POINT ( 'NONE',  ( -0.03100000000000001713, 5.725223786013877433E-18, 0.1899999999999999745 ) ) ;
#238 = ORIENTED_EDGE ( 'NONE', *, *, #45, .F. ) ;
#239 = LINE ( 'NONE', #19, #184 ) ;
#240 = VERTEX_POINT ( 'NONE', #130 ) ;
#241 = APPLICATION_CONTEXT ( 'automotive_design' ) ;
#242 = DIRECTION ( 'NONE',  ( 1.000000000000000000, 0.0000000000000000000, 0.0000000000000000000 ) ) ;
#243 = ORIENTED_EDGE ( 'NONE', *, *, #340, .T. ) ;
#244 = DIRECTION ( 'NONE',  ( 1.000000000000000000, 0.0000000000000000000, 0.0000000000000000000 ) ) ;
#245 = VERTEX_POINT ( 'NONE', #63 ) ;
#246 = AXIS2_PLACEMENT_3D ( 'NONE', #273, #183, #302 ) ;
#247 =( NAMED_UNIT ( * ) PLANE_ANGLE_UNIT ( ) SI_UNIT ( $, .RADIAN. ) );
#248 = ORIENTED_EDGE ( 'NONE', *, *, #103, .F. ) ;
#249 = FILL_AREA_STYLE_COLOUR ( '', #218 ) ;
#250 = CIRCLE ( 'NONE', #272, 0.06250000000000000000 ) ;
#251 =( GEOMETRIC_REPRESENTATION_CONTEXT ( 3 ) GLOBAL_UNCERTAINTY_ASSIGNED_CONTEXT ( ( #329 ) ) GLOBAL_UNIT_ASSIGNED_CONTEXT ( ( #32, #88, #264 ) ) REPRESENTATION_CONTEXT ( 'NONE', 'WORKASPACE' ) );
#252 = SURFACE_STYLE_USAGE ( .BOTH. , #77 ) ;
#253 = DIRECTION ( 'NONE',  ( -1.000000000000000000, 0.0000000000000000000, 0.0000000000000000000 ) ) ;
#254 = DIRECTION ( 'NONE',  ( -1.000000000000000000, 0.0000000000000000000, 0.0000000000000000000 ) ) ;
#255 = AXIS2_PLACEMENT_3D ( 'NONE', #331, #70, #186 ) ;
#256 = VECTOR ( 'NONE', #327, 39.37007874015748143 ) ;
#257 = SURFACE_STYLE_FILL_AREA ( #342 ) ;
#258 = CYLINDRICAL_SURFACE ( 'NONE', #79, 0.06250000000000000000 ) ;
#259 = DIMENSIONAL_EXPONENTS ( 1.000000000000000000, 0.0000000000000000000, 0.0000000000000000000, 0.0000000000000000000, 0.0000000000000000000, 0.0000000000000000000, 0.0000000000000000000 ) ;
#260 = ORIENTED_EDGE ( 'NONE', *, *, #232, .T. ) ;
#261 = EDGE_CURVE ( 'NONE', #245, #290, #358, .T. ) ;
#262 = FACE_OUTER_BOUND ( 'NONE', #268, .T. ) ;
#263 = CONICAL_SURFACE ( 'NONE', #236, 0.03100000000000001713, 0.7853981633974502774 ) ;
#264 =( NAMED_UNIT ( * ) SI_UNIT ( $, .STERADIAN. ) SOLID_ANGLE_UNIT ( ) );
#265 = EDGE_CURVE ( 'NONE', #277, #245, #7, .T. ) ;
#266 = ORIENTED_EDGE ( 'NONE', *, *, #365, .T. ) ;
#267 = DIRECTION ( 'NONE',  ( -0.7071067811865489050, 8.659560562354950115E-17, 0.7071067811865461294 ) ) ;
#268 = EDGE_LOOP ( 'NONE', ( #81, #83, #174, #351 ) ) ;
#269 = CARTESIAN_POINT ( 'NONE',  ( 0.0000000000000000000, 0.0000000000000000000, 0.2214999999999998359 ) ) ;
#270 = DIMENSIONAL_EXPONENTS ( 1.000000000000000000, 0.0000000000000000000, 0.0000000000000000000, 0.0000000000000000000, 0.0000000000000000000, 0.0000000000000000000, 0.0000000000000000000 ) ;
#271 = ORIENTED_EDGE ( 'NONE', *, *, #157, .F. ) ;
#272 = AXIS2_PLACEMENT_3D ( 'NONE', #160, #12, #204 ) ;
#273 = CARTESIAN_POINT ( 'NONE',  ( 0.0000000000000000000, 0.0000000000000000000, 0.04000000000000000083 ) ) ;
#274 = ORIENTED_EDGE ( 'NONE', *, *, #40, .F. ) ;
#275 = ADVANCED_FACE ( 'NONE', ( #122 ), #126, .T. ) ;
#276 = PLANE ( 'NONE',  #337 ) ;
#277 = VERTEX_POINT ( 'NONE', #237 ) ;
#278 = APPLICATION_PROTOCOL_DEFINITION ( 'draft international standard', 'automotive_design', 1998, #311 ) ;
#279 = FACE_OUTER_BOUND ( 'NONE', #297, .T. ) ;
#280 = LINE ( 'NONE', #14, #34 ) ;
#281 = DIRECTION ( 'NONE',  ( -1.000000000000000000, 0.0000000000000000000, 0.0000000000000000000 ) ) ;
#282 = ORIENTED_EDGE ( 'NONE', *, *, #121, .F. ) ;
#283 = AXIS2_PLACEMENT_3D ( 'NONE', #72, #307, #312 ) ;
#284 = EDGE_CURVE ( 'NONE', #326, #86, #239, .T. ) ;
#285 = DIRECTION ( 'NONE',  ( 0.0000000000000000000, 0.0000000000000000000, 1.000000000000000000 ) ) ;
#286 = AXIS2_PLACEMENT_3D ( 'NONE', #310, #221, #253 ) ;
#287 = DIRECTION ( 'NONE',  ( 0.0000000000000000000, 0.0000000000000000000, 1.000000000000000000 ) ) ;
#288 = FACE_OUTER_BOUND ( 'NONE', #155, .T. ) ;
#289 = ORIENTED_EDGE ( 'NONE', *, *, #261, .F. ) ;
#290 = VERTEX_POINT ( 'NONE', #54 ) ;
#291 = EDGE_LOOP ( 'NONE', ( #73, #39, #360, #119 ) ) ;
#292 = CLOSED_SHELL ( 'NONE', ( #338, #78, #371, #76, #275, #87, #349, #106, #197, #144, #202, #9, #343 ) ) ;
#293 = CIRCLE ( 'NONE', #167, 0.03100000000000000325 ) ;
#294 =( GEOMETRIC_REPRESENTATION_CONTEXT ( 3 ) GLOBAL_UNCERTAINTY_ASSIGNED_CONTEXT ( ( #138 ) ) GLOBAL_UNIT_ASSIGNED_CONTEXT ( ( #374, #233, #90 ) ) REPRESENTATION_CONTEXT ( 'NONE', 'WORKASPACE' ) );
#295 = CARTESIAN_POINT ( 'NONE',  ( -0.03100000000000001713, 3.796405077356796551E-18, 0.1899999999999999745 ) ) ;
#296 = CARTESIAN_POINT ( 'NONE',  ( 0.0000000000000000000, 0.0000000000000000000, 0.1899999999999999745 ) ) ;
#297 = EDGE_LOOP ( 'NONE', ( #64, #129 ) ) ;
#298 = EDGE_CURVE ( 'NONE', #176, #211, #228, .T. ) ;
#299 = DIRECTION ( 'NONE',  ( -0.0000000000000000000, -0.0000000000000000000, -1.000000000000000000 ) ) ;
#300 = LINE ( 'NONE', #357, #115 ) ;
#301 = CIRCLE ( 'NONE', #309, 0.04750000000000064587 ) ;
#302 = DIRECTION ( 'NONE',  ( -1.000000000000000000, 0.0000000000000000000, 0.0000000000000000000 ) ) ;
#303 = VERTEX_POINT ( 'NONE', #336 ) ;
#304 = CARTESIAN_POINT ( 'NONE',  ( 0.0000000000000000000, 0.0000000000000000000, 1.485000000000000764 ) ) ;
#305 = EDGE_LOOP ( 'NONE', ( #333, #260, #5, #243 ) ) ;
#306 = UNCERTAINTY_MEASURE_WITH_UNIT (LENGTH_MEASURE( 1.000000000000000082E-05 ), #137, 'distance_accuracy_value', 'NONE');
#307 = DIRECTION ( 'NONE',  ( -0.0000000000000000000, -0.0000000000000000000, -1.000000000000000000 ) ) ;
#308 = EDGE_LOOP ( 'NONE', ( #317, #146 ) ) ;
#309 = AXIS2_PLACEMENT_3D ( 'NONE', #334, #110, #332 ) ;
#310 = CARTESIAN_POINT ( 'NONE',  ( 0.0000000000000000000, 0.0000000000000000000, 1.500000000000000222 ) ) ;
#311 = APPLICATION_CONTEXT ( 'automotive_design' ) ;
#312 = DIRECTION ( 'NONE',  ( -1.000000000000000000, 0.0000000000000000000, 0.0000000000000000000 ) ) ;
#313 = AXIS2_PLACEMENT_3D ( 'NONE', #296, #213, #359 ) ;
#314 = CYLINDRICAL_SURFACE ( 'NONE', #58, 0.03100000000000000672 ) ;
#315 = ADVANCED_BREP_SHAPE_REPRESENTATION ( 'Micro_KC-125-190-040X', ( #68, #319 ), #74 ) ;
#316 = DIRECTION ( 'NONE',  ( 0.0000000000000000000, 0.0000000000000000000, -1.000000000000000000 ) ) ;
#317 = ORIENTED_EDGE ( 'NONE', *, *, #20, .T. ) ;
#318 = CIRCLE ( 'NONE', #178, 0.03100000000000001713 ) ;
#319 = AXIS2_PLACEMENT_3D ( 'NONE', #212, #35, #96 ) ;
#320 = LINE ( 'NONE', #375, #141 ) ;
#321 = ORIENTED_EDGE ( 'NONE', *, *, #196, .T. ) ;
#322 = VECTOR ( 'NONE', #363, 39.37007874015748143 ) ;
#323 = CARTESIAN_POINT ( 'NONE',  ( 0.0000000000000000000, 0.0000000000000000000, 1.500000000000000222 ) ) ;
#324 = ORIENTED_EDGE ( 'NONE', *, *, #265, .F. ) ;
#325 = DIRECTION ( 'NONE',  ( -0.0000000000000000000, -0.0000000000000000000, -1.000000000000000000 ) ) ;
#326 = VERTEX_POINT ( 'NONE', #165 ) ;
#327 = DIRECTION ( 'NONE',  ( 0.7071067811865489050, 0.0000000000000000000, 0.7071067811865461294 ) ) ;
#328 = VERTEX_POINT ( 'NONE', #111 ) ;
#329 = UNCERTAINTY_MEASURE_WITH_UNIT (LENGTH_MEASURE( 1.000000000000000082E-05 ), #32, 'distance_accuracy_value', 'NONE');
#330 = DIRECTION ( 'NONE',  ( 0.0000000000000000000, 0.0000000000000000000, 1.000000000000000000 ) ) ;
#331 = CARTESIAN_POINT ( 'NONE',  ( 0.0000000000000000000, 0.0000000000000000000, 0.1899999999999999745 ) ) ;
#332 = DIRECTION ( 'NONE',  ( 1.000000000000000000, 0.0000000000000000000, 0.0000000000000000000 ) ) ;
#333 = ORIENTED_EDGE ( 'NONE', *, *, #62, .F. ) ;
#334 = CARTESIAN_POINT ( 'NONE',  ( 0.0000000000000000000, 0.0000000000000000000, 1.500000000000000222 ) ) ;
#335 = VERTEX_POINT ( 'NONE', #107 ) ;
#336 = CARTESIAN_POINT ( 'NONE',  ( 0.06250000000000000000, 7.654042494670956004E-18, 1.485000000000000764 ) ) ;
#337 = AXIS2_PLACEMENT_3D ( 'NONE', #352, #330, #234 ) ;
#338 = ADVANCED_FACE ( 'NONE', ( #48 ), #135, .T. ) ;
#339 = PLANE ( 'NONE',  #142 ) ;
#340 = EDGE_CURVE ( 'NONE', #335, #124, #82, .T. ) ;
#341 = AXIS2_PLACEMENT_3D ( 'NONE', #11, #8, #98 ) ;
#342 = FILL_AREA_STYLE ('',( #105 ) ) ;
#343 = ADVANCED_FACE ( 'NONE', ( #162 ), #191, .T. ) ;
#344 = ORIENTED_EDGE ( 'NONE', *, *, #365, .F. ) ;
#345 = CIRCLE ( 'NONE', #246, 0.06250000000000000000 ) ;
#346 = FACE_OUTER_BOUND ( 'NONE', #92, .T. ) ;
#347 = ORIENTED_EDGE ( 'NONE', *, *, #226, .F. ) ;
#348 = DIRECTION ( 'NONE',  ( -1.000000000000000000, 0.0000000000000000000, 0.0000000000000000000 ) ) ;
#349 = ADVANCED_FACE ( 'NONE', ( #75 ), #339, .T. ) ;
#350 = DIMENSIONAL_EXPONENTS ( 1.000000000000000000, 0.0000000000000000000, 0.0000000000000000000, 0.0000000000000000000, 0.0000000000000000000, 0.0000000000000000000, 0.0000000000000000000 ) ;
#351 = ORIENTED_EDGE ( 'NONE', *, *, #166, .F. ) ;
#352 = CARTESIAN_POINT ( 'NONE',  ( 0.06250000000000000000, 0.0000000000000000000, 0.04000000000000000083 ) ) ;
#353 = ORIENTED_EDGE ( 'NONE', *, *, #20, .F. ) ;
#354 = DIRECTION ( 'NONE',  ( -1.000000000000000000, 0.0000000000000000000, 0.0000000000000000000 ) ) ;
#355 = EDGE_LOOP ( 'NONE', ( #159, #120, #149, #28 ) ) ;
#356 = CARTESIAN_POINT ( 'NONE',  ( 0.0000000000000000000, 0.0000000000000000000, 1.485000000000000764 ) ) ;
#357 = CARTESIAN_POINT ( 'NONE',  ( -0.04750000000000064587, 0.0000000000000000000, 1.500000000000000222 ) ) ;
#358 = CIRCLE ( 'NONE', #168, 0.06250000000000000000 ) ;
#359 = DIRECTION ( 'NONE',  ( 1.000000000000000000, 0.0000000000000000000, 0.0000000000000000000 ) ) ;
#360 = ORIENTED_EDGE ( 'NONE', *, *, #121, .T. ) ;
#361 = PRODUCT_DEFINITION ( 'UNKNOWN', '', #109, #3 ) ;
#362 = FILL_AREA_STYLE ('',( #249 ) ) ;
#363 = DIRECTION ( 'NONE',  ( 0.7071067811865456854, 8.659560562354911904E-17, -0.7071067811865493491 ) ) ;
#364 = DIRECTION ( 'NONE',  ( 1.000000000000000000, 0.0000000000000000000, -0.0000000000000000000 ) ) ;
#365 = EDGE_CURVE ( 'NONE', #205, #328, #301, .T. ) ;
#366 = CARTESIAN_POINT ( 'NONE',  ( 0.0000000000000000000, 0.0000000000000000000, 1.500000000000000222 ) ) ;
#367 = CONICAL_SURFACE ( 'NONE', #27, 0.04750000000000064587, 0.7853981633974457255 ) ;
#368 =( NAMED_UNIT ( * ) SI_UNIT ( $, .STERADIAN. ) SOLID_ANGLE_UNIT ( ) );
#369 = DIRECTION ( 'NONE',  ( 0.0000000000000000000, 0.0000000000000000000, -1.000000000000000000 ) ) ;
#370 = CIRCLE ( 'NONE', #93, 0.06250000000000000000 ) ;
#371 = ADVANCED_FACE ( 'NONE', ( #104 ), #263, .T. ) ;
#372 = ORIENTED_EDGE ( 'NONE', *, *, #200, .T. ) ;
#373 = CARTESIAN_POINT ( 'NONE',  ( 0.0000000000000000000, 0.0000000000000000000, 1.500000000000000222 ) ) ;
#374 =( CONVERSION_BASED_UNIT ( 'INCH', #194 ) LENGTH_UNIT ( ) NAMED_UNIT ( #270 ) );
#375 = CARTESIAN_POINT ( 'NONE',  ( -0.03100000000000000672, 0.0000000000000000000, 0.0000000000000000000 ) ) ;
#376 = ORIENTED_EDGE ( 'NONE', *, *, #45, .T. ) ;
#377 = CIRCLE ( 'NONE', #190, 0.03100000000000000325 ) ;
#378 =( LENGTH_UNIT ( ) NAMED_UNIT ( * ) SI_UNIT ( $, .METRE. ) );
#379 = EDGE_LOOP ( 'NONE', ( #324, #274, #372, #151 ) ) ;
ENDSEC;
END-ISO-10303-21;
