ISO-10303-21;
HEADER;
FILE_DESCRIPTION (( 'STEP AP214' ),
    '1' );
FILE_NAME ('Micro_SFPM-040-80.STEP',
    '2021-09-02T07:05:37',
    ( '' ),
    ( '' ),
    'SwSTEP 2.0',
    'SolidWorks 2020',
    '' );
FILE_SCHEMA (( 'AUTOMOTIVE_DESIGN' ));
ENDSEC;

DATA;
#1 = DIRECTION ( 'NONE',  ( -1.224646799147353207E-16, -0.0000000000000000000, -1.000000000000000000 ) ) ;
#2 = CARTESIAN_POINT ( 'NONE',  ( -0.1574804999999998567, 0.0000000000000000000, 1.234408122848082323 ) ) ;
#3 = ORIENTED_EDGE ( 'NONE', *, *, #185, .F. ) ;
#4 = DIRECTION ( 'NONE',  ( 1.000000000000000000, 0.0000000000000000000, 0.0000000000000000000 ) ) ;
#5 = LINE ( 'NONE', #75, #48 ) ;
#6 = ORIENTED_EDGE ( 'NONE', *, *, #275, .T. ) ;
#7 = DIRECTION ( 'NONE',  ( 0.7071067811865563435, 8.659560562355041327E-17, -0.7071067811865386910 ) ) ;
#8 = ORIENTED_EDGE ( 'NONE', *, *, #286, .F. ) ;
#9 = DIRECTION ( 'NONE',  ( 1.224646799147353207E-16, 0.0000000000000000000, 1.000000000000000000 ) ) ;
#10 = ADVANCED_FACE ( 'NONE', ( #251 ), #280, .T. ) ;
#11 = CARTESIAN_POINT ( 'NONE',  ( 9.642893389422242582E-17, 0.0000000000000000000, 0.7874019999999999353 ) ) ;
#12 = ADVANCED_BREP_SHAPE_REPRESENTATION ( 'Micro_SFPM-040-80', ( #37, #19 ), #131 ) ;
#13 = ORIENTED_EDGE ( 'NONE', *, *, #155, .T. ) ;
#14 = SURFACE_STYLE_USAGE ( .BOTH. , #85 ) ;
#15 = CIRCLE ( 'NONE', #23, 0.1574804999999999955 ) ;
#16 = EDGE_LOOP ( 'NONE', ( #63, #91 ) ) ;
#17 =( NAMED_UNIT ( * ) SI_UNIT ( $, .STERADIAN. ) SOLID_ANGLE_UNIT ( ) );
#18 = EDGE_CURVE ( 'NONE', #289, #173, #252, .T. ) ;
#19 = AXIS2_PLACEMENT_3D ( 'NONE', #182, #208, #93 ) ;
#20 = ADVANCED_FACE ( 'NONE', ( #199 ), #71, .T. ) ;
#21 = COLOUR_RGB ( '',0.7921568627450980005, 0.8196078431372548767, 0.9333333333333333481 ) ;
#22 = EDGE_LOOP ( 'NONE', ( #123, #249, #129, #270 ) ) ;
#23 = AXIS2_PLACEMENT_3D ( 'NONE', #266, #39, #135 ) ;
#24 = PRODUCT_RELATED_PRODUCT_CATEGORY ( 'part', '', ( #259 ) ) ;
#25 =( LENGTH_UNIT ( ) NAMED_UNIT ( * ) SI_UNIT ( $, .METRE. ) );
#26 = AXIS2_PLACEMENT_3D ( 'NONE', #11, #1, #122 ) ;
#27 = CARTESIAN_POINT ( 'NONE',  ( 1.179729942015078748E-33, 0.0000000000000000000, 9.633226027589770864E-18 ) ) ;
#28 = DIRECTION ( 'NONE',  ( -1.000000000000000000, 0.0000000000000000000, 0.0000000000000000000 ) ) ;
#29 = ORIENTED_EDGE ( 'NONE', *, *, #296, .F. ) ;
#30 = CARTESIAN_POINT ( 'NONE',  ( 0.0000000000000000000, 0.0000000000000000000, 0.0000000000000000000 ) ) ;
#31 = EDGE_CURVE ( 'NONE', #189, #225, #83, .T. ) ;
#32 = EDGE_LOOP ( 'NONE', ( #94, #6, #171, #200 ) ) ;
#33 = FACE_OUTER_BOUND ( 'NONE', #267, .T. ) ;
#34 = ORIENTED_EDGE ( 'NONE', *, *, #31, .T. ) ;
#35 = PLANE ( 'NONE',  #36 ) ;
#36 = AXIS2_PLACEMENT_3D ( 'NONE', #30, #206, #134 ) ;
#37 = MANIFOLD_SOLID_BREP ( 'Cut-Revolve1', #149 ) ;
#38 = CARTESIAN_POINT ( 'NONE',  ( 0.0000000000000000000, 0.0000000000000000000, 0.0000000000000000000 ) ) ;
#39 = DIRECTION ( 'NONE',  ( 0.0000000000000000000, 0.0000000000000000000, -1.000000000000000000 ) ) ;
#40 =( NAMED_UNIT ( * ) PLANE_ANGLE_UNIT ( ) SI_UNIT ( $, .RADIAN. ) );
#41 = ADVANCED_FACE ( 'NONE', ( #73 ), #152, .T. ) ;
#42 = VERTEX_POINT ( 'NONE', #219 ) ;
#43 = APPLICATION_PROTOCOL_DEFINITION ( 'draft international standard', 'automotive_design', 1998, #194 ) ;
#44 = LENGTH_MEASURE_WITH_UNIT ( LENGTH_MEASURE( 0.02539999999999999897 ), #25 );
#45 = CIRCLE ( 'NONE', #88, 0.07866125999999999674 ) ;
#46 = CONICAL_SURFACE ( 'NONE', #223, 0.07866125999999999674, 0.1745329251994338637 ) ;
#47 = FACE_OUTER_BOUND ( 'NONE', #32, .T. ) ;
#48 = VECTOR ( 'NONE', #241, 39.37007874015748143 ) ;
#49 = DIRECTION ( 'NONE',  ( -1.000000000000000000, 0.0000000000000000000, 1.224646799147352961E-16 ) ) ;
#50 = DIRECTION ( 'NONE',  ( -1.224646799147353207E-16, -0.0000000000000000000, -1.000000000000000000 ) ) ;
#51 = LINE ( 'NONE', #279, #244 ) ;
#52 = ORIENTED_EDGE ( 'NONE', *, *, #277, .T. ) ;
#53 = FACE_OUTER_BOUND ( 'NONE', #177, .T. ) ;
#54 = DIRECTION ( 'NONE',  ( -0.0000000000000000000, -0.0000000000000000000, -1.000000000000000000 ) ) ;
#55 = CARTESIAN_POINT ( 'NONE',  ( -0.07866125999999988572, 9.633226027589770864E-18, 0.7874019999999999353 ) ) ;
#56 = CARTESIAN_POINT ( 'NONE',  ( -0.07866125999999999674, 0.0000000000000000000, 9.633226027589770864E-18 ) ) ;
#57 = CARTESIAN_POINT ( 'NONE',  ( 0.1574804999999999955, 1.928579902531247412E-17, 3.725156999999999829 ) ) ;
#58 = ORIENTED_EDGE ( 'NONE', *, *, #117, .T. ) ;
#59 = DIRECTION ( 'NONE',  ( -0.0000000000000000000, -0.0000000000000000000, -1.000000000000000000 ) ) ;
#60 = UNCERTAINTY_MEASURE_WITH_UNIT (LENGTH_MEASURE( 1.000000000000000082E-05 ), #139, 'distance_accuracy_value', 'NONE');
#61 = CARTESIAN_POINT ( 'NONE',  ( -0.1574804999999999955, 0.0000000000000000000, 3.740156999999999954 ) ) ;
#62 = CARTESIAN_POINT ( 'NONE',  ( 0.0000000000000000000, 0.0000000000000000000, 3.740156999999999954 ) ) ;
#63 = ORIENTED_EDGE ( 'NONE', *, *, #74, .T. ) ;
#64 = ADVANCED_FACE ( 'NONE', ( #53 ), #46, .T. ) ;
#65 = ORIENTED_EDGE ( 'NONE', *, *, #31, .F. ) ;
#66 = CARTESIAN_POINT ( 'NONE',  ( 0.07866126000000009388, 0.0000000000000000000, 0.7874019999999999353 ) ) ;
#67 = STYLED_ITEM ( 'NONE', ( #211 ), #12 ) ;
#68 = VERTEX_POINT ( 'NONE', #66 ) ;
#69 = ADVANCED_FACE ( 'NONE', ( #106 ), #141, .T. ) ;
#70 = CARTESIAN_POINT ( 'NONE',  ( 9.642893389422242582E-17, 0.0000000000000000000, 0.7874019999999999353 ) ) ;
#71 = CYLINDRICAL_SURFACE ( 'NONE', #230, 0.1574804999999999955 ) ;
#72 = LINE ( 'NONE', #55, #207 ) ;
#73 = FACE_OUTER_BOUND ( 'NONE', #102, .T. ) ;
#74 = EDGE_CURVE ( 'NONE', #125, #236, #45, .T. ) ;
#75 = CARTESIAN_POINT ( 'NONE',  ( -0.1424804999999998989, 0.0000000000000000000, 3.740156999999999954 ) ) ;
#76 = PLANE ( 'NONE',  #195 ) ;
#77 = EDGE_CURVE ( 'NONE', #68, #236, #132, .T. ) ;
#78 = CARTESIAN_POINT ( 'NONE',  ( 0.0000000000000000000, 0.0000000000000000000, 3.740156999999999954 ) ) ;
#79 = ORIENTED_EDGE ( 'NONE', *, *, #169, .T. ) ;
#80 =( LENGTH_UNIT ( ) NAMED_UNIT ( * ) SI_UNIT ( $, .METRE. ) );
#81 = FILL_AREA_STYLE ('',( #108 ) ) ;
#82 = VECTOR ( 'NONE', #178, 39.37007874015748143 ) ;
#83 = CIRCLE ( 'NONE', #121, 0.1424804999999998989 ) ;
#84 = EDGE_CURVE ( 'NONE', #42, #173, #72, .T. ) ;
#85 = SURFACE_SIDE_STYLE ('',( #114 ) ) ;
#86 = CARTESIAN_POINT ( 'NONE',  ( 0.1574804999999999955, 1.928579902531247412E-17, 3.740156999999999954 ) ) ;
#87 = UNCERTAINTY_MEASURE_WITH_UNIT (LENGTH_MEASURE( 1.000000000000000082E-05 ), #290, 'distance_accuracy_value', 'NONE');
#88 = AXIS2_PLACEMENT_3D ( 'NONE', #27, #217, #49 ) ;
#89 = FILL_AREA_STYLE_COLOUR ( '', #110 ) ;
#90 = ORIENTED_EDGE ( 'NONE', *, *, #210, .T. ) ;
#91 = ORIENTED_EDGE ( 'NONE', *, *, #273, .T. ) ;
#92 = APPLICATION_PROTOCOL_DEFINITION ( 'draft international standard', 'automotive_design', 1998, #158 ) ;
#93 = DIRECTION ( 'NONE',  ( 1.000000000000000000, 0.0000000000000000000, 0.0000000000000000000 ) ) ;
#94 = ORIENTED_EDGE ( 'NONE', *, *, #77, .F. ) ;
#95 = AXIS2_PLACEMENT_3D ( 'NONE', #105, #147, #101 ) ;
#96 = EDGE_CURVE ( 'NONE', #225, #276, #258, .T. ) ;
#97 = ORIENTED_EDGE ( 'NONE', *, *, #117, .F. ) ;
#98 = DIRECTION ( 'NONE',  ( -0.0000000000000000000, -0.0000000000000000000, -1.000000000000000000 ) ) ;
#99 = PRODUCT_DEFINITION_CONTEXT ( 'detailed design', #158, 'design' ) ;
#100 = CARTESIAN_POINT ( 'NONE',  ( 1.511713956487397033E-16, 0.0000000000000000000, 1.234408122848082323 ) ) ;
#101 = DIRECTION ( 'NONE',  ( 1.000000000000000000, 0.0000000000000000000, 0.0000000000000000000 ) ) ;
#102 = EDGE_LOOP ( 'NONE', ( #196, #65, #13, #157 ) ) ;
#103 = MECHANICAL_DESIGN_GEOMETRIC_PRESENTATION_REPRESENTATION (  '', ( #202 ), #288 ) ;
#104 = CARTESIAN_POINT ( 'NONE',  ( -0.1424804999999998989, 0.0000000000000000000, 3.740156999999999954 ) ) ;
#105 = CARTESIAN_POINT ( 'NONE',  ( 0.0000000000000000000, 0.0000000000000000000, 3.740156999999999954 ) ) ;
#106 = FACE_OUTER_BOUND ( 'NONE', #22, .T. ) ;
#107 = DIRECTION ( 'NONE',  ( -1.000000000000000000, 0.0000000000000000000, 0.0000000000000000000 ) ) ;
#108 = FILL_AREA_STYLE_COLOUR ( '', #21 ) ;
#109 = DIRECTION ( 'NONE',  ( 1.000000000000000000, 0.0000000000000000000, 0.0000000000000000000 ) ) ;
#110 = COLOUR_RGB ( '',0.7921568627450980005, 0.8196078431372548767, 0.9333333333333333481 ) ;
#111 = ADVANCED_FACE ( 'NONE', ( #126 ), #76, .T. ) ;
#112 = SURFACE_STYLE_USAGE ( .BOTH. , #136 ) ;
#113 = PRODUCT_DEFINITION_SHAPE ( 'NONE', 'NONE',  #138 ) ;
#114 = SURFACE_STYLE_FILL_AREA ( #291 ) ;
#115 = MECHANICAL_DESIGN_GEOMETRIC_PRESENTATION_REPRESENTATION (  '', ( #67 ), #213 ) ;
#116 = LINE ( 'NONE', #86, #253 ) ;
#117 = EDGE_CURVE ( 'NONE', #225, #189, #297, .T. ) ;
#118 = CARTESIAN_POINT ( 'NONE',  ( 0.0000000000000000000, 0.0000000000000000000, 3.740156999999999954 ) ) ;
#119 = VERTEX_POINT ( 'NONE', #204 ) ;
#120 = VECTOR ( 'NONE', #156, 39.37007874015748143 ) ;
#121 = AXIS2_PLACEMENT_3D ( 'NONE', #78, #295, #181 ) ;
#122 = DIRECTION ( 'NONE',  ( -1.000000000000000000, 0.0000000000000000000, 0.0000000000000000000 ) ) ;
#123 = ORIENTED_EDGE ( 'NONE', *, *, #84, .F. ) ;
#124 = DIMENSIONAL_EXPONENTS ( 1.000000000000000000, 0.0000000000000000000, 0.0000000000000000000, 0.0000000000000000000, 0.0000000000000000000, 0.0000000000000000000, 0.0000000000000000000 ) ;
#125 = VERTEX_POINT ( 'NONE', #172 ) ;
#126 = FACE_OUTER_BOUND ( 'NONE', #127, .T. ) ;
#127 = EDGE_LOOP ( 'NONE', ( #34, #58 ) ) ;
#128 = CYLINDRICAL_SURFACE ( 'NONE', #144, 0.1574804999999999955 ) ;
#129 = ORIENTED_EDGE ( 'NONE', *, *, #185, .T. ) ;
#130 = AXIS2_PLACEMENT_3D ( 'NONE', #179, #292, #188 ) ;
#131 =( GEOMETRIC_REPRESENTATION_CONTEXT ( 3 ) GLOBAL_UNCERTAINTY_ASSIGNED_CONTEXT ( ( #60 ) ) GLOBAL_UNIT_ASSIGNED_CONTEXT ( ( #139, #40, #137 ) ) REPRESENTATION_CONTEXT ( 'NONE', 'WORKASPACE' ) );
#132 = LINE ( 'NONE', #198, #214 ) ;
#133 = DIMENSIONAL_EXPONENTS ( 1.000000000000000000, 0.0000000000000000000, 0.0000000000000000000, 0.0000000000000000000, 0.0000000000000000000, 0.0000000000000000000, 0.0000000000000000000 ) ;
#134 = DIRECTION ( 'NONE',  ( 1.000000000000000000, 0.0000000000000000000, -0.0000000000000000000 ) ) ;
#135 = DIRECTION ( 'NONE',  ( 1.000000000000000000, 0.0000000000000000000, 0.0000000000000000000 ) ) ;
#136 = SURFACE_SIDE_STYLE ('',( #265 ) ) ;
#137 =( NAMED_UNIT ( * ) SI_UNIT ( $, .STERADIAN. ) SOLID_ANGLE_UNIT ( ) );
#138 = PRODUCT_DEFINITION ( 'UNKNOWN', '', #263, #99 ) ;
#139 =( CONVERSION_BASED_UNIT ( 'INCH', #161 ) LENGTH_UNIT ( ) NAMED_UNIT ( #255 ) );
#140 = EDGE_CURVE ( 'NONE', #42, #125, #283, .T. ) ;
#141 = CONICAL_SURFACE ( 'NONE', #130, 0.07866125999999999674, 0.1745329251994338637 ) ;
#142 = VECTOR ( 'NONE', #7, 39.37007874015748143 ) ;
#143 = DIRECTION ( 'NONE',  ( -1.224646799147353207E-16, -0.0000000000000000000, -1.000000000000000000 ) ) ;
#144 = AXIS2_PLACEMENT_3D ( 'NONE', #220, #98, #107 ) ;
#145 = CARTESIAN_POINT ( 'NONE',  ( 0.1424804999999998989, 1.744882882659143297E-17, 3.740156999999999954 ) ) ;
#146 = CARTESIAN_POINT ( 'NONE',  ( 0.0000000000000000000, 0.0000000000000000000, 3.740156999999999954 ) ) ;
#147 = DIRECTION ( 'NONE',  ( 0.0000000000000000000, 0.0000000000000000000, 1.000000000000000000 ) ) ;
#148 = ORIENTED_EDGE ( 'NONE', *, *, #77, .T. ) ;
#149 = CLOSED_SHELL ( 'NONE', ( #294, #64, #10, #191, #20, #111, #41, #69, #227, #272 ) ) ;
#150 = DIRECTION ( 'NONE',  ( -1.000000000000000000, 0.0000000000000000000, 1.224646799147352961E-16 ) ) ;
#151 = ORIENTED_EDGE ( 'NONE', *, *, #247, .T. ) ;
#152 = CONICAL_SURFACE ( 'NONE', #268, 0.1424804999999998989, 0.7853981633974608245 ) ;
#153 = DIRECTION ( 'NONE',  ( 1.000000000000000000, 0.0000000000000000000, 0.0000000000000000000 ) ) ;
#154 = UNCERTAINTY_MEASURE_WITH_UNIT (LENGTH_MEASURE( 1.000000000000000082E-05 ), #163, 'distance_accuracy_value', 'NONE');
#155 = EDGE_CURVE ( 'NONE', #189, #119, #5, .T. ) ;
#156 = DIRECTION ( 'NONE',  ( -0.0000000000000000000, -0.0000000000000000000, -1.000000000000000000 ) ) ;
#157 = ORIENTED_EDGE ( 'NONE', *, *, #277, .F. ) ;
#158 = APPLICATION_CONTEXT ( 'automotive_design' ) ;
#159 = CARTESIAN_POINT ( 'NONE',  ( 0.1574805000000001343, 1.928579902531249261E-17, 1.234408122848082323 ) ) ;
#160 = ORIENTED_EDGE ( 'NONE', *, *, #247, .F. ) ;
#161 = LENGTH_MEASURE_WITH_UNIT ( LENGTH_MEASURE( 0.02539999999999999897 ), #231 );
#162 = AXIS2_PLACEMENT_3D ( 'NONE', #100, #50, #4 ) ;
#163 =( CONVERSION_BASED_UNIT ( 'INCH', #44 ) LENGTH_UNIT ( ) NAMED_UNIT ( #124 ) );
#164 = AXIS2_PLACEMENT_3D ( 'NONE', #243, #176, #238 ) ;
#165 = PRODUCT_CONTEXT ( 'NONE', #194, 'mechanical' ) ;
#166 = DIRECTION ( 'NONE',  ( -1.000000000000000000, 0.0000000000000000000, 0.0000000000000000000 ) ) ;
#167 = AXIS2_PLACEMENT_3D ( 'NONE', #38, #143, #150 ) ;
#168 = EDGE_LOOP ( 'NONE', ( #79, #148, #298, #197 ) ) ;
#169 = EDGE_CURVE ( 'NONE', #42, #68, #299, .T. ) ;
#170 = CARTESIAN_POINT ( 'NONE',  ( 0.0000000000000000000, 0.0000000000000000000, 3.725156999999999829 ) ) ;
#171 = ORIENTED_EDGE ( 'NONE', *, *, #140, .T. ) ;
#172 = CARTESIAN_POINT ( 'NONE',  ( -0.07866125999999999674, 0.0000000000000000000, 1.926645205517954173E-17 ) ) ;
#173 = VERTEX_POINT ( 'NONE', #2 ) ;
#174 = CIRCLE ( 'NONE', #180, 0.1574804999999999955 ) ;
#175 = DIRECTION ( 'NONE',  ( 0.1736481776669313581, 0.0000000000000000000, 0.9848077530122077983 ) ) ;
#176 = DIRECTION ( 'NONE',  ( -1.224646799147353207E-16, -0.0000000000000000000, -1.000000000000000000 ) ) ;
#177 = EDGE_LOOP ( 'NONE', ( #222, #274, #151, #3 ) ) ;
#178 = DIRECTION ( 'NONE',  ( -1.224646799147353207E-16, -0.0000000000000000000, -1.000000000000000000 ) ) ;
#179 = CARTESIAN_POINT ( 'NONE',  ( 9.642893389422242582E-17, 0.0000000000000000000, 0.7874019999999999353 ) ) ;
#180 = AXIS2_PLACEMENT_3D ( 'NONE', #170, #240, #153 ) ;
#181 = DIRECTION ( 'NONE',  ( 1.000000000000000000, 0.0000000000000000000, 0.0000000000000000000 ) ) ;
#182 = CARTESIAN_POINT ( 'NONE',  ( 0.0000000000000000000, 0.0000000000000000000, 0.0000000000000000000 ) ) ;
#183 = DIRECTION ( 'NONE',  ( -1.000000000000000000, 0.0000000000000000000, 0.0000000000000000000 ) ) ;
#184 = ORIENTED_EDGE ( 'NONE', *, *, #96, .T. ) ;
#185 = EDGE_CURVE ( 'NONE', #68, #289, #51, .T. ) ;
#186 = DIRECTION ( 'NONE',  ( -1.224646799147353207E-16, -0.0000000000000000000, -1.000000000000000000 ) ) ;
#187 = CIRCLE ( 'NONE', #234, 0.07866125999999999674 ) ;
#188 = DIRECTION ( 'NONE',  ( 1.000000000000000000, 0.0000000000000000000, 0.0000000000000000000 ) ) ;
#189 = VERTEX_POINT ( 'NONE', #104 ) ;
#190 = SHAPE_DEFINITION_REPRESENTATION ( #113, #12 ) ;
#191 = ADVANCED_FACE ( 'NONE', ( #33 ), #128, .T. ) ;
#192 = AXIS2_PLACEMENT_3D ( 'NONE', #118, #193, #166 ) ;
#193 = DIRECTION ( 'NONE',  ( 0.0000000000000000000, 0.0000000000000000000, -1.000000000000000000 ) ) ;
#194 = APPLICATION_CONTEXT ( 'automotive_design' ) ;
#195 = AXIS2_PLACEMENT_3D ( 'NONE', #224, #203, #262 ) ;
#196 = ORIENTED_EDGE ( 'NONE', *, *, #96, .F. ) ;
#197 = ORIENTED_EDGE ( 'NONE', *, *, #140, .F. ) ;
#198 = CARTESIAN_POINT ( 'NONE',  ( 0.07866125999999999674, 9.633226027589770864E-18, -9.633226027589770864E-18 ) ) ;
#199 = FACE_OUTER_BOUND ( 'NONE', #205, .T. ) ;
#200 = ORIENTED_EDGE ( 'NONE', *, *, #273, .F. ) ;
#201 = DIRECTION ( 'NONE',  ( -0.1736481776669311639, 2.126576849575783008E-17, 0.9848077530122080203 ) ) ;
#202 = STYLED_ITEM ( 'NONE', ( #209 ), #37 ) ;
#203 = DIRECTION ( 'NONE',  ( 0.0000000000000000000, 0.0000000000000000000, 1.000000000000000000 ) ) ;
#204 = CARTESIAN_POINT ( 'NONE',  ( -0.1574804999999999955, 0.0000000000000000000, 3.725156999999999829 ) ) ;
#205 = EDGE_LOOP ( 'NONE', ( #8, #52, #221, #215 ) ) ;
#206 = DIRECTION ( 'NONE',  ( 0.0000000000000000000, 0.0000000000000000000, 1.000000000000000000 ) ) ;
#207 = VECTOR ( 'NONE', #201, 39.37007874015747433 ) ;
#208 = DIRECTION ( 'NONE',  ( 0.0000000000000000000, 0.0000000000000000000, 1.000000000000000000 ) ) ;
#209 = PRESENTATION_STYLE_ASSIGNMENT (( #112 ) ) ;
#210 = EDGE_CURVE ( 'NONE', #119, #276, #174, .T. ) ;
#211 = PRESENTATION_STYLE_ASSIGNMENT (( #14 ) ) ;
#212 = CYLINDRICAL_SURFACE ( 'NONE', #293, 0.07866125999999999674 ) ;
#213 =( GEOMETRIC_REPRESENTATION_CONTEXT ( 3 ) GLOBAL_UNCERTAINTY_ASSIGNED_CONTEXT ( ( #87 ) ) GLOBAL_UNIT_ASSIGNED_CONTEXT ( ( #290, #228, #264 ) ) REPRESENTATION_CONTEXT ( 'NONE', 'WORKASPACE' ) );
#214 = VECTOR ( 'NONE', #261, 39.37007874015748143 ) ;
#215 = ORIENTED_EDGE ( 'NONE', *, *, #18, .F. ) ;
#216 = FACE_OUTER_BOUND ( 'NONE', #16, .T. ) ;
#217 = DIRECTION ( 'NONE',  ( -1.224646799147353207E-16, -0.0000000000000000000, -1.000000000000000000 ) ) ;
#218 = EDGE_LOOP ( 'NONE', ( #97, #184, #229, #260 ) ) ;
#219 = CARTESIAN_POINT ( 'NONE',  ( -0.07866125999999988572, 1.445951252645112249E-17, 0.7874019999999999353 ) ) ;
#220 = CARTESIAN_POINT ( 'NONE',  ( 0.0000000000000000000, 0.0000000000000000000, 3.740156999999999954 ) ) ;
#221 = ORIENTED_EDGE ( 'NONE', *, *, #296, .T. ) ;
#222 = ORIENTED_EDGE ( 'NONE', *, *, #169, .F. ) ;
#223 = AXIS2_PLACEMENT_3D ( 'NONE', #282, #9, #109 ) ;
#224 = CARTESIAN_POINT ( 'NONE',  ( 0.0000000000000000000, 0.0000000000000000000, 3.740156999999999954 ) ) ;
#225 = VERTEX_POINT ( 'NONE', #278 ) ;
#226 = CARTESIAN_POINT ( 'NONE',  ( 1.179729942015078748E-33, 0.0000000000000000000, 9.633226027589770864E-18 ) ) ;
#227 = ADVANCED_FACE ( 'NONE', ( #47 ), #245, .T. ) ;
#228 =( NAMED_UNIT ( * ) PLANE_ANGLE_UNIT ( ) SI_UNIT ( $, .RADIAN. ) );
#229 = ORIENTED_EDGE ( 'NONE', *, *, #210, .F. ) ;
#230 = AXIS2_PLACEMENT_3D ( 'NONE', #146, #54, #242 ) ;
#231 =( LENGTH_UNIT ( ) NAMED_UNIT ( * ) SI_UNIT ( $, .METRE. ) );
#232 = DIRECTION ( 'NONE',  ( -1.000000000000000000, 0.0000000000000000000, 1.224646799147352961E-16 ) ) ;
#233 = FACE_OUTER_BOUND ( 'NONE', #168, .T. ) ;
#234 = AXIS2_PLACEMENT_3D ( 'NONE', #226, #284, #254 ) ;
#235 =( NAMED_UNIT ( * ) PLANE_ANGLE_UNIT ( ) SI_UNIT ( $, .RADIAN. ) );
#236 = VERTEX_POINT ( 'NONE', #281 ) ;
#237 = PRESENTATION_LAYER_ASSIGNMENT (  '', '', ( #202 ) ) ;
#238 = DIRECTION ( 'NONE',  ( 1.000000000000000000, 0.0000000000000000000, 0.0000000000000000000 ) ) ;
#239 = AXIS2_PLACEMENT_3D ( 'NONE', #70, #257, #183 ) ;
#240 = DIRECTION ( 'NONE',  ( 0.0000000000000000000, 0.0000000000000000000, -1.000000000000000000 ) ) ;
#241 = DIRECTION ( 'NONE',  ( -0.7071067811865563435, 0.0000000000000000000, -0.7071067811865386910 ) ) ;
#242 = DIRECTION ( 'NONE',  ( -1.000000000000000000, 0.0000000000000000000, 0.0000000000000000000 ) ) ;
#243 = CARTESIAN_POINT ( 'NONE',  ( 1.511713956487397033E-16, 0.0000000000000000000, 1.234408122848082323 ) ) ;
#244 = VECTOR ( 'NONE', #175, 39.37007874015748143 ) ;
#245 = CYLINDRICAL_SURFACE ( 'NONE', #167, 0.07866125999999999674 ) ;
#246 = LENGTH_MEASURE_WITH_UNIT ( LENGTH_MEASURE( 0.02539999999999999897 ), #80 );
#247 = EDGE_CURVE ( 'NONE', #173, #289, #287, .T. ) ;
#248 = PRESENTATION_LAYER_ASSIGNMENT (  '', '', ( #67 ) ) ;
#249 = ORIENTED_EDGE ( 'NONE', *, *, #275, .F. ) ;
#250 = CARTESIAN_POINT ( 'NONE',  ( 0.0000000000000000000, 0.0000000000000000000, 0.0000000000000000000 ) ) ;
#251 = FACE_OUTER_BOUND ( 'NONE', #218, .T. ) ;
#252 = CIRCLE ( 'NONE', #162, 0.1574804999999999955 ) ;
#253 = VECTOR ( 'NONE', #59, 39.37007874015748143 ) ;
#254 = DIRECTION ( 'NONE',  ( -1.000000000000000000, 0.0000000000000000000, 1.224646799147352961E-16 ) ) ;
#255 = DIMENSIONAL_EXPONENTS ( 1.000000000000000000, 0.0000000000000000000, 0.0000000000000000000, 0.0000000000000000000, 0.0000000000000000000, 0.0000000000000000000, 0.0000000000000000000 ) ;
#256 = DIRECTION ( 'NONE',  ( 0.0000000000000000000, 0.0000000000000000000, -1.000000000000000000 ) ) ;
#257 = DIRECTION ( 'NONE',  ( -1.224646799147353207E-16, -0.0000000000000000000, -1.000000000000000000 ) ) ;
#258 = LINE ( 'NONE', #145, #142 ) ;
#259 = PRODUCT ( 'Micro_SFPM-040-80', 'Micro_SFPM-040-80', '', ( #165 ) ) ;
#260 = ORIENTED_EDGE ( 'NONE', *, *, #155, .F. ) ;
#261 = DIRECTION ( 'NONE',  ( -1.224646799147353207E-16, -0.0000000000000000000, -1.000000000000000000 ) ) ;
#262 = DIRECTION ( 'NONE',  ( 1.000000000000000000, 0.0000000000000000000, -0.0000000000000000000 ) ) ;
#263 = PRODUCT_DEFINITION_FORMATION_WITH_SPECIFIED_SOURCE ( 'ANY', '', #259, .NOT_KNOWN. ) ;
#264 =( NAMED_UNIT ( * ) SI_UNIT ( $, .STERADIAN. ) SOLID_ANGLE_UNIT ( ) );
#265 = SURFACE_STYLE_FILL_AREA ( #81 ) ;
#266 = CARTESIAN_POINT ( 'NONE',  ( 0.0000000000000000000, 0.0000000000000000000, 3.725156999999999829 ) ) ;
#267 = EDGE_LOOP ( 'NONE', ( #90, #285, #160, #29 ) ) ;
#268 = AXIS2_PLACEMENT_3D ( 'NONE', #62, #256, #28 ) ;
#269 = LINE ( 'NONE', #61, #120 ) ;
#270 = ORIENTED_EDGE ( 'NONE', *, *, #18, .T. ) ;
#271 = CIRCLE ( 'NONE', #239, 0.07866125999999999674 ) ;
#272 = ADVANCED_FACE ( 'NONE', ( #216 ), #35, .F. ) ;
#273 = EDGE_CURVE ( 'NONE', #236, #125, #187, .T. ) ;
#274 = ORIENTED_EDGE ( 'NONE', *, *, #84, .T. ) ;
#275 = EDGE_CURVE ( 'NONE', #68, #42, #271, .T. ) ;
#276 = VERTEX_POINT ( 'NONE', #57 ) ;
#277 = EDGE_CURVE ( 'NONE', #276, #119, #15, .T. ) ;
#278 = CARTESIAN_POINT ( 'NONE',  ( 0.1424804999999998989, 1.836731392595195200E-17, 3.740156999999999954 ) ) ;
#279 = CARTESIAN_POINT ( 'NONE',  ( 0.07866126000000009388, 0.0000000000000000000, 0.7874019999999999353 ) ) ;
#280 = CONICAL_SURFACE ( 'NONE', #192, 0.1424804999999998989, 0.7853981633974608245 ) ;
#281 = CARTESIAN_POINT ( 'NONE',  ( 0.07866125999999999674, 9.633226027589770864E-18, 0.0000000000000000000 ) ) ;
#282 = CARTESIAN_POINT ( 'NONE',  ( 9.642893389422242582E-17, 0.0000000000000000000, 0.7874019999999999353 ) ) ;
#283 = LINE ( 'NONE', #56, #82 ) ;
#284 = DIRECTION ( 'NONE',  ( -1.224646799147353207E-16, -0.0000000000000000000, -1.000000000000000000 ) ) ;
#285 = ORIENTED_EDGE ( 'NONE', *, *, #286, .T. ) ;
#286 = EDGE_CURVE ( 'NONE', #276, #289, #116, .T. ) ;
#287 = CIRCLE ( 'NONE', #164, 0.1574804999999999955 ) ;
#288 =( GEOMETRIC_REPRESENTATION_CONTEXT ( 3 ) GLOBAL_UNCERTAINTY_ASSIGNED_CONTEXT ( ( #154 ) ) GLOBAL_UNIT_ASSIGNED_CONTEXT ( ( #163, #235, #17 ) ) REPRESENTATION_CONTEXT ( 'NONE', 'WORKASPACE' ) );
#289 = VERTEX_POINT ( 'NONE', #159 ) ;
#290 =( CONVERSION_BASED_UNIT ( 'INCH', #246 ) LENGTH_UNIT ( ) NAMED_UNIT ( #133 ) );
#291 = FILL_AREA_STYLE ('',( #89 ) ) ;
#292 = DIRECTION ( 'NONE',  ( 1.224646799147353207E-16, 0.0000000000000000000, 1.000000000000000000 ) ) ;
#293 = AXIS2_PLACEMENT_3D ( 'NONE', #250, #186, #232 ) ;
#294 = ADVANCED_FACE ( 'NONE', ( #233 ), #212, .T. ) ;
#295 = DIRECTION ( 'NONE',  ( 0.0000000000000000000, 0.0000000000000000000, 1.000000000000000000 ) ) ;
#296 = EDGE_CURVE ( 'NONE', #119, #173, #269, .T. ) ;
#297 = CIRCLE ( 'NONE', #95, 0.1424804999999998989 ) ;
#298 = ORIENTED_EDGE ( 'NONE', *, *, #74, .F. ) ;
#299 = CIRCLE ( 'NONE', #26, 0.07866125999999999674 ) ;
ENDSEC;
END-ISO-10303-21;
