ISO-10303-21;
HEADER;
FILE_DESCRIPTION (( 'STEP AP214' ),
    '1' );
FILE_NAME ('00617.STEP',
    '2023-06-22T14:12:45',
    ( '' ),
    ( '' ),
    'SwSTEP 2.0',
    'SolidWorks 2023',
    '' );
FILE_SCHEMA (( 'AUTOMOTIVE_DESIGN' ));
ENDSEC;

DATA;
#1 = SURFACE_STYLE_FILL_AREA ( #58 ) ;
#2 =( NAMED_UNIT ( * ) PLANE_ANGLE_UNIT ( ) SI_UNIT ( $, .RADIAN. ) );
#3 =( NAMED_UNIT ( * ) SI_UNIT ( $, .STERADIAN. ) SOLID_ANGLE_UNIT ( ) );
#4 = ORIENTED_EDGE ( 'NONE', *, *, #209, .F. ) ;
#5 = EDGE_CURVE ( 'NONE', #202, #148, #68, .T. ) ;
#6 =( LENGTH_UNIT ( ) NAMED_UNIT ( * ) SI_UNIT ( $, .METRE. ) );
#7 = ORIENTED_EDGE ( 'NONE', *, *, #55, .T. ) ;
#8 = DIRECTION ( 'NONE',  ( -5.442874662877130022E-17, 1.000000000000000000, 0.000000000000000000 ) ) ;
#9 = LENGTH_MEASURE_WITH_UNIT ( LENGTH_MEASURE( 0.02539999999999999897 ), #6 );
#10 = DIRECTION ( 'NONE',  ( -5.442874662877130022E-17, 1.000000000000000000, -0.000000000000000000 ) ) ;
#11 = PRESENTATION_STYLE_ASSIGNMENT (( #304 ) ) ;
#12 =( GEOMETRIC_REPRESENTATION_CONTEXT ( 3 ) GLOBAL_UNCERTAINTY_ASSIGNED_CONTEXT ( ( #44 ) ) GLOBAL_UNIT_ASSIGNED_CONTEXT ( ( #169, #122, #3 ) ) REPRESENTATION_CONTEXT ( 'NONE', 'WORKASPACE' ) );
#13 = VECTOR ( 'NONE', #10, 39.37007874015748143 ) ;
#14 = VERTEX_POINT ( 'NONE', #101 ) ;
#15 = CARTESIAN_POINT ( 'NONE',  ( -0.3125000000000002220, 6.000000000000000888, 0.000000000000000000 ) ) ;
#16 = EDGE_CURVE ( 'NONE', #102, #222, #303, .T. ) ;
#17 = DIRECTION ( 'NONE',  ( 0.000000000000000000, 0.000000000000000000, -1.000000000000000000 ) ) ;
#18 = MECHANICAL_DESIGN_GEOMETRIC_PRESENTATION_REPRESENTATION (  '', ( #290 ), #146 ) ;
#19 = DIMENSIONAL_EXPONENTS ( 1.000000000000000000, 0.000000000000000000, 0.000000000000000000, 0.000000000000000000, 0.000000000000000000, 0.000000000000000000, 0.000000000000000000 ) ;
#20 = APPLICATION_PROTOCOL_DEFINITION ( 'draft international standard', 'automotive_design', 1998, #247 ) ;
#21 = AXIS2_PLACEMENT_3D ( 'NONE', #272, #39, #64 ) ;
#22 = UNCERTAINTY_MEASURE_WITH_UNIT (LENGTH_MEASURE( 1.000000000000000082E-05 ), #262, 'distance_accuracy_value', 'NONE');
#23 = SHAPE_DEFINITION_REPRESENTATION ( #184, #84 ) ;
#24 = DIRECTION ( 'NONE',  ( -1.000000000000000000, 0.000000000000000000, 0.000000000000000000 ) ) ;
#25 = APPLICATION_CONTEXT ( 'automotive_design' ) ;
#26 = DIRECTION ( 'NONE',  ( -1.000000000000000000, -5.442874662877130022E-17, 0.000000000000000000 ) ) ;
#27 = ADVANCED_FACE ( 'NONE', ( #95 ), #285, .T. ) ;
#28 = FILL_AREA_STYLE_COLOUR ( '', #229 ) ;
#29 = FACE_OUTER_BOUND ( 'NONE', #196, .T. ) ;
#30 = COLOUR_RGB ( '',0.7921568627450980005, 0.8196078431372548767, 0.9333333333333333481 ) ;
#31 = ORIENTED_EDGE ( 'NONE', *, *, #5, .T. ) ;
#32 = ADVANCED_FACE ( 'NONE', ( #260 ), #49, .F. ) ;
#33 = DIRECTION ( 'NONE',  ( -5.442874662877130638E-17, 1.000000000000000000, -0.000000000000000000 ) ) ;
#34 = ORIENTED_EDGE ( 'NONE', *, *, #299, .T. ) ;
#35 = PRESENTATION_STYLE_ASSIGNMENT (( #246 ) ) ;
#36 = AXIS2_PLACEMENT_3D ( 'NONE', #177, #82, #295 ) ;
#37 = CARTESIAN_POINT ( 'NONE',  ( 3.827021247335478926E-17, 0.000000000000000000, 0.3125000000000000000 ) ) ;
#38 =( GEOMETRIC_REPRESENTATION_CONTEXT ( 3 ) GLOBAL_UNCERTAINTY_ASSIGNED_CONTEXT ( ( #79 ) ) GLOBAL_UNIT_ASSIGNED_CONTEXT ( ( #208, #300, #158 ) ) REPRESENTATION_CONTEXT ( 'NONE', 'WORKASPACE' ) );
#39 = DIRECTION ( 'NONE',  ( -0.000000000000000000, -1.000000000000000000, -0.000000000000000000 ) ) ;
#40 = EDGE_LOOP ( 'NONE', ( #166, #74, #172, #152 ) ) ;
#41 = CYLINDRICAL_SURFACE ( 'NONE', #164, 0.3125000000000000555 ) ;
#42 = DIRECTION ( 'NONE',  ( 1.000000000000000000, 5.442874662877130022E-17, 0.000000000000000000 ) ) ;
#43 =( NAMED_UNIT ( * ) SI_UNIT ( $, .STERADIAN. ) SOLID_ANGLE_UNIT ( ) );
#44 = UNCERTAINTY_MEASURE_WITH_UNIT (LENGTH_MEASURE( 1.000000000000000082E-05 ), #169, 'distance_accuracy_value', 'NONE');
#45 = STYLED_ITEM ( 'NONE', ( #216 ), #27 ) ;
#46 = DIRECTION ( 'NONE',  ( -0.000000000000000000, -1.000000000000000000, -0.000000000000000000 ) ) ;
#47 = MECHANICAL_DESIGN_GEOMETRIC_PRESENTATION_REPRESENTATION (  '', ( #77 ), #190 ) ;
#48 = AXIS2_PLACEMENT_3D ( 'NONE', #302, #88, #107 ) ;
#49 = PLANE ( 'NONE',  #62 ) ;
#50 = LENGTH_MEASURE_WITH_UNIT ( LENGTH_MEASURE( 0.02539999999999999897 ), #114 );
#51 = VERTEX_POINT ( 'NONE', #61 ) ;
#52 =( NAMED_UNIT ( * ) PLANE_ANGLE_UNIT ( ) SI_UNIT ( $, .RADIAN. ) );
#53 = SURFACE_STYLE_USAGE ( .BOTH. , #121 ) ;
#54 = STYLED_ITEM ( 'NONE', ( #188 ), #73 ) ;
#55 = EDGE_CURVE ( 'NONE', #222, #102, #185, .T. ) ;
#56 =( NAMED_UNIT ( * ) SI_UNIT ( $, .STERADIAN. ) SOLID_ANGLE_UNIT ( ) );
#57 = UNCERTAINTY_MEASURE_WITH_UNIT (LENGTH_MEASURE( 1.000000000000000082E-05 ), #264, 'distance_accuracy_value', 'NONE');
#58 = FILL_AREA_STYLE ('',( #193 ) ) ;
#59 = CYLINDRICAL_SURFACE ( 'NONE', #159, 0.3125000000000000555 ) ;
#60 = ORIENTED_EDGE ( 'NONE', *, *, #109, .T. ) ;
#61 = CARTESIAN_POINT ( 'NONE',  ( 0.000000000000000000, 3.750000000000000000, -0.3125000000000000000 ) ) ;
#62 = AXIS2_PLACEMENT_3D ( 'NONE', #200, #160, #42 ) ;
#63 =( CONVERSION_BASED_UNIT ( 'INCH', #9 ) LENGTH_UNIT ( ) NAMED_UNIT ( #301 ) );
#64 = DIRECTION ( 'NONE',  ( 0.000000000000000000, 0.000000000000000000, -1.000000000000000000 ) ) ;
#65 = SURFACE_STYLE_USAGE ( .BOTH. , #254 ) ;
#66 =( LENGTH_UNIT ( ) NAMED_UNIT ( * ) SI_UNIT ( $, .METRE. ) );
#67 = SURFACE_SIDE_STYLE ('',( #249 ) ) ;
#68 = CIRCLE ( 'NONE', #189, 0.3125000000000001665 ) ;
#69 = PRODUCT ( '00617', '00617', '', ( #236 ) ) ;
#70 =( GEOMETRIC_REPRESENTATION_CONTEXT ( 3 ) GLOBAL_UNCERTAINTY_ASSIGNED_CONTEXT ( ( #57 ) ) GLOBAL_UNIT_ASSIGNED_CONTEXT ( ( #264, #147, #56 ) ) REPRESENTATION_CONTEXT ( 'NONE', 'WORKASPACE' ) );
#71 = AXIS2_PLACEMENT_3D ( 'NONE', #111, #46, #17 ) ;
#72 = CARTESIAN_POINT ( 'NONE',  ( 0.000000000000000000, 3.750000000000000000, 0.000000000000000000 ) ) ;
#73 = MANIFOLD_SOLID_BREP ( 'Revolve - Cutting Edge', #241 ) ;
#74 = ORIENTED_EDGE ( 'NONE', *, *, #209, .T. ) ;
#75 = FILL_AREA_STYLE ('',( #103 ) ) ;
#76 =( LENGTH_UNIT ( ) NAMED_UNIT ( * ) SI_UNIT ( $, .METRE. ) );
#77 = STYLED_ITEM ( 'NONE', ( #35 ), #182 ) ;
#78 = DIRECTION ( 'NONE',  ( -1.000000000000000000, 0.000000000000000000, 0.000000000000000000 ) ) ;
#79 = UNCERTAINTY_MEASURE_WITH_UNIT (LENGTH_MEASURE( 1.000000000000000082E-05 ), #208, 'distance_accuracy_value', 'NONE');
#80 = ORIENTED_EDGE ( 'NONE', *, *, #277, .F. ) ;
#81 = DIRECTION ( 'NONE',  ( 0.000000000000000000, 0.000000000000000000, -1.000000000000000000 ) ) ;
#82 = DIRECTION ( 'NONE',  ( -5.442874662877130638E-17, 1.000000000000000000, -0.000000000000000000 ) ) ;
#83 = DIRECTION ( 'NONE',  ( -5.442874662877130638E-17, 1.000000000000000000, -0.000000000000000000 ) ) ;
#84 = ADVANCED_BREP_SHAPE_REPRESENTATION ( '00617', ( #73, #182, #230 ), #38 ) ;
#85 =( GEOMETRIC_REPRESENTATION_CONTEXT ( 3 ) GLOBAL_UNCERTAINTY_ASSIGNED_CONTEXT ( ( #124 ) ) GLOBAL_UNIT_ASSIGNED_CONTEXT ( ( #63, #2, #219 ) ) REPRESENTATION_CONTEXT ( 'NONE', 'WORKASPACE' ) );
#86 = CYLINDRICAL_SURFACE ( 'NONE', #171, 0.3125000000000000000 ) ;
#87 = CARTESIAN_POINT ( 'NONE',  ( 0.000000000000000000, 0.000000000000000000, -0.3125000000000000000 ) ) ;
#88 = DIRECTION ( 'NONE',  ( -0.000000000000000000, -1.000000000000000000, -0.000000000000000000 ) ) ;
#89 = CIRCLE ( 'NONE', #92, 0.3125000000000000000 ) ;
#90 = CARTESIAN_POINT ( 'NONE',  ( 0.000000000000000000, 0.000000000000000000, 0.000000000000000000 ) ) ;
#91 = DIMENSIONAL_EXPONENTS ( 1.000000000000000000, 0.000000000000000000, 0.000000000000000000, 0.000000000000000000, 0.000000000000000000, 0.000000000000000000, 0.000000000000000000 ) ;
#92 = AXIS2_PLACEMENT_3D ( 'NONE', #170, #225, #203 ) ;
#93 = ADVANCED_FACE ( 'NONE', ( #94 ), #96, .T. ) ;
#94 = FACE_OUTER_BOUND ( 'NONE', #243, .T. ) ;
#95 = FACE_OUTER_BOUND ( 'NONE', #280, .T. ) ;
#96 = PLANE ( 'NONE',  #271 ) ;
#97 = ORIENTED_EDGE ( 'NONE', *, *, #16, .F. ) ;
#98 = COLOUR_RGB ( '',1.000000000000000000, 0.000000000000000000, 0.000000000000000000 ) ;
#99 = CARTESIAN_POINT ( 'NONE',  ( 0.3124999999999999445, 6.000000000000000888, 3.827021247335479543E-17 ) ) ;
#100 = AXIS2_PLACEMENT_3D ( 'NONE', #199, #276, #81 ) ;
#101 = CARTESIAN_POINT ( 'NONE',  ( 0.3125000000000000000, 3.750000000000000000, 3.827021247335479543E-17 ) ) ;
#102 = VERTEX_POINT ( 'NONE', #37 ) ;
#103 = FILL_AREA_STYLE_COLOUR ( '', #141 ) ;
#104 = LINE ( 'NONE', #15, #13 ) ;
#105 = PRESENTATION_LAYER_ASSIGNMENT (  '', '', ( #290 ) ) ;
#106 = EDGE_CURVE ( 'NONE', #51, #222, #179, .T. ) ;
#107 = DIRECTION ( 'NONE',  ( 0.000000000000000000, 0.000000000000000000, -1.000000000000000000 ) ) ;
#108 = COLOUR_RGB ( '',1.000000000000000000, 0.000000000000000000, 0.000000000000000000 ) ;
#109 = EDGE_CURVE ( 'NONE', #148, #202, #234, .T. ) ;
#110 = DIMENSIONAL_EXPONENTS ( 1.000000000000000000, 0.000000000000000000, 0.000000000000000000, 0.000000000000000000, 0.000000000000000000, 0.000000000000000000, 0.000000000000000000 ) ;
#111 = CARTESIAN_POINT ( 'NONE',  ( 0.000000000000000000, 0.000000000000000000, 0.000000000000000000 ) ) ;
#112 = APPLICATION_PROTOCOL_DEFINITION ( 'draft international standard', 'automotive_design', 1998, #25 ) ;
#113 = ADVANCED_FACE ( 'NONE', ( #207 ), #86, .T. ) ;
#114 =( LENGTH_UNIT ( ) NAMED_UNIT ( * ) SI_UNIT ( $, .METRE. ) );
#115 = SURFACE_STYLE_FILL_AREA ( #191 ) ;
#116 = LENGTH_MEASURE_WITH_UNIT ( LENGTH_MEASURE( 0.02539999999999999897 ), #76 );
#117 = ADVANCED_FACE ( 'NONE', ( #126 ), #59, .T. ) ;
#118 = LENGTH_MEASURE_WITH_UNIT ( LENGTH_MEASURE( 0.02539999999999999897 ), #288 );
#119 = SURFACE_STYLE_USAGE ( .BOTH. , #266 ) ;
#120 = VECTOR ( 'NONE', #136, 39.37007874015748143 ) ;
#121 = SURFACE_SIDE_STYLE ('',( #115 ) ) ;
#122 =( NAMED_UNIT ( * ) PLANE_ANGLE_UNIT ( ) SI_UNIT ( $, .RADIAN. ) );
#123 = ORIENTED_EDGE ( 'NONE', *, *, #55, .F. ) ;
#124 = UNCERTAINTY_MEASURE_WITH_UNIT (LENGTH_MEASURE( 1.000000000000000082E-05 ), #63, 'distance_accuracy_value', 'NONE');
#125 = ORIENTED_EDGE ( 'NONE', *, *, #106, .F. ) ;
#126 = FACE_OUTER_BOUND ( 'NONE', #293, .T. ) ;
#127 = STYLED_ITEM ( 'NONE', ( #178 ), #226 ) ;
#128 = PRESENTATION_STYLE_ASSIGNMENT (( #65 ) ) ;
#129 = SURFACE_STYLE_FILL_AREA ( #130 ) ;
#130 = FILL_AREA_STYLE ('',( #227 ) ) ;
#131 =( NAMED_UNIT ( * ) PLANE_ANGLE_UNIT ( ) SI_UNIT ( $, .RADIAN. ) );
#132 = ORIENTED_EDGE ( 'NONE', *, *, #155, .T. ) ;
#133 =( NAMED_UNIT ( * ) PLANE_ANGLE_UNIT ( ) SI_UNIT ( $, .RADIAN. ) );
#134 = PRESENTATION_LAYER_ASSIGNMENT (  '', '', ( #273 ) ) ;
#135 = SURFACE_STYLE_FILL_AREA ( #278 ) ;
#136 = DIRECTION ( 'NONE',  ( -0.000000000000000000, -1.000000000000000000, -0.000000000000000000 ) ) ;
#137 = FACE_OUTER_BOUND ( 'NONE', #40, .T. ) ;
#138 = MECHANICAL_DESIGN_GEOMETRIC_PRESENTATION_REPRESENTATION (  '', ( #273 ), #85 ) ;
#139 = CIRCLE ( 'NONE', #21, 0.3125000000000000000 ) ;
#140 = DIRECTION ( 'NONE',  ( 1.000000000000000000, 0.000000000000000000, 0.000000000000000000 ) ) ;
#141 = COLOUR_RGB ( '',0.7921568627450980005, 0.8196078431372548767, 0.9333333333333333481 ) ;
#142 =( GEOMETRIC_REPRESENTATION_CONTEXT ( 3 ) GLOBAL_UNCERTAINTY_ASSIGNED_CONTEXT ( ( #167 ) ) GLOBAL_UNIT_ASSIGNED_CONTEXT ( ( #156, #133, #43 ) ) REPRESENTATION_CONTEXT ( 'NONE', 'WORKASPACE' ) );
#143 = ORIENTED_EDGE ( 'NONE', *, *, #305, .T. ) ;
#144 = PLANE ( 'NONE',  #181 ) ;
#145 = CARTESIAN_POINT ( 'NONE',  ( 4.628888218092162582E-34, 3.750000000000000000, 0.000000000000000000 ) ) ;
#146 =( GEOMETRIC_REPRESENTATION_CONTEXT ( 3 ) GLOBAL_UNCERTAINTY_ASSIGNED_CONTEXT ( ( #308 ) ) GLOBAL_UNIT_ASSIGNED_CONTEXT ( ( #274, #131, #201 ) ) REPRESENTATION_CONTEXT ( 'NONE', 'WORKASPACE' ) );
#147 =( NAMED_UNIT ( * ) PLANE_ANGLE_UNIT ( ) SI_UNIT ( $, .RADIAN. ) );
#148 = VERTEX_POINT ( 'NONE', #197 ) ;
#149 = CARTESIAN_POINT ( 'NONE',  ( 0.000000000000000000, 0.000000000000000000, 0.000000000000000000 ) ) ;
#150 = ADVANCED_FACE ( 'NONE', ( #29 ), #144, .F. ) ;
#151 = DIRECTION ( 'NONE',  ( 0.000000000000000000, 0.000000000000000000, -1.000000000000000000 ) ) ;
#152 = ORIENTED_EDGE ( 'NONE', *, *, #5, .F. ) ;
#153 = SURFACE_SIDE_STYLE ('',( #129 ) ) ;
#154 = SURFACE_STYLE_USAGE ( .BOTH. , #153 ) ;
#155 = EDGE_CURVE ( 'NONE', #14, #202, #292, .T. ) ;
#156 =( CONVERSION_BASED_UNIT ( 'INCH', #279 ) LENGTH_UNIT ( ) NAMED_UNIT ( #183 ) );
#157 = DIRECTION ( 'NONE',  ( -0.000000000000000000, -1.000000000000000000, -0.000000000000000000 ) ) ;
#158 =( NAMED_UNIT ( * ) SI_UNIT ( $, .STERADIAN. ) SOLID_ANGLE_UNIT ( ) );
#159 = AXIS2_PLACEMENT_3D ( 'NONE', #239, #33, #78 ) ;
#160 = DIRECTION ( 'NONE',  ( 5.442874662877130022E-17, -1.000000000000000000, 0.000000000000000000 ) ) ;
#161 = PRODUCT_DEFINITION ( 'UNKNOWN', '', #306, #187 ) ;
#162 = AXIS2_PLACEMENT_3D ( 'NONE', #289, #307, #174 ) ;
#163 = MECHANICAL_DESIGN_GEOMETRIC_PRESENTATION_REPRESENTATION (  '', ( #54 ), #12 ) ;
#164 = AXIS2_PLACEMENT_3D ( 'NONE', #296, #83, #233 ) ;
#165 = DIRECTION ( 'NONE',  ( 0.000000000000000000, 1.000000000000000000, 0.000000000000000000 ) ) ;
#166 = ORIENTED_EDGE ( 'NONE', *, *, #155, .F. ) ;
#167 = UNCERTAINTY_MEASURE_WITH_UNIT (LENGTH_MEASURE( 1.000000000000000082E-05 ), #156, 'distance_accuracy_value', 'NONE');
#168 = ORIENTED_EDGE ( 'NONE', *, *, #195, .T. ) ;
#169 =( CONVERSION_BASED_UNIT ( 'INCH', #50 ) LENGTH_UNIT ( ) NAMED_UNIT ( #257 ) );
#170 = CARTESIAN_POINT ( 'NONE',  ( 1.516480271171051896E-32, 3.750000000000000000, 0.000000000000000000 ) ) ;
#171 = AXIS2_PLACEMENT_3D ( 'NONE', #149, #287, #151 ) ;
#172 = ORIENTED_EDGE ( 'NONE', *, *, #281, .T. ) ;
#173 = DIRECTION ( 'NONE',  ( -5.442874662877130638E-17, 1.000000000000000000, -0.000000000000000000 ) ) ;
#174 = DIRECTION ( 'NONE',  ( 0.000000000000000000, 0.000000000000000000, -1.000000000000000000 ) ) ;
#175 = LENGTH_MEASURE_WITH_UNIT ( LENGTH_MEASURE( 0.02539999999999999897 ), #228 );
#176 = CARTESIAN_POINT ( 'NONE',  ( 3.827021247335478926E-17, 0.000000000000000000, 0.3125000000000000000 ) ) ;
#177 = CARTESIAN_POINT ( 'NONE',  ( -1.224646799147354440E-16, 6.000000000000000888, 0.000000000000000000 ) ) ;
#178 = PRESENTATION_STYLE_ASSIGNMENT (( #154 ) ) ;
#179 = LINE ( 'NONE', #297, #265 ) ;
#180 = CARTESIAN_POINT ( 'NONE',  ( -0.3125000000000000000, 3.750000000000000000, 0.000000000000000000 ) ) ;
#181 = AXIS2_PLACEMENT_3D ( 'NONE', #145, #8, #26 ) ;
#182 = MANIFOLD_SOLID_BREP ( 'Revolve - Tool Body (Straight Shanked)', #309 ) ;
#183 = DIMENSIONAL_EXPONENTS ( 1.000000000000000000, 0.000000000000000000, 0.000000000000000000, 0.000000000000000000, 0.000000000000000000, 0.000000000000000000, 0.000000000000000000 ) ;
#184 = PRODUCT_DEFINITION_SHAPE ( 'NONE', 'NONE',  #161 ) ;
#185 = CIRCLE ( 'NONE', #71, 0.3125000000000000000 ) ;
#186 = DIRECTION ( 'NONE',  ( -5.442874662877130638E-17, 1.000000000000000000, -0.000000000000000000 ) ) ;
#187 = PRODUCT_DEFINITION_CONTEXT ( 'detailed design', #247, 'design' ) ;
#188 = PRESENTATION_STYLE_ASSIGNMENT (( #119 ) ) ;
#189 = AXIS2_PLACEMENT_3D ( 'NONE', #242, #186, #24 ) ;
#190 =( GEOMETRIC_REPRESENTATION_CONTEXT ( 3 ) GLOBAL_UNCERTAINTY_ASSIGNED_CONTEXT ( ( #22 ) ) GLOBAL_UNIT_ASSIGNED_CONTEXT ( ( #262, #52, #267 ) ) REPRESENTATION_CONTEXT ( 'NONE', 'WORKASPACE' ) );
#191 = FILL_AREA_STYLE ('',( #28 ) ) ;
#192 = CARTESIAN_POINT ( 'NONE',  ( 1.516480271171051896E-32, 3.750000000000000000, 0.000000000000000000 ) ) ;
#193 = FILL_AREA_STYLE_COLOUR ( '', #30 ) ;
#194 = CARTESIAN_POINT ( 'NONE',  ( 0.3125000000000000000, 6.000000000000000888, 3.827021247335479543E-17 ) ) ;
#195 = EDGE_CURVE ( 'NONE', #220, #14, #251, .T. ) ;
#196 = EDGE_LOOP ( 'NONE', ( #261, #4 ) ) ;
#197 = CARTESIAN_POINT ( 'NONE',  ( -0.3125000000000002776, 6.000000000000000888, 0.000000000000000000 ) ) ;
#198 = EDGE_LOOP ( 'NONE', ( #60, #31 ) ) ;
#199 = CARTESIAN_POINT ( 'NONE',  ( 0.000000000000000000, 3.750000000000000000, 0.000000000000000000 ) ) ;
#200 = CARTESIAN_POINT ( 'NONE',  ( 0.3125000000000000000, 6.000000000000000888, 0.000000000000000000 ) ) ;
#201 =( NAMED_UNIT ( * ) SI_UNIT ( $, .STERADIAN. ) SOLID_ANGLE_UNIT ( ) );
#202 = VERTEX_POINT ( 'NONE', #194 ) ;
#203 = DIRECTION ( 'NONE',  ( -1.000000000000000000, 0.000000000000000000, 0.000000000000000000 ) ) ;
#204 = DIRECTION ( 'NONE',  ( 0.000000000000000000, 0.000000000000000000, -1.000000000000000000 ) ) ;
#205 = FACE_OUTER_BOUND ( 'NONE', #235, .T. ) ;
#206 = MECHANICAL_DESIGN_GEOMETRIC_PRESENTATION_REPRESENTATION (  '', ( #45 ), #70 ) ;
#207 = FACE_OUTER_BOUND ( 'NONE', #218, .T. ) ;
#208 =( CONVERSION_BASED_UNIT ( 'INCH', #294 ) LENGTH_UNIT ( ) NAMED_UNIT ( #283 ) );
#209 = EDGE_CURVE ( 'NONE', #14, #220, #89, .T. ) ;
#210 = AXIS2_PLACEMENT_3D ( 'NONE', #72, #165, #217 ) ;
#211 = COLOUR_RGB ( '',1.000000000000000000, 0.000000000000000000, 0.000000000000000000 ) ;
#212 = FILL_AREA_STYLE ('',( #259 ) ) ;
#213 = VECTOR ( 'NONE', #223, 39.37007874015748143 ) ;
#214 = PRESENTATION_LAYER_ASSIGNMENT (  '', '', ( #127 ) ) ;
#215 = DIRECTION ( 'NONE',  ( 0.000000000000000000, 0.000000000000000000, 1.000000000000000000 ) ) ;
#216 = PRESENTATION_STYLE_ASSIGNMENT (( #53 ) ) ;
#217 = DIRECTION ( 'NONE',  ( 0.000000000000000000, -0.000000000000000000, 1.000000000000000000 ) ) ;
#218 = EDGE_LOOP ( 'NONE', ( #80, #143, #245, #97 ) ) ;
#219 =( NAMED_UNIT ( * ) SI_UNIT ( $, .STERADIAN. ) SOLID_ANGLE_UNIT ( ) );
#220 = VERTEX_POINT ( 'NONE', #180 ) ;
#221 = ORIENTED_EDGE ( 'NONE', *, *, #16, .T. ) ;
#222 = VERTEX_POINT ( 'NONE', #87 ) ;
#223 = DIRECTION ( 'NONE',  ( -5.442874662877130022E-17, 1.000000000000000000, -0.000000000000000000 ) ) ;
#224 = AXIS2_PLACEMENT_3D ( 'NONE', #192, #173, #263 ) ;
#225 = DIRECTION ( 'NONE',  ( -5.442874662877130638E-17, 1.000000000000000000, -0.000000000000000000 ) ) ;
#226 = ADVANCED_FACE ( 'NONE', ( #205 ), #255, .T. ) ;
#227 = FILL_AREA_STYLE_COLOUR ( '', #211 ) ;
#228 =( LENGTH_UNIT ( ) NAMED_UNIT ( * ) SI_UNIT ( $, .METRE. ) );
#229 = COLOUR_RGB ( '',1.000000000000000000, 0.000000000000000000, 0.000000000000000000 ) ;
#230 = AXIS2_PLACEMENT_3D ( 'NONE', #238, #215, #140 ) ;
#231 = LINE ( 'NONE', #176, #120 ) ;
#232 = ADVANCED_FACE ( 'NONE', ( #137 ), #41, .T. ) ;
#233 = DIRECTION ( 'NONE',  ( -1.000000000000000000, 0.000000000000000000, 0.000000000000000000 ) ) ;
#234 = CIRCLE ( 'NONE', #36, 0.3125000000000001665 ) ;
#235 = EDGE_LOOP ( 'NONE', ( #34, #275, #123, #125 ) ) ;
#236 = PRODUCT_CONTEXT ( 'NONE', #25, 'mechanical' ) ;
#237 = PRESENTATION_LAYER_ASSIGNMENT (  '', '', ( #77 ) ) ;
#238 = CARTESIAN_POINT ( 'NONE',  ( 0.000000000000000000, 0.000000000000000000, 0.000000000000000000 ) ) ;
#239 = CARTESIAN_POINT ( 'NONE',  ( -1.224646799147354440E-16, 6.000000000000000888, 0.000000000000000000 ) ) ;
#240 = SURFACE_STYLE_FILL_AREA ( #75 ) ;
#241 = CLOSED_SHELL ( 'NONE', ( #226, #27, #113, #93 ) ) ;
#242 = CARTESIAN_POINT ( 'NONE',  ( -1.224646799147354440E-16, 6.000000000000000888, 0.000000000000000000 ) ) ;
#243 = EDGE_LOOP ( 'NONE', ( #7, #221 ) ) ;
#244 = CIRCLE ( 'NONE', #100, 0.3125000000000000000 ) ;
#245 = ORIENTED_EDGE ( 'NONE', *, *, #106, .T. ) ;
#246 = SURFACE_STYLE_USAGE ( .BOTH. , #284 ) ;
#247 = APPLICATION_CONTEXT ( 'automotive_design' ) ;
#248 = ORIENTED_EDGE ( 'NONE', *, *, #299, .F. ) ;
#249 = SURFACE_STYLE_FILL_AREA ( #212 ) ;
#250 = PRESENTATION_LAYER_ASSIGNMENT (  '', '', ( #54 ) ) ;
#251 = CIRCLE ( 'NONE', #224, 0.3125000000000000000 ) ;
#252 = CARTESIAN_POINT ( 'NONE',  ( 3.827021247335478926E-17, 3.750000000000000000, 0.3125000000000000000 ) ) ;
#253 = PRODUCT_RELATED_PRODUCT_CATEGORY ( 'part', '', ( #69 ) ) ;
#254 = SURFACE_SIDE_STYLE ('',( #135 ) ) ;
#255 = CYLINDRICAL_SURFACE ( 'NONE', #48, 0.3125000000000000000 ) ;
#256 = ORIENTED_EDGE ( 'NONE', *, *, #305, .F. ) ;
#257 = DIMENSIONAL_EXPONENTS ( 1.000000000000000000, 0.000000000000000000, 0.000000000000000000, 0.000000000000000000, 0.000000000000000000, 0.000000000000000000, 0.000000000000000000 ) ;
#258 = MECHANICAL_DESIGN_GEOMETRIC_PRESENTATION_REPRESENTATION (  '', ( #127 ), #142 ) ;
#259 = FILL_AREA_STYLE_COLOUR ( '', #108 ) ;
#260 = FACE_OUTER_BOUND ( 'NONE', #198, .T. ) ;
#261 = ORIENTED_EDGE ( 'NONE', *, *, #195, .F. ) ;
#262 =( CONVERSION_BASED_UNIT ( 'INCH', #116 ) LENGTH_UNIT ( ) NAMED_UNIT ( #110 ) );
#263 = DIRECTION ( 'NONE',  ( -1.000000000000000000, 0.000000000000000000, 0.000000000000000000 ) ) ;
#264 =( CONVERSION_BASED_UNIT ( 'INCH', #118 ) LENGTH_UNIT ( ) NAMED_UNIT ( #19 ) );
#265 = VECTOR ( 'NONE', #157, 39.37007874015748143 ) ;
#266 = SURFACE_SIDE_STYLE ('',( #1 ) ) ;
#267 =( NAMED_UNIT ( * ) SI_UNIT ( $, .STERADIAN. ) SOLID_ANGLE_UNIT ( ) );
#268 = DIRECTION ( 'NONE',  ( 0.000000000000000000, -1.000000000000000000, -0.000000000000000000 ) ) ;
#269 = ORIENTED_EDGE ( 'NONE', *, *, #109, .F. ) ;
#270 = FILL_AREA_STYLE_COLOUR ( '', #98 ) ;
#271 = AXIS2_PLACEMENT_3D ( 'NONE', #90, #268, #204 ) ;
#272 = CARTESIAN_POINT ( 'NONE',  ( 0.000000000000000000, 3.750000000000000000, 0.000000000000000000 ) ) ;
#273 = STYLED_ITEM ( 'NONE', ( #128 ), #113 ) ;
#274 =( CONVERSION_BASED_UNIT ( 'INCH', #175 ) LENGTH_UNIT ( ) NAMED_UNIT ( #91 ) );
#275 = ORIENTED_EDGE ( 'NONE', *, *, #277, .T. ) ;
#276 = DIRECTION ( 'NONE',  ( -0.000000000000000000, -1.000000000000000000, -0.000000000000000000 ) ) ;
#277 = EDGE_CURVE ( 'NONE', #291, #102, #231, .T. ) ;
#278 = FILL_AREA_STYLE ('',( #270 ) ) ;
#279 = LENGTH_MEASURE_WITH_UNIT ( LENGTH_MEASURE( 0.02539999999999999897 ), #298 );
#280 = EDGE_LOOP ( 'NONE', ( #248, #256 ) ) ;
#281 = EDGE_CURVE ( 'NONE', #220, #148, #104, .T. ) ;
#282 = PRESENTATION_LAYER_ASSIGNMENT (  '', '', ( #45 ) ) ;
#283 = DIMENSIONAL_EXPONENTS ( 1.000000000000000000, 0.000000000000000000, 0.000000000000000000, 0.000000000000000000, 0.000000000000000000, 0.000000000000000000, 0.000000000000000000 ) ;
#284 = SURFACE_SIDE_STYLE ('',( #240 ) ) ;
#285 = PLANE ( 'NONE',  #210 ) ;
#286 = ORIENTED_EDGE ( 'NONE', *, *, #281, .F. ) ;
#287 = DIRECTION ( 'NONE',  ( -0.000000000000000000, -1.000000000000000000, -0.000000000000000000 ) ) ;
#288 =( LENGTH_UNIT ( ) NAMED_UNIT ( * ) SI_UNIT ( $, .METRE. ) );
#289 = CARTESIAN_POINT ( 'NONE',  ( 0.000000000000000000, 0.000000000000000000, 0.000000000000000000 ) ) ;
#290 = STYLED_ITEM ( 'NONE', ( #11 ), #93 ) ;
#291 = VERTEX_POINT ( 'NONE', #252 ) ;
#292 = LINE ( 'NONE', #99, #213 ) ;
#293 = EDGE_LOOP ( 'NONE', ( #168, #132, #269, #286 ) ) ;
#294 = LENGTH_MEASURE_WITH_UNIT ( LENGTH_MEASURE( 0.02539999999999999897 ), #66 );
#295 = DIRECTION ( 'NONE',  ( -1.000000000000000000, 0.000000000000000000, 0.000000000000000000 ) ) ;
#296 = CARTESIAN_POINT ( 'NONE',  ( -1.224646799147354440E-16, 6.000000000000000888, 0.000000000000000000 ) ) ;
#297 = CARTESIAN_POINT ( 'NONE',  ( 0.000000000000000000, 0.000000000000000000, -0.3125000000000000000 ) ) ;
#298 =( LENGTH_UNIT ( ) NAMED_UNIT ( * ) SI_UNIT ( $, .METRE. ) );
#299 = EDGE_CURVE ( 'NONE', #51, #291, #244, .T. ) ;
#300 =( NAMED_UNIT ( * ) PLANE_ANGLE_UNIT ( ) SI_UNIT ( $, .RADIAN. ) );
#301 = DIMENSIONAL_EXPONENTS ( 1.000000000000000000, 0.000000000000000000, 0.000000000000000000, 0.000000000000000000, 0.000000000000000000, 0.000000000000000000, 0.000000000000000000 ) ;
#302 = CARTESIAN_POINT ( 'NONE',  ( 0.000000000000000000, 0.000000000000000000, 0.000000000000000000 ) ) ;
#303 = CIRCLE ( 'NONE', #162, 0.3125000000000000000 ) ;
#304 = SURFACE_STYLE_USAGE ( .BOTH. , #67 ) ;
#305 = EDGE_CURVE ( 'NONE', #291, #51, #139, .T. ) ;
#306 = PRODUCT_DEFINITION_FORMATION_WITH_SPECIFIED_SOURCE ( 'ANY', '', #69, .NOT_KNOWN. ) ;
#307 = DIRECTION ( 'NONE',  ( -0.000000000000000000, -1.000000000000000000, -0.000000000000000000 ) ) ;
#308 = UNCERTAINTY_MEASURE_WITH_UNIT (LENGTH_MEASURE( 1.000000000000000082E-05 ), #274, 'distance_accuracy_value', 'NONE');
#309 = CLOSED_SHELL ( 'NONE', ( #117, #150, #232, #32 ) ) ;
ENDSEC;
END-ISO-10303-21;
