ISO-10303-21;
HEADER;
FILE_DESCRIPTION (( 'STEP AP214' ),
    '1' );
FILE_NAME ('49120.STEP',
    '2023-06-30T21:57:46',
    ( '' ),
    ( '' ),
    'SwSTEP 2.0',
    'SolidWorks 2023',
    '' );
FILE_SCHEMA (( 'AUTOMOTIVE_DESIGN' ));
ENDSEC;

DATA;
#1 = AXIS2_PLACEMENT_3D ( 'NONE', #182, #333, #12 ) ;
#2 = VERTEX_POINT ( 'NONE', #145 ) ;
#3 = CARTESIAN_POINT ( 'NONE',  ( -1.530808498934191509E-17, 0.1250000000000000000, 0.000000000000000000 ) ) ;
#4 = STYLED_ITEM ( 'NONE', ( #160 ), #179 ) ;
#5 = DIRECTION ( 'NONE',  ( -1.224646799147353700E-16, 1.000000000000000000, -0.000000000000000000 ) ) ;
#6 = AXIS2_PLACEMENT_3D ( 'NONE', #23, #141, #247 ) ;
#7 = PRODUCT_CONTEXT ( 'NONE', #94, 'mechanical' ) ;
#8 = CARTESIAN_POINT ( 'NONE',  ( 0.000000000000000000, 1.000000000000000000, -0.1249999999999998751 ) ) ;
#9 =( CONVERSION_BASED_UNIT ( 'INCH', #64 ) LENGTH_UNIT ( ) NAMED_UNIT ( #202 ) );
#10 = DIMENSIONAL_EXPONENTS ( 1.000000000000000000, 0.000000000000000000, 0.000000000000000000, 0.000000000000000000, 0.000000000000000000, 0.000000000000000000, 0.000000000000000000 ) ;
#11 = AXIS2_PLACEMENT_3D ( 'NONE', #250, #189, #27 ) ;
#12 = DIRECTION ( 'NONE',  ( -1.000000000000000000, 0.000000000000000000, 0.000000000000000000 ) ) ;
#13 = CARTESIAN_POINT ( 'NONE',  ( 0.1249999999999997641, 3.000000000000000444, 1.530808498934189352E-17 ) ) ;
#14 = FACE_OUTER_BOUND ( 'NONE', #105, .T. ) ;
#15 = CARTESIAN_POINT ( 'NONE',  ( 0.000000000000000000, 1.000000000000000000, 0.000000000000000000 ) ) ;
#16 =( LENGTH_UNIT ( ) NAMED_UNIT ( * ) SI_UNIT ( $, .METRE. ) );
#17 =( GEOMETRIC_REPRESENTATION_CONTEXT ( 3 ) GLOBAL_UNCERTAINTY_ASSIGNED_CONTEXT ( ( #225 ) ) GLOBAL_UNIT_ASSIGNED_CONTEXT ( ( #190, #272, #158 ) ) REPRESENTATION_CONTEXT ( 'NONE', 'WORKASPACE' ) );
#18 = COLOUR_RGB ( '',1.000000000000000000, 0.000000000000000000, 0.000000000000000000 ) ;
#19 = STYLED_ITEM ( 'NONE', ( #343 ), #289 ) ;
#20 = CYLINDRICAL_SURFACE ( 'NONE', #134, 0.1249999999999999306 ) ;
#21 = DIRECTION ( 'NONE',  ( -0.000000000000000000, -1.000000000000000000, -0.000000000000000000 ) ) ;
#22 = CARTESIAN_POINT ( 'NONE',  ( 0.000000000000000000, 0.1250000000000000278, -0.1250000000000000000 ) ) ;
#23 = CARTESIAN_POINT ( 'NONE',  ( 1.836970198721030427E-16, 1.000000000000000000, 0.000000000000000000 ) ) ;
#24 = ORIENTED_EDGE ( 'NONE', *, *, #306, .F. ) ;
#25 = ORIENTED_EDGE ( 'NONE', *, *, #246, .F. ) ;
#26 = UNCERTAINTY_MEASURE_WITH_UNIT (LENGTH_MEASURE( 1.000000000000000082E-05 ), #28, 'distance_accuracy_value', 'NONE');
#27 = DIRECTION ( 'NONE',  ( 1.000000000000000000, 0.000000000000000000, -1.224646799147353207E-16 ) ) ;
#28 =( CONVERSION_BASED_UNIT ( 'INCH', #284 ) LENGTH_UNIT ( ) NAMED_UNIT ( #206 ) );
#29 = PLANE ( 'NONE',  #177 ) ;
#30 = EDGE_CURVE ( 'NONE', #74, #67, #296, .T. ) ;
#31 =( NAMED_UNIT ( * ) SI_UNIT ( $, .STERADIAN. ) SOLID_ANGLE_UNIT ( ) );
#32 = DIRECTION ( 'NONE',  ( 1.000000000000000000, 0.000000000000000000, 0.000000000000000000 ) ) ;
#33 = CIRCLE ( 'NONE', #6, 0.1249999999999997086 ) ;
#34 = AXIS2_PLACEMENT_3D ( 'NONE', #286, #199, #194 ) ;
#35 = DIRECTION ( 'NONE',  ( -1.000000000000000000, 0.000000000000000000, 0.000000000000000000 ) ) ;
#36 = FILL_AREA_STYLE ('',( #265 ) ) ;
#37 =( NAMED_UNIT ( * ) SI_UNIT ( $, .STERADIAN. ) SOLID_ANGLE_UNIT ( ) );
#38 = DIRECTION ( 'NONE',  ( 0.000000000000000000, 1.000000000000000000, 0.000000000000000000 ) ) ;
#39 = MECHANICAL_DESIGN_GEOMETRIC_PRESENTATION_REPRESENTATION (  '', ( #226 ), #264 ) ;
#40 = ORIENTED_EDGE ( 'NONE', *, *, #198, .F. ) ;
#41 =( NAMED_UNIT ( * ) PLANE_ANGLE_UNIT ( ) SI_UNIT ( $, .RADIAN. ) );
#42 = ORIENTED_EDGE ( 'NONE', *, *, #258, .F. ) ;
#43 =( LENGTH_UNIT ( ) NAMED_UNIT ( * ) SI_UNIT ( $, .METRE. ) );
#44 = PRESENTATION_STYLE_ASSIGNMENT (( #210 ) ) ;
#45 = SURFACE_SIDE_STYLE ('',( #185 ) ) ;
#46 =( CONVERSION_BASED_UNIT ( 'INCH', #239 ) LENGTH_UNIT ( ) NAMED_UNIT ( #242 ) );
#47 = MECHANICAL_DESIGN_GEOMETRIC_PRESENTATION_REPRESENTATION (  '', ( #58 ), #327 ) ;
#48 = CARTESIAN_POINT ( 'NONE',  ( -6.123233995736772199E-17, 3.000000000000000444, 0.000000000000000000 ) ) ;
#49 = CARTESIAN_POINT ( 'NONE',  ( -1.530808498934191509E-17, 0.1250000000000000000, 0.000000000000000000 ) ) ;
#50 = DIMENSIONAL_EXPONENTS ( 1.000000000000000000, 0.000000000000000000, 0.000000000000000000, 0.000000000000000000, 0.000000000000000000, 0.000000000000000000, 0.000000000000000000 ) ;
#51 = ORIENTED_EDGE ( 'NONE', *, *, #353, .F. ) ;
#52 = PRESENTATION_STYLE_ASSIGNMENT (( #281 ) ) ;
#53 = MECHANICAL_DESIGN_GEOMETRIC_PRESENTATION_REPRESENTATION (  '', ( #175 ), #89 ) ;
#54 = DIRECTION ( 'NONE',  ( 1.000000000000000000, 0.000000000000000000, 0.000000000000000000 ) ) ;
#55 = EDGE_LOOP ( 'NONE', ( #215, #357, #40, #249 ) ) ;
#56 = FACE_OUTER_BOUND ( 'NONE', #102, .T. ) ;
#57 =( GEOMETRIC_REPRESENTATION_CONTEXT ( 3 ) GLOBAL_UNCERTAINTY_ASSIGNED_CONTEXT ( ( #252 ) ) GLOBAL_UNIT_ASSIGNED_CONTEXT ( ( #46, #75, #159 ) ) REPRESENTATION_CONTEXT ( 'NONE', 'WORKASPACE' ) );
#58 = STYLED_ITEM ( 'NONE', ( #66 ), #92 ) ;
#59 =( CONVERSION_BASED_UNIT ( 'INCH', #323 ) LENGTH_UNIT ( ) NAMED_UNIT ( #10 ) );
#60 = EDGE_CURVE ( 'NONE', #77, #301, #230, .T. ) ;
#61 = CARTESIAN_POINT ( 'NONE',  ( 1.530808498934190585E-17, 1.000000000000000000, 0.1249999999999998751 ) ) ;
#62 = PRODUCT_DEFINITION ( 'UNKNOWN', '', #200, #84 ) ;
#63 = VECTOR ( 'NONE', #91, 39.37007874015748143 ) ;
#64 = LENGTH_MEASURE_WITH_UNIT ( LENGTH_MEASURE( 0.02539999999999999897 ), #224 );
#65 = ADVANCED_FACE ( 'NONE', ( #171 ), #82, .T. ) ;
#66 = PRESENTATION_STYLE_ASSIGNMENT (( #232 ) ) ;
#67 = VERTEX_POINT ( 'NONE', #126 ) ;
#68 =( LENGTH_UNIT ( ) NAMED_UNIT ( * ) SI_UNIT ( $, .METRE. ) );
#69 = PRODUCT_DEFINITION_SHAPE ( 'NONE', 'NONE',  #62 ) ;
#70 = DIMENSIONAL_EXPONENTS ( 1.000000000000000000, 0.000000000000000000, 0.000000000000000000, 0.000000000000000000, 0.000000000000000000, 0.000000000000000000, 0.000000000000000000 ) ;
#71 = PRESENTATION_LAYER_ASSIGNMENT (  '', '', ( #111 ) ) ;
#72 = PRESENTATION_LAYER_ASSIGNMENT (  '', '', ( #4 ) ) ;
#73 = DIRECTION ( 'NONE',  ( 0.000000000000000000, 0.000000000000000000, -1.000000000000000000 ) ) ;
#74 = VERTEX_POINT ( 'NONE', #154 ) ;
#75 =( NAMED_UNIT ( * ) PLANE_ANGLE_UNIT ( ) SI_UNIT ( $, .RADIAN. ) );
#76 = SURFACE_STYLE_FILL_AREA ( #214 ) ;
#77 = VERTEX_POINT ( 'NONE', #61 ) ;
#78 = PRODUCT ( '49120', '49120', '', ( #7 ) ) ;
#79 = DIRECTION ( 'NONE',  ( 0.000000000000000000, 0.000000000000000000, 1.000000000000000000 ) ) ;
#80 = CIRCLE ( 'NONE', #285, 0.1249999999999999445 ) ;
#81 = FILL_AREA_STYLE ('',( #106 ) ) ;
#82 = PLANE ( 'NONE',  #255 ) ;
#83 = SURFACE_SIDE_STYLE ('',( #221 ) ) ;
#84 = PRODUCT_DEFINITION_CONTEXT ( 'detailed design', #321, 'design' ) ;
#85 = CARTESIAN_POINT ( 'NONE',  ( 0.000000000000000000, 1.000000000000000000, 0.000000000000000000 ) ) ;
#86 = DIRECTION ( 'NONE',  ( -1.000000000000000000, -1.224646799147353700E-16, 0.000000000000000000 ) ) ;
#87 = AXIS2_PLACEMENT_3D ( 'NONE', #113, #334, #310 ) ;
#88 = UNCERTAINTY_MEASURE_WITH_UNIT (LENGTH_MEASURE( 1.000000000000000082E-05 ), #341, 'distance_accuracy_value', 'NONE');
#89 =( GEOMETRIC_REPRESENTATION_CONTEXT ( 3 ) GLOBAL_UNCERTAINTY_ASSIGNED_CONTEXT ( ( #88 ) ) GLOBAL_UNIT_ASSIGNED_CONTEXT ( ( #341, #347, #114 ) ) REPRESENTATION_CONTEXT ( 'NONE', 'WORKASPACE' ) );
#90 = ORIENTED_EDGE ( 'NONE', *, *, #246, .T. ) ;
#91 = DIRECTION ( 'NONE',  ( -1.224646799147353700E-16, 1.000000000000000000, -0.000000000000000000 ) ) ;
#92 = MANIFOLD_SOLID_BREP ( 'Revolve - Tool Body (Straight Shanked)', #100 ) ;
#93 = SURFACE_STYLE_FILL_AREA ( #320 ) ;
#94 = APPLICATION_CONTEXT ( 'automotive_design' ) ;
#95 =( LENGTH_UNIT ( ) NAMED_UNIT ( * ) SI_UNIT ( $, .METRE. ) );
#96 = FILL_AREA_STYLE_COLOUR ( '', #152 ) ;
#97 = CARTESIAN_POINT ( 'NONE',  ( 0.000000000000000000, 0.1250000000000000278, 0.000000000000000000 ) ) ;
#98 = ORIENTED_EDGE ( 'NONE', *, *, #204, .F. ) ;
#99 = FILL_AREA_STYLE_COLOUR ( '', #172 ) ;
#100 = CLOSED_SHELL ( 'NONE', ( #192, #277, #298, #372 ) ) ;
#101 = PRESENTATION_STYLE_ASSIGNMENT (( #308 ) ) ;
#102 = EDGE_LOOP ( 'NONE', ( #98, #222 ) ) ;
#103 = DIRECTION ( 'NONE',  ( -0.000000000000000000, -1.000000000000000000, -0.000000000000000000 ) ) ;
#104 = SURFACE_SIDE_STYLE ('',( #76 ) ) ;
#105 = EDGE_LOOP ( 'NONE', ( #220, #138, #245, #275, #25 ) ) ;
#106 = FILL_AREA_STYLE_COLOUR ( '', #305 ) ;
#107 = FACE_OUTER_BOUND ( 'NONE', #166, .T. ) ;
#108 = ADVANCED_FACE ( 'NONE', ( #355 ), #318, .T. ) ;
#109 = CARTESIAN_POINT ( 'NONE',  ( -6.123233995736772199E-17, 3.000000000000000444, 0.000000000000000000 ) ) ;
#110 = VECTOR ( 'NONE', #128, 39.37007874015748143 ) ;
#111 = STYLED_ITEM ( 'NONE', ( #178 ), #108 ) ;
#112 = VERTEX_POINT ( 'NONE', #164 ) ;
#113 = CARTESIAN_POINT ( 'NONE',  ( 0.1249999999999998751, 3.000000000000000444, 0.000000000000000000 ) ) ;
#114 =( NAMED_UNIT ( * ) SI_UNIT ( $, .STERADIAN. ) SOLID_ANGLE_UNIT ( ) );
#115 = ORIENTED_EDGE ( 'NONE', *, *, #136, .F. ) ;
#116 = FILL_AREA_STYLE ('',( #276 ) ) ;
#117 = PLANE ( 'NONE',  #87 ) ;
#118 = ORIENTED_EDGE ( 'NONE', *, *, #325, .F. ) ;
#119 =( GEOMETRIC_REPRESENTATION_CONTEXT ( 3 ) GLOBAL_UNCERTAINTY_ASSIGNED_CONTEXT ( ( #223 ) ) GLOBAL_UNIT_ASSIGNED_CONTEXT ( ( #59, #288, #31 ) ) REPRESENTATION_CONTEXT ( 'NONE', 'WORKASPACE' ) );
#120 = DIRECTION ( 'NONE',  ( 0.000000000000000000, 0.000000000000000000, 1.000000000000000000 ) ) ;
#121 = CIRCLE ( 'NONE', #153, 0.1250000000000000000 ) ;
#122 = PRESENTATION_LAYER_ASSIGNMENT (  '', '', ( #58 ) ) ;
#123 = STYLED_ITEM ( 'NONE', ( #101 ), #312 ) ;
#124 = CARTESIAN_POINT ( 'NONE',  ( 0.000000000000000000, 0.000000000000000000, 0.000000000000000000 ) ) ;
#125 = SHAPE_DEFINITION_REPRESENTATION ( #69, #209 ) ;
#126 = CARTESIAN_POINT ( 'NONE',  ( -7.654042494670957545E-18, 0.000000000000000000, 0.000000000000000000 ) ) ;
#127 = CIRCLE ( 'NONE', #337, 0.1250000000000000000 ) ;
#128 = DIRECTION ( 'NONE',  ( -1.224646799147353700E-16, 1.000000000000000000, -0.000000000000000000 ) ) ;
#129 = EDGE_LOOP ( 'NONE', ( #309, #340, #42, #361, #24 ) ) ;
#130 = EDGE_CURVE ( 'NONE', #77, #157, #266, .T. ) ;
#131 = CIRCLE ( 'NONE', #342, 0.1250000000000000000 ) ;
#132 = EDGE_LOOP ( 'NONE', ( #90, #365, #188, #183 ) ) ;
#133 = SURFACE_STYLE_USAGE ( .BOTH. , #45 ) ;
#134 = AXIS2_PLACEMENT_3D ( 'NONE', #135, #244, #216 ) ;
#135 = CARTESIAN_POINT ( 'NONE',  ( 0.000000000000000000, 0.000000000000000000, 0.000000000000000000 ) ) ;
#136 = EDGE_CURVE ( 'NONE', #236, #112, #322, .T. ) ;
#137 = DIRECTION ( 'NONE',  ( -0.000000000000000000, -1.000000000000000000, -0.000000000000000000 ) ) ;
#138 = ORIENTED_EDGE ( 'NONE', *, *, #60, .T. ) ;
#139 = CYLINDRICAL_SURFACE ( 'NONE', #344, 0.1249999999999998335 ) ;
#140 = ORIENTED_EDGE ( 'NONE', *, *, #198, .T. ) ;
#141 = DIRECTION ( 'NONE',  ( -1.224646799147353700E-16, 1.000000000000000000, -0.000000000000000000 ) ) ;
#142 = MECHANICAL_DESIGN_GEOMETRIC_PRESENTATION_REPRESENTATION (  '', ( #111 ), #119 ) ;
#143 = ORIENTED_EDGE ( 'NONE', *, *, #136, .T. ) ;
#144 = DIRECTION ( 'NONE',  ( -0.000000000000000000, -1.000000000000000000, -0.000000000000000000 ) ) ;
#145 = CARTESIAN_POINT ( 'NONE',  ( 0.1249999999999998751, 1.000000000000000000, 1.530808498934190276E-17 ) ) ;
#146 = LINE ( 'NONE', #167, #63 ) ;
#147 = VERTEX_POINT ( 'NONE', #22 ) ;
#148 =( NAMED_UNIT ( * ) SI_UNIT ( $, .STERADIAN. ) SOLID_ANGLE_UNIT ( ) );
#149 = DIRECTION ( 'NONE',  ( 0.000000000000000000, 0.000000000000000000, 1.000000000000000000 ) ) ;
#150 =( NAMED_UNIT ( * ) PLANE_ANGLE_UNIT ( ) SI_UNIT ( $, .RADIAN. ) );
#151 = CARTESIAN_POINT ( 'NONE',  ( 1.836970198721030181E-16, 1.000000000000000000, 0.000000000000000000 ) ) ;
#152 = COLOUR_RGB ( '',1.000000000000000000, 0.000000000000000000, 0.000000000000000000 ) ;
#153 = AXIS2_PLACEMENT_3D ( 'NONE', #97, #326, #73 ) ;
#154 = CARTESIAN_POINT ( 'NONE',  ( -0.1250000000000000000, 0.1250000000000000278, 1.530808498934191201E-17 ) ) ;
#155 = PRESENTATION_LAYER_ASSIGNMENT (  '', '', ( #175 ) ) ;
#156 = SURFACE_SIDE_STYLE ('',( #324 ) ) ;
#157 = VERTEX_POINT ( 'NONE', #240 ) ;
#158 =( NAMED_UNIT ( * ) SI_UNIT ( $, .STERADIAN. ) SOLID_ANGLE_UNIT ( ) );
#159 =( NAMED_UNIT ( * ) SI_UNIT ( $, .STERADIAN. ) SOLID_ANGLE_UNIT ( ) );
#160 = PRESENTATION_STYLE_ASSIGNMENT (( #133 ) ) ;
#161 = CLOSED_SHELL ( 'NONE', ( #289, #108, #65, #179, #312 ) ) ;
#162 = ORIENTED_EDGE ( 'NONE', *, *, #30, .F. ) ;
#163 = LENGTH_MEASURE_WITH_UNIT ( LENGTH_MEASURE( 0.02539999999999999897 ), #43 );
#164 = CARTESIAN_POINT ( 'NONE',  ( -0.1250000000000000278, 3.000000000000000444, 0.000000000000000000 ) ) ;
#165 = DIRECTION ( 'NONE',  ( -1.224646799147353700E-16, 1.000000000000000000, -0.000000000000000000 ) ) ;
#166 = EDGE_LOOP ( 'NONE', ( #162, #267, #186, #346 ) ) ;
#167 = CARTESIAN_POINT ( 'NONE',  ( -0.1249999999999999029, 3.000000000000000444, 0.000000000000000000 ) ) ;
#168 = MECHANICAL_DESIGN_GEOMETRIC_PRESENTATION_REPRESENTATION (  '', ( #19 ), #212 ) ;
#169 = VERTEX_POINT ( 'NONE', #363 ) ;
#170 = UNCERTAINTY_MEASURE_WITH_UNIT (LENGTH_MEASURE( 1.000000000000000082E-05 ), #297, 'distance_accuracy_value', 'NONE');
#171 = FACE_OUTER_BOUND ( 'NONE', #208, .T. ) ;
#172 = COLOUR_RGB ( '',0.7921568627450980005, 0.8196078431372548767, 0.9333333333333333481 ) ;
#173 = PRODUCT_RELATED_PRODUCT_CATEGORY ( 'part', '', ( #78 ) ) ;
#174 = CIRCLE ( 'NONE', #1, 0.1249999999999997086 ) ;
#175 = STYLED_ITEM ( 'NONE', ( #44 ), #213 ) ;
#176 =( LENGTH_UNIT ( ) NAMED_UNIT ( * ) SI_UNIT ( $, .METRE. ) );
#177 = AXIS2_PLACEMENT_3D ( 'NONE', #151, #256, #86 ) ;
#178 = PRESENTATION_STYLE_ASSIGNMENT (( #319 ) ) ;
#179 = ADVANCED_FACE ( 'NONE', ( #14 ), #20, .T. ) ;
#180 = VERTEX_POINT ( 'NONE', #335 ) ;
#181 = LENGTH_MEASURE_WITH_UNIT ( LENGTH_MEASURE( 0.02539999999999999897 ), #68 );
#182 = CARTESIAN_POINT ( 'NONE',  ( 1.836970198721030427E-16, 1.000000000000000000, 0.000000000000000000 ) ) ;
#183 = ORIENTED_EDGE ( 'NONE', *, *, #258, .T. ) ;
#184 = APPLICATION_PROTOCOL_DEFINITION ( 'draft international standard', 'automotive_design', 1998, #94 ) ;
#185 = SURFACE_STYLE_FILL_AREA ( #81 ) ;
#186 = ORIENTED_EDGE ( 'NONE', *, *, #331, .T. ) ;
#187 = DIRECTION ( 'NONE',  ( -1.224646799147353700E-16, 1.000000000000000000, -0.000000000000000000 ) ) ;
#188 = ORIENTED_EDGE ( 'NONE', *, *, #201, .F. ) ;
#189 = DIRECTION ( 'NONE',  ( 1.224646799147353207E-16, -0.000000000000000000, 1.000000000000000000 ) ) ;
#190 =( CONVERSION_BASED_UNIT ( 'INCH', #163 ) LENGTH_UNIT ( ) NAMED_UNIT ( #50 ) );
#191 = CARTESIAN_POINT ( 'NONE',  ( 0.000000000000000000, 0.1250000000000000278, 0.000000000000000000 ) ) ;
#192 = ADVANCED_FACE ( 'NONE', ( #237 ), #139, .T. ) ;
#193 = FILL_AREA_STYLE ('',( #370 ) ) ;
#194 = DIRECTION ( 'NONE',  ( 0.000000000000000000, 0.000000000000000000, -1.000000000000000000 ) ) ;
#195 = CIRCLE ( 'NONE', #34, 0.1250000000000000000 ) ;
#196 = SURFACE_SIDE_STYLE ('',( #313 ) ) ;
#197 = CARTESIAN_POINT ( 'NONE',  ( -6.123233995736772199E-17, 3.000000000000000444, 0.000000000000000000 ) ) ;
#198 = EDGE_CURVE ( 'NONE', #112, #236, #80, .T. ) ;
#199 = DIRECTION ( 'NONE',  ( -0.000000000000000000, -1.000000000000000000, -0.000000000000000000 ) ) ;
#200 = PRODUCT_DEFINITION_FORMATION_WITH_SPECIFIED_SOURCE ( 'ANY', '', #78, .NOT_KNOWN. ) ;
#201 = EDGE_CURVE ( 'NONE', #180, #67, #127, .T. ) ;
#202 = DIMENSIONAL_EXPONENTS ( 1.000000000000000000, 0.000000000000000000, 0.000000000000000000, 0.000000000000000000, 0.000000000000000000, 0.000000000000000000, 0.000000000000000000 ) ;
#203 = SURFACE_SIDE_STYLE ('',( #93 ) ) ;
#204 = EDGE_CURVE ( 'NONE', #169, #2, #33, .T. ) ;
#205 = SURFACE_SIDE_STYLE ('',( #352 ) ) ;
#206 = DIMENSIONAL_EXPONENTS ( 1.000000000000000000, 0.000000000000000000, 0.000000000000000000, 0.000000000000000000, 0.000000000000000000, 0.000000000000000000, 0.000000000000000000 ) ;
#207 = FILL_AREA_STYLE ('',( #99 ) ) ;
#208 = EDGE_LOOP ( 'NONE', ( #118, #253 ) ) ;
#209 = ADVANCED_BREP_SHAPE_REPRESENTATION ( '49120', ( #213, #92, #316 ), #17 ) ;
#210 = SURFACE_STYLE_USAGE ( .BOTH. , #156 ) ;
#211 = PRESENTATION_LAYER_ASSIGNMENT (  '', '', ( #226 ) ) ;
#212 =( GEOMETRIC_REPRESENTATION_CONTEXT ( 3 ) GLOBAL_UNCERTAINTY_ASSIGNED_CONTEXT ( ( #26 ) ) GLOBAL_UNIT_ASSIGNED_CONTEXT ( ( #28, #150, #148 ) ) REPRESENTATION_CONTEXT ( 'NONE', 'WORKASPACE' ) );
#213 = MANIFOLD_SOLID_BREP ( 'Revolve - Cutting Edge', #161 ) ;
#214 = FILL_AREA_STYLE ('',( #360 ) ) ;
#215 = ORIENTED_EDGE ( 'NONE', *, *, #204, .T. ) ;
#216 = DIRECTION ( 'NONE',  ( 0.000000000000000000, 0.000000000000000000, -1.000000000000000000 ) ) ;
#217 =( LENGTH_UNIT ( ) NAMED_UNIT ( * ) SI_UNIT ( $, .METRE. ) );
#218 = DIRECTION ( 'NONE',  ( -1.000000000000000000, 0.000000000000000000, 0.000000000000000000 ) ) ;
#219 = AXIS2_PLACEMENT_3D ( 'NONE', #85, #338, #311 ) ;
#220 = ORIENTED_EDGE ( 'NONE', *, *, #130, .F. ) ;
#221 = SURFACE_STYLE_FILL_AREA ( #116 ) ;
#222 = ORIENTED_EDGE ( 'NONE', *, *, #348, .F. ) ;
#223 = UNCERTAINTY_MEASURE_WITH_UNIT (LENGTH_MEASURE( 1.000000000000000082E-05 ), #59, 'distance_accuracy_value', 'NONE');
#224 =( LENGTH_UNIT ( ) NAMED_UNIT ( * ) SI_UNIT ( $, .METRE. ) );
#225 = UNCERTAINTY_MEASURE_WITH_UNIT (LENGTH_MEASURE( 1.000000000000000082E-05 ), #190, 'distance_accuracy_value', 'NONE');
#226 = STYLED_ITEM ( 'NONE', ( #52 ), #65 ) ;
#227 = VECTOR ( 'NONE', #303, 39.37007874015748143 ) ;
#228 = EDGE_LOOP ( 'NONE', ( #51, #243, #330, #115 ) ) ;
#229 = CYLINDRICAL_SURFACE ( 'NONE', #345, 0.1249999999999998335 ) ;
#230 = CIRCLE ( 'NONE', #219, 0.1249999999999998751 ) ;
#231 = AXIS2_PLACEMENT_3D ( 'NONE', #124, #103, #336 ) ;
#232 = SURFACE_STYLE_USAGE ( .BOTH. , #205 ) ;
#233 =( CONVERSION_BASED_UNIT ( 'INCH', #261 ) LENGTH_UNIT ( ) NAMED_UNIT ( #307 ) );
#234 = LINE ( 'NONE', #13, #110 ) ;
#235 = CARTESIAN_POINT ( 'NONE',  ( 0.000000000000000000, 1.000000000000000000, 0.000000000000000000 ) ) ;
#236 = VERTEX_POINT ( 'NONE', #368 ) ;
#237 = FACE_OUTER_BOUND ( 'NONE', #55, .T. ) ;
#238 = AXIS2_PLACEMENT_3D ( 'NONE', #15, #21, #364 ) ;
#239 = LENGTH_MEASURE_WITH_UNIT ( LENGTH_MEASURE( 0.02539999999999999897 ), #217 );
#240 = CARTESIAN_POINT ( 'NONE',  ( 1.530808498934191509E-17, 0.1250000000000000278, 0.1249999999999999861 ) ) ;
#241 = PRESENTATION_LAYER_ASSIGNMENT (  '', '', ( #19 ) ) ;
#242 = DIMENSIONAL_EXPONENTS ( 1.000000000000000000, 0.000000000000000000, 0.000000000000000000, 0.000000000000000000, 0.000000000000000000, 0.000000000000000000, 0.000000000000000000 ) ;
#243 = ORIENTED_EDGE ( 'NONE', *, *, #348, .T. ) ;
#244 = DIRECTION ( 'NONE',  ( -0.000000000000000000, -1.000000000000000000, -0.000000000000000000 ) ) ;
#245 = ORIENTED_EDGE ( 'NONE', *, *, #306, .T. ) ;
#246 = EDGE_CURVE ( 'NONE', #157, #74, #291, .T. ) ;
#247 = DIRECTION ( 'NONE',  ( -1.000000000000000000, 0.000000000000000000, 0.000000000000000000 ) ) ;
#248 = COLOUR_RGB ( '',0.7921568627450980005, 0.8196078431372548767, 0.9333333333333333481 ) ;
#249 = ORIENTED_EDGE ( 'NONE', *, *, #260, .F. ) ;
#250 = CARTESIAN_POINT ( 'NONE',  ( -1.530808498934191509E-17, 0.1250000000000000000, 0.000000000000000000 ) ) ;
#251 = SURFACE_STYLE_USAGE ( .BOTH. , #83 ) ;
#252 = UNCERTAINTY_MEASURE_WITH_UNIT (LENGTH_MEASURE( 1.000000000000000082E-05 ), #46, 'distance_accuracy_value', 'NONE');
#253 = ORIENTED_EDGE ( 'NONE', *, *, #60, .F. ) ;
#254 = SPHERICAL_SURFACE ( 'NONE', #292, 0.1250000000000000000 ) ;
#255 = AXIS2_PLACEMENT_3D ( 'NONE', #235, #38, #349 ) ;
#256 = DIRECTION ( 'NONE',  ( -1.224646799147353700E-16, 1.000000000000000000, 0.000000000000000000 ) ) ;
#257 = MECHANICAL_DESIGN_GEOMETRIC_PRESENTATION_REPRESENTATION (  '', ( #123 ), #57 ) ;
#258 = EDGE_CURVE ( 'NONE', #180, #157, #195, .T. ) ;
#259 =( NAMED_UNIT ( * ) PLANE_ANGLE_UNIT ( ) SI_UNIT ( $, .RADIAN. ) );
#260 = EDGE_CURVE ( 'NONE', #169, #112, #146, .T. ) ;
#261 = LENGTH_MEASURE_WITH_UNIT ( LENGTH_MEASURE( 0.02539999999999999897 ), #176 );
#262 = CIRCLE ( 'NONE', #238, 0.1249999999999998751 ) ;
#263 = CARTESIAN_POINT ( 'NONE',  ( 0.000000000000000000, 0.1250000000000000278, 0.000000000000000000 ) ) ;
#264 =( GEOMETRIC_REPRESENTATION_CONTEXT ( 3 ) GLOBAL_UNCERTAINTY_ASSIGNED_CONTEXT ( ( #283 ) ) GLOBAL_UNIT_ASSIGNED_CONTEXT ( ( #9, #259, #293 ) ) REPRESENTATION_CONTEXT ( 'NONE', 'WORKASPACE' ) );
#265 = FILL_AREA_STYLE_COLOUR ( '', #248 ) ;
#266 = LINE ( 'NONE', #332, #314 ) ;
#267 = ORIENTED_EDGE ( 'NONE', *, *, #359, .T. ) ;
#268 = DIRECTION ( 'NONE',  ( 1.000000000000000000, 0.000000000000000000, 0.000000000000000000 ) ) ;
#269 = DIMENSIONAL_EXPONENTS ( 1.000000000000000000, 0.000000000000000000, 0.000000000000000000, 0.000000000000000000, 0.000000000000000000, 0.000000000000000000, 0.000000000000000000 ) ;
#270 = COLOUR_RGB ( '',1.000000000000000000, 0.000000000000000000, 0.000000000000000000 ) ;
#271 = SPHERICAL_SURFACE ( 'NONE', #350, 0.1250000000000000000 ) ;
#272 =( NAMED_UNIT ( * ) PLANE_ANGLE_UNIT ( ) SI_UNIT ( $, .RADIAN. ) );
#273 =( NAMED_UNIT ( * ) SI_UNIT ( $, .STERADIAN. ) SOLID_ANGLE_UNIT ( ) );
#274 = DIRECTION ( 'NONE',  ( -1.000000000000000000, 0.000000000000000000, 0.000000000000000000 ) ) ;
#275 = ORIENTED_EDGE ( 'NONE', *, *, #359, .F. ) ;
#276 = FILL_AREA_STYLE_COLOUR ( '', #362 ) ;
#277 = ADVANCED_FACE ( 'NONE', ( #56 ), #29, .F. ) ;
#278 = AXIS2_PLACEMENT_3D ( 'NONE', #191, #144, #315 ) ;
#279 = EDGE_LOOP ( 'NONE', ( #140, #143 ) ) ;
#280 = FACE_OUTER_BOUND ( 'NONE', #228, .T. ) ;
#281 = SURFACE_STYLE_USAGE ( .BOTH. , #196 ) ;
#282 = FACE_OUTER_BOUND ( 'NONE', #132, .T. ) ;
#283 = UNCERTAINTY_MEASURE_WITH_UNIT (LENGTH_MEASURE( 1.000000000000000082E-05 ), #9, 'distance_accuracy_value', 'NONE');
#284 = LENGTH_MEASURE_WITH_UNIT ( LENGTH_MEASURE( 0.02539999999999999897 ), #339 );
#285 = AXIS2_PLACEMENT_3D ( 'NONE', #329, #165, #300 ) ;
#286 = CARTESIAN_POINT ( 'NONE',  ( 0.000000000000000000, 0.1250000000000000278, 0.000000000000000000 ) ) ;
#287 = APPLICATION_PROTOCOL_DEFINITION ( 'draft international standard', 'automotive_design', 1998, #321 ) ;
#288 =( NAMED_UNIT ( * ) PLANE_ANGLE_UNIT ( ) SI_UNIT ( $, .RADIAN. ) );
#289 = ADVANCED_FACE ( 'NONE', ( #282 ), #254, .T. ) ;
#290 = CARTESIAN_POINT ( 'NONE',  ( 0.000000000000000000, 0.000000000000000000, 0.000000000000000000 ) ) ;
#291 = CIRCLE ( 'NONE', #278, 0.1250000000000000000 ) ;
#292 = AXIS2_PLACEMENT_3D ( 'NONE', #3, #120, #54 ) ;
#293 =( NAMED_UNIT ( * ) SI_UNIT ( $, .STERADIAN. ) SOLID_ANGLE_UNIT ( ) );
#294 =( NAMED_UNIT ( * ) PLANE_ANGLE_UNIT ( ) SI_UNIT ( $, .RADIAN. ) );
#295 = CARTESIAN_POINT ( 'NONE',  ( 0.000000000000000000, 0.000000000000000000, -0.1249999999999999306 ) ) ;
#296 = CIRCLE ( 'NONE', #11, 0.1250000000000000000 ) ;
#297 =( CONVERSION_BASED_UNIT ( 'INCH', #181 ) LENGTH_UNIT ( ) NAMED_UNIT ( #70 ) );
#298 = ADVANCED_FACE ( 'NONE', ( #280 ), #229, .T. ) ;
#299 = FACE_OUTER_BOUND ( 'NONE', #279, .T. ) ;
#300 = DIRECTION ( 'NONE',  ( -1.000000000000000000, 0.000000000000000000, 0.000000000000000000 ) ) ;
#301 = VERTEX_POINT ( 'NONE', #8 ) ;
#302 = DIRECTION ( 'NONE',  ( -1.224646799147353700E-16, 1.000000000000000000, -0.000000000000000000 ) ) ;
#303 = DIRECTION ( 'NONE',  ( -0.000000000000000000, -1.000000000000000000, -0.000000000000000000 ) ) ;
#304 = CARTESIAN_POINT ( 'NONE',  ( -1.530808498934191509E-17, 0.1250000000000000000, 0.000000000000000000 ) ) ;
#305 = COLOUR_RGB ( '',1.000000000000000000, 0.000000000000000000, 0.000000000000000000 ) ;
#306 = EDGE_CURVE ( 'NONE', #301, #147, #354, .T. ) ;
#307 = DIMENSIONAL_EXPONENTS ( 1.000000000000000000, 0.000000000000000000, 0.000000000000000000, 0.000000000000000000, 0.000000000000000000, 0.000000000000000000, 0.000000000000000000 ) ;
#308 = SURFACE_STYLE_USAGE ( .BOTH. , #104 ) ;
#309 = ORIENTED_EDGE ( 'NONE', *, *, #325, .T. ) ;
#310 = DIRECTION ( 'NONE',  ( 1.000000000000000000, 1.224646799147353700E-16, 0.000000000000000000 ) ) ;
#311 = DIRECTION ( 'NONE',  ( 0.000000000000000000, 0.000000000000000000, -1.000000000000000000 ) ) ;
#312 = ADVANCED_FACE ( 'NONE', ( #107 ), #271, .T. ) ;
#313 = SURFACE_STYLE_FILL_AREA ( #193 ) ;
#314 = VECTOR ( 'NONE', #366, 39.37007874015748143 ) ;
#315 = DIRECTION ( 'NONE',  ( 0.000000000000000000, 0.000000000000000000, -1.000000000000000000 ) ) ;
#316 = AXIS2_PLACEMENT_3D ( 'NONE', #290, #149, #32 ) ;
#317 = MECHANICAL_DESIGN_GEOMETRIC_PRESENTATION_REPRESENTATION (  '', ( #4 ), #351 ) ;
#318 = CYLINDRICAL_SURFACE ( 'NONE', #231, 0.1249999999999999306 ) ;
#319 = SURFACE_STYLE_USAGE ( .BOTH. , #203 ) ;
#320 = FILL_AREA_STYLE ('',( #96 ) ) ;
#321 = APPLICATION_CONTEXT ( 'automotive_design' ) ;
#322 = CIRCLE ( 'NONE', #369, 0.1249999999999999445 ) ;
#323 = LENGTH_MEASURE_WITH_UNIT ( LENGTH_MEASURE( 0.02539999999999999897 ), #95 );
#324 = SURFACE_STYLE_FILL_AREA ( #207 ) ;
#325 = EDGE_CURVE ( 'NONE', #301, #77, #262, .T. ) ;
#326 = DIRECTION ( 'NONE',  ( -0.000000000000000000, -1.000000000000000000, -0.000000000000000000 ) ) ;
#327 =( GEOMETRIC_REPRESENTATION_CONTEXT ( 3 ) GLOBAL_UNCERTAINTY_ASSIGNED_CONTEXT ( ( #373 ) ) GLOBAL_UNIT_ASSIGNED_CONTEXT ( ( #233, #294, #37 ) ) REPRESENTATION_CONTEXT ( 'NONE', 'WORKASPACE' ) );
#328 = PRESENTATION_LAYER_ASSIGNMENT (  '', '', ( #123 ) ) ;
#329 = CARTESIAN_POINT ( 'NONE',  ( -6.123233995736772199E-17, 3.000000000000000444, 0.000000000000000000 ) ) ;
#330 = ORIENTED_EDGE ( 'NONE', *, *, #260, .T. ) ;
#331 = EDGE_CURVE ( 'NONE', #147, #180, #131, .T. ) ;
#332 = CARTESIAN_POINT ( 'NONE',  ( 1.530808498934190893E-17, 0.000000000000000000, 0.1249999999999999306 ) ) ;
#333 = DIRECTION ( 'NONE',  ( -1.224646799147353700E-16, 1.000000000000000000, -0.000000000000000000 ) ) ;
#334 = DIRECTION ( 'NONE',  ( 1.224646799147353700E-16, -1.000000000000000000, 0.000000000000000000 ) ) ;
#335 = CARTESIAN_POINT ( 'NONE',  ( 0.1250000000000000000, 0.1250000000000000278, 0.000000000000000000 ) ) ;
#336 = DIRECTION ( 'NONE',  ( 0.000000000000000000, 0.000000000000000000, -1.000000000000000000 ) ) ;
#337 = AXIS2_PLACEMENT_3D ( 'NONE', #304, #367, #274 ) ;
#338 = DIRECTION ( 'NONE',  ( -0.000000000000000000, -1.000000000000000000, -0.000000000000000000 ) ) ;
#339 =( LENGTH_UNIT ( ) NAMED_UNIT ( * ) SI_UNIT ( $, .METRE. ) );
#340 = ORIENTED_EDGE ( 'NONE', *, *, #130, .T. ) ;
#341 =( CONVERSION_BASED_UNIT ( 'INCH', #371 ) LENGTH_UNIT ( ) NAMED_UNIT ( #269 ) );
#342 = AXIS2_PLACEMENT_3D ( 'NONE', #263, #137, #356 ) ;
#343 = PRESENTATION_STYLE_ASSIGNMENT (( #251 ) ) ;
#344 = AXIS2_PLACEMENT_3D ( 'NONE', #48, #187, #358 ) ;
#345 = AXIS2_PLACEMENT_3D ( 'NONE', #197, #5, #35 ) ;
#346 = ORIENTED_EDGE ( 'NONE', *, *, #201, .T. ) ;
#347 =( NAMED_UNIT ( * ) PLANE_ANGLE_UNIT ( ) SI_UNIT ( $, .RADIAN. ) );
#348 = EDGE_CURVE ( 'NONE', #2, #169, #174, .T. ) ;
#349 = DIRECTION ( 'NONE',  ( 0.000000000000000000, -0.000000000000000000, 1.000000000000000000 ) ) ;
#350 = AXIS2_PLACEMENT_3D ( 'NONE', #49, #79, #268 ) ;
#351 =( GEOMETRIC_REPRESENTATION_CONTEXT ( 3 ) GLOBAL_UNCERTAINTY_ASSIGNED_CONTEXT ( ( #170 ) ) GLOBAL_UNIT_ASSIGNED_CONTEXT ( ( #297, #41, #273 ) ) REPRESENTATION_CONTEXT ( 'NONE', 'WORKASPACE' ) );
#352 = SURFACE_STYLE_FILL_AREA ( #36 ) ;
#353 = EDGE_CURVE ( 'NONE', #2, #236, #234, .T. ) ;
#354 = LINE ( 'NONE', #295, #227 ) ;
#355 = FACE_OUTER_BOUND ( 'NONE', #129, .T. ) ;
#356 = DIRECTION ( 'NONE',  ( 0.000000000000000000, 0.000000000000000000, -1.000000000000000000 ) ) ;
#357 = ORIENTED_EDGE ( 'NONE', *, *, #353, .T. ) ;
#358 = DIRECTION ( 'NONE',  ( -1.000000000000000000, 0.000000000000000000, 0.000000000000000000 ) ) ;
#359 = EDGE_CURVE ( 'NONE', #74, #147, #121, .T. ) ;
#360 = FILL_AREA_STYLE_COLOUR ( '', #270 ) ;
#361 = ORIENTED_EDGE ( 'NONE', *, *, #331, .F. ) ;
#362 = COLOUR_RGB ( '',1.000000000000000000, 0.000000000000000000, 0.000000000000000000 ) ;
#363 = CARTESIAN_POINT ( 'NONE',  ( -0.1249999999999995143, 1.000000000000000000, 0.000000000000000000 ) ) ;
#364 = DIRECTION ( 'NONE',  ( 0.000000000000000000, 0.000000000000000000, -1.000000000000000000 ) ) ;
#365 = ORIENTED_EDGE ( 'NONE', *, *, #30, .T. ) ;
#366 = DIRECTION ( 'NONE',  ( -0.000000000000000000, -1.000000000000000000, -0.000000000000000000 ) ) ;
#367 = DIRECTION ( 'NONE',  ( 0.000000000000000000, 0.000000000000000000, -1.000000000000000000 ) ) ;
#368 = CARTESIAN_POINT ( 'NONE',  ( 0.1249999999999998751, 3.000000000000000444, 1.530808498934190276E-17 ) ) ;
#369 = AXIS2_PLACEMENT_3D ( 'NONE', #109, #302, #218 ) ;
#370 = FILL_AREA_STYLE_COLOUR ( '', #18 ) ;
#371 = LENGTH_MEASURE_WITH_UNIT ( LENGTH_MEASURE( 0.02539999999999999897 ), #16 );
#372 = ADVANCED_FACE ( 'NONE', ( #299 ), #117, .F. ) ;
#373 = UNCERTAINTY_MEASURE_WITH_UNIT (LENGTH_MEASURE( 1.000000000000000082E-05 ), #233, 'distance_accuracy_value', 'NONE');
ENDSEC;
END-ISO-10303-21;
