ISO-10303-21;
HEADER;
FILE_DESCRIPTION (( 'STEP AP214' ),
    '1' );
FILE_NAME ('83430.STEP',
    '2023-06-23T09:59:32',
    ( '' ),
    ( '' ),
    'SwSTEP 2.0',
    'SolidWorks 2023',
    '' );
FILE_SCHEMA (( 'AUTOMOTIVE_DESIGN' ));
ENDSEC;

DATA;
#1 = SURFACE_STYLE_FILL_AREA ( #290 ) ;
#2 = PRODUCT ( '83430', '83430', '', ( #91 ) ) ;
#3 = COLOUR_RGB ( '',0.7921568627450980005, 0.8196078431372548767, 0.9333333333333333481 ) ;
#4 = DIRECTION ( 'NONE',  ( -3.768143997376470743E-17, 1.000000000000000000, -0.000000000000000000 ) ) ;
#5 = EDGE_CURVE ( 'NONE', #42, #20, #214, .T. ) ;
#6 = FACE_OUTER_BOUND ( 'NONE', #235, .T. ) ;
#7 = MANIFOLD_SOLID_BREP ( 'Revolve - Cutting Edge', #155 ) ;
#8 = FACE_OUTER_BOUND ( 'NONE', #174, .T. ) ;
#9 = ADVANCED_FACE ( 'NONE', ( #97 ), #168, .T. ) ;
#10 = DIRECTION ( 'NONE',  ( -1.000000000000000000, 0.000000000000000000, 0.000000000000000000 ) ) ;
#11 = MECHANICAL_DESIGN_GEOMETRIC_PRESENTATION_REPRESENTATION (  '', ( #262 ), #138 ) ;
#12 = CARTESIAN_POINT ( 'NONE',  ( 0.06250000000000000000, 2.500000000000000000, 7.654042494670963708E-18 ) ) ;
#13 = LINE ( 'NONE', #284, #166 ) ;
#14 = DIRECTION ( 'NONE',  ( -3.768143997376470743E-17, 1.000000000000000000, -0.000000000000000000 ) ) ;
#15 = COLOUR_RGB ( '',1.000000000000000000, 0.000000000000000000, 0.000000000000000000 ) ;
#16 = ORIENTED_EDGE ( 'NONE', *, *, #18, .F. ) ;
#17 = COLOUR_RGB ( '',1.000000000000000000, 0.000000000000000000, 0.000000000000000000 ) ;
#18 = EDGE_CURVE ( 'NONE', #20, #42, #124, .T. ) ;
#19 = SURFACE_STYLE_USAGE ( .BOTH. , #129 ) ;
#20 = VERTEX_POINT ( 'NONE', #12 ) ;
#21 = DIRECTION ( 'NONE',  ( -1.000000000000000000, 0.000000000000000000, 0.000000000000000000 ) ) ;
#22 = UNCERTAINTY_MEASURE_WITH_UNIT (LENGTH_MEASURE( 1.000000000000000082E-05 ), #291, 'distance_accuracy_value', 'NONE');
#23 = CLOSED_SHELL ( 'NONE', ( #199, #294, #117, #33 ) ) ;
#24 = DIRECTION ( 'NONE',  ( 1.000000000000000000, 0.000000000000000000, 0.000000000000000000 ) ) ;
#25 = FILL_AREA_STYLE ('',( #96 ) ) ;
#26 = DIRECTION ( 'NONE',  ( -1.000000000000000000, 0.000000000000000000, 0.000000000000000000 ) ) ;
#27 = CARTESIAN_POINT ( 'NONE',  ( 0.000000000000000000, 0.000000000000000000, 0.000000000000000000 ) ) ;
#28 = FILL_AREA_STYLE_COLOUR ( '', #229 ) ;
#29 = SURFACE_STYLE_USAGE ( .BOTH. , #196 ) ;
#30 = STYLED_ITEM ( 'NONE', ( #136 ), #301 ) ;
#31 = DIRECTION ( 'NONE',  ( -0.000000000000000000, -1.000000000000000000, -0.000000000000000000 ) ) ;
#32 = UNCERTAINTY_MEASURE_WITH_UNIT (LENGTH_MEASURE( 1.000000000000000082E-05 ), #169, 'distance_accuracy_value', 'NONE');
#33 = ADVANCED_FACE ( 'NONE', ( #6 ), #153, .F. ) ;
#34 = DIRECTION ( 'NONE',  ( -1.000000000000000000, 0.000000000000000000, 0.000000000000000000 ) ) ;
#35 = UNCERTAINTY_MEASURE_WITH_UNIT (LENGTH_MEASURE( 1.000000000000000082E-05 ), #239, 'distance_accuracy_value', 'NONE');
#36 = CARTESIAN_POINT ( 'NONE',  ( 0.000000000000000000, 0.8749999999999997780, 0.000000000000000000 ) ) ;
#37 = PRESENTATION_LAYER_ASSIGNMENT (  '', '', ( #295 ) ) ;
#38 = CARTESIAN_POINT ( 'NONE',  ( 7.654042494670957545E-18, 0.000000000000000000, 0.06250000000000000000 ) ) ;
#39 = ORIENTED_EDGE ( 'NONE', *, *, #175, .T. ) ;
#40 = ORIENTED_EDGE ( 'NONE', *, *, #131, .F. ) ;
#41 = CIRCLE ( 'NONE', #181, 0.06250000000000000000 ) ;
#42 = VERTEX_POINT ( 'NONE', #271 ) ;
#43 = FILL_AREA_STYLE ('',( #66 ) ) ;
#44 = ORIENTED_EDGE ( 'NONE', *, *, #54, .T. ) ;
#45 = DIRECTION ( 'NONE',  ( 0.000000000000000000, 0.000000000000000000, -1.000000000000000000 ) ) ;
#46 = EDGE_LOOP ( 'NONE', ( #243, #279 ) ) ;
#47 =( GEOMETRIC_REPRESENTATION_CONTEXT ( 3 ) GLOBAL_UNCERTAINTY_ASSIGNED_CONTEXT ( ( #22 ) ) GLOBAL_UNIT_ASSIGNED_CONTEXT ( ( #291, #55, #165 ) ) REPRESENTATION_CONTEXT ( 'NONE', 'WORKASPACE' ) );
#48 = AXIS2_PLACEMENT_3D ( 'NONE', #113, #98, #264 ) ;
#49 = SURFACE_STYLE_FILL_AREA ( #25 ) ;
#50 = DIMENSIONAL_EXPONENTS ( 1.000000000000000000, 0.000000000000000000, 0.000000000000000000, 0.000000000000000000, 0.000000000000000000, 0.000000000000000000, 0.000000000000000000 ) ;
#51 = SURFACE_STYLE_USAGE ( .BOTH. , #167 ) ;
#52 = PRESENTATION_STYLE_ASSIGNMENT (( #29 ) ) ;
#53 = AXIS2_PLACEMENT_3D ( 'NONE', #99, #180, #61 ) ;
#54 = EDGE_CURVE ( 'NONE', #170, #300, #252, .T. ) ;
#55 =( NAMED_UNIT ( * ) PLANE_ANGLE_UNIT ( ) SI_UNIT ( $, .RADIAN. ) );
#56 = CARTESIAN_POINT ( 'NONE',  ( -0.06250000000000000000, 0.8749999999999997780, 0.000000000000000000 ) ) ;
#57 = PRESENTATION_LAYER_ASSIGNMENT (  '', '', ( #197 ) ) ;
#58 = AXIS2_PLACEMENT_3D ( 'NONE', #158, #258, #236 ) ;
#59 = CARTESIAN_POINT ( 'NONE',  ( 0.000000000000000000, 0.8750000000000000000, 0.000000000000000000 ) ) ;
#60 = PLANE ( 'NONE',  #148 ) ;
#61 = DIRECTION ( 'NONE',  ( -1.000000000000000000, 0.000000000000000000, 0.000000000000000000 ) ) ;
#62 = CYLINDRICAL_SURFACE ( 'NONE', #215, 0.06250000000000002776 ) ;
#63 = CARTESIAN_POINT ( 'NONE',  ( 0.000000000000000000, 0.000000000000000000, 0.000000000000000000 ) ) ;
#64 = PRESENTATION_STYLE_ASSIGNMENT (( #19 ) ) ;
#65 = AXIS2_PLACEMENT_3D ( 'NONE', #63, #154, #206 ) ;
#66 = FILL_AREA_STYLE_COLOUR ( '', #3 ) ;
#67 = ORIENTED_EDGE ( 'NONE', *, *, #5, .T. ) ;
#68 = APPLICATION_CONTEXT ( 'automotive_design' ) ;
#69 = PRODUCT_DEFINITION_FORMATION_WITH_SPECIFIED_SOURCE ( 'ANY', '', #2, .NOT_KNOWN. ) ;
#70 = EDGE_CURVE ( 'NONE', #71, #135, #232, .T. ) ;
#71 = VERTEX_POINT ( 'NONE', #56 ) ;
#72 = LENGTH_MEASURE_WITH_UNIT ( LENGTH_MEASURE( 0.02539999999999999897 ), #193 );
#73 = ORIENTED_EDGE ( 'NONE', *, *, #18, .T. ) ;
#74 = DIRECTION ( 'NONE',  ( 0.000000000000000000, -1.000000000000000000, -0.000000000000000000 ) ) ;
#75 = DIRECTION ( 'NONE',  ( 0.000000000000000000, 0.000000000000000000, -1.000000000000000000 ) ) ;
#76 = DIMENSIONAL_EXPONENTS ( 1.000000000000000000, 0.000000000000000000, 0.000000000000000000, 0.000000000000000000, 0.000000000000000000, 0.000000000000000000, 0.000000000000000000 ) ;
#77 = PRESENTATION_LAYER_ASSIGNMENT (  '', '', ( #244 ) ) ;
#78 = FILL_AREA_STYLE ('',( #272 ) ) ;
#79 =( LENGTH_UNIT ( ) NAMED_UNIT ( * ) SI_UNIT ( $, .METRE. ) );
#80 = DIRECTION ( 'NONE',  ( 0.000000000000000000, 1.000000000000000000, 0.000000000000000000 ) ) ;
#81 = LENGTH_MEASURE_WITH_UNIT ( LENGTH_MEASURE( 0.02539999999999999897 ), #79 );
#82 = DIRECTION ( 'NONE',  ( 0.000000000000000000, -0.000000000000000000, 1.000000000000000000 ) ) ;
#83 = CIRCLE ( 'NONE', #261, 0.06250000000000000000 ) ;
#84 =( NAMED_UNIT ( * ) PLANE_ANGLE_UNIT ( ) SI_UNIT ( $, .RADIAN. ) );
#85 = ORIENTED_EDGE ( 'NONE', *, *, #5, .F. ) ;
#86 = APPLICATION_CONTEXT ( 'automotive_design' ) ;
#87 = CYLINDRICAL_SURFACE ( 'NONE', #58, 0.06250000000000000000 ) ;
#88 = EDGE_CURVE ( 'NONE', #71, #42, #104, .T. ) ;
#89 = PRESENTATION_STYLE_ASSIGNMENT (( #127 ) ) ;
#90 = ORIENTED_EDGE ( 'NONE', *, *, #159, .F. ) ;
#91 = PRODUCT_CONTEXT ( 'NONE', #86, 'mechanical' ) ;
#92 = CARTESIAN_POINT ( 'NONE',  ( 0.000000000000000000, 0.000000000000000000, 0.000000000000000000 ) ) ;
#93 = EDGE_LOOP ( 'NONE', ( #212, #256, #140, #130 ) ) ;
#94 = AXIS2_PLACEMENT_3D ( 'NONE', #224, #246, #10 ) ;
#95 = COLOUR_RGB ( '',1.000000000000000000, 0.000000000000000000, 0.000000000000000000 ) ;
#96 = FILL_AREA_STYLE_COLOUR ( '', #95 ) ;
#97 = FACE_OUTER_BOUND ( 'NONE', #187, .T. ) ;
#98 = DIRECTION ( 'NONE',  ( -3.768143997376470743E-17, 1.000000000000000000, 0.000000000000000000 ) ) ;
#99 = CARTESIAN_POINT ( 'NONE',  ( -6.123233995736766036E-17, 2.500000000000000000, 0.000000000000000000 ) ) ;
#100 = SURFACE_STYLE_USAGE ( .BOTH. , #114 ) ;
#101 = CARTESIAN_POINT ( 'NONE',  ( 0.000000000000000000, 0.8750000000000000000, 0.000000000000000000 ) ) ;
#102 = PRESENTATION_STYLE_ASSIGNMENT (( #226 ) ) ;
#103 =( NAMED_UNIT ( * ) SI_UNIT ( $, .STERADIAN. ) SOLID_ANGLE_UNIT ( ) );
#104 = LINE ( 'NONE', #123, #303 ) ;
#105 = FACE_OUTER_BOUND ( 'NONE', #241, .T. ) ;
#106 = DIRECTION ( 'NONE',  ( -0.000000000000000000, -1.000000000000000000, -0.000000000000000000 ) ) ;
#107 = SURFACE_STYLE_FILL_AREA ( #108 ) ;
#108 = FILL_AREA_STYLE ('',( #282 ) ) ;
#109 =( LENGTH_UNIT ( ) NAMED_UNIT ( * ) SI_UNIT ( $, .METRE. ) );
#110 = VECTOR ( 'NONE', #106, 39.37007874015748143 ) ;
#111 = DIRECTION ( 'NONE',  ( 0.000000000000000000, 0.000000000000000000, 1.000000000000000000 ) ) ;
#112 = PRODUCT_DEFINITION_CONTEXT ( 'detailed design', #68, 'design' ) ;
#113 = CARTESIAN_POINT ( 'NONE',  ( 4.437159120301352683E-35, 0.8750000000000000000, 0.000000000000000000 ) ) ;
#114 = SURFACE_SIDE_STYLE ('',( #120 ) ) ;
#115 =( CONVERSION_BASED_UNIT ( 'INCH', #292 ) LENGTH_UNIT ( ) NAMED_UNIT ( #201 ) );
#116 = CIRCLE ( 'NONE', #247, 0.06250000000000000000 ) ;
#117 = ADVANCED_FACE ( 'NONE', ( #105 ), #202, .T. ) ;
#118 = DIRECTION ( 'NONE',  ( -0.000000000000000000, -1.000000000000000000, -0.000000000000000000 ) ) ;
#119 = ADVANCED_BREP_SHAPE_REPRESENTATION ( '83430', ( #7, #217, #208 ), #281 ) ;
#120 = SURFACE_STYLE_FILL_AREA ( #190 ) ;
#121 = PRESENTATION_LAYER_ASSIGNMENT (  '', '', ( #177 ) ) ;
#122 = DIRECTION ( 'NONE',  ( 3.768143997376470743E-17, -1.000000000000000000, 0.000000000000000000 ) ) ;
#123 = CARTESIAN_POINT ( 'NONE',  ( -0.06250000000000009714, 2.500000000000000000, 0.000000000000000000 ) ) ;
#124 = CIRCLE ( 'NONE', #53, 0.06250000000000005551 ) ;
#125 = DIRECTION ( 'NONE',  ( -3.768143997376470743E-17, 1.000000000000000000, -0.000000000000000000 ) ) ;
#126 =( CONVERSION_BASED_UNIT ( 'INCH', #161 ) LENGTH_UNIT ( ) NAMED_UNIT ( #50 ) );
#127 = SURFACE_STYLE_USAGE ( .BOTH. , #276 ) ;
#128 = PRESENTATION_LAYER_ASSIGNMENT (  '', '', ( #30 ) ) ;
#129 = SURFACE_SIDE_STYLE ('',( #184 ) ) ;
#130 = ORIENTED_EDGE ( 'NONE', *, *, #248, .F. ) ;
#131 = EDGE_CURVE ( 'NONE', #285, #170, #83, .T. ) ;
#132 =( NAMED_UNIT ( * ) PLANE_ANGLE_UNIT ( ) SI_UNIT ( $, .RADIAN. ) );
#133 = ORIENTED_EDGE ( 'NONE', *, *, #131, .T. ) ;
#134 =( CONVERSION_BASED_UNIT ( 'INCH', #255 ) LENGTH_UNIT ( ) NAMED_UNIT ( #265 ) );
#135 = VERTEX_POINT ( 'NONE', #296 ) ;
#136 = PRESENTATION_STYLE_ASSIGNMENT (( #51 ) ) ;
#137 = COLOUR_RGB ( '',1.000000000000000000, 0.000000000000000000, 0.000000000000000000 ) ;
#138 =( GEOMETRIC_REPRESENTATION_CONTEXT ( 3 ) GLOBAL_UNCERTAINTY_ASSIGNED_CONTEXT ( ( #160 ) ) GLOBAL_UNIT_ASSIGNED_CONTEXT ( ( #134, #132, #189 ) ) REPRESENTATION_CONTEXT ( 'NONE', 'WORKASPACE' ) );
#139 =( NAMED_UNIT ( * ) SI_UNIT ( $, .STERADIAN. ) SOLID_ANGLE_UNIT ( ) );
#140 = ORIENTED_EDGE ( 'NONE', *, *, #227, .T. ) ;
#141 = ADVANCED_FACE ( 'NONE', ( #8 ), #60, .T. ) ;
#142 =( NAMED_UNIT ( * ) PLANE_ANGLE_UNIT ( ) SI_UNIT ( $, .RADIAN. ) );
#143 =( LENGTH_UNIT ( ) NAMED_UNIT ( * ) SI_UNIT ( $, .METRE. ) );
#144 = AXIS2_PLACEMENT_3D ( 'NONE', #92, #74, #266 ) ;
#145 =( NAMED_UNIT ( * ) SI_UNIT ( $, .STERADIAN. ) SOLID_ANGLE_UNIT ( ) );
#146 = VERTEX_POINT ( 'NONE', #151 ) ;
#147 = DIRECTION ( 'NONE',  ( -1.000000000000000000, 0.000000000000000000, 0.000000000000000000 ) ) ;
#148 = AXIS2_PLACEMENT_3D ( 'NONE', #59, #80, #82 ) ;
#149 = DIRECTION ( 'NONE',  ( -3.768143997376470743E-17, 1.000000000000000000, -0.000000000000000000 ) ) ;
#150 = CARTESIAN_POINT ( 'NONE',  ( 0.000000000000000000, 0.000000000000000000, 0.000000000000000000 ) ) ;
#151 = CARTESIAN_POINT ( 'NONE',  ( 0.000000000000000000, 0.000000000000000000, -0.06250000000000000000 ) ) ;
#152 = AXIS2_PLACEMENT_3D ( 'NONE', #36, #125, #34 ) ;
#153 = PLANE ( 'NONE',  #274 ) ;
#154 = DIRECTION ( 'NONE',  ( -0.000000000000000000, -1.000000000000000000, -0.000000000000000000 ) ) ;
#155 = CLOSED_SHELL ( 'NONE', ( #9, #141, #207, #301 ) ) ;
#156 = MECHANICAL_DESIGN_GEOMETRIC_PRESENTATION_REPRESENTATION (  '', ( #295 ), #287 ) ;
#157 = ORIENTED_EDGE ( 'NONE', *, *, #88, .F. ) ;
#158 = CARTESIAN_POINT ( 'NONE',  ( 0.000000000000000000, 0.000000000000000000, 0.000000000000000000 ) ) ;
#159 = EDGE_CURVE ( 'NONE', #146, #300, #116, .T. ) ;
#160 = UNCERTAINTY_MEASURE_WITH_UNIT (LENGTH_MEASURE( 1.000000000000000082E-05 ), #134, 'distance_accuracy_value', 'NONE');
#161 = LENGTH_MEASURE_WITH_UNIT ( LENGTH_MEASURE( 0.02539999999999999897 ), #253 );
#162 = ORIENTED_EDGE ( 'NONE', *, *, #248, .T. ) ;
#163 = DIMENSIONAL_EXPONENTS ( 1.000000000000000000, 0.000000000000000000, 0.000000000000000000, 0.000000000000000000, 0.000000000000000000, 0.000000000000000000, 0.000000000000000000 ) ;
#164 = CARTESIAN_POINT ( 'NONE',  ( 7.654042494670957545E-18, 0.000000000000000000, 0.06250000000000000000 ) ) ;
#165 =( NAMED_UNIT ( * ) SI_UNIT ( $, .STERADIAN. ) SOLID_ANGLE_UNIT ( ) );
#166 = VECTOR ( 'NONE', #14, 39.37007874015748143 ) ;
#167 = SURFACE_SIDE_STYLE ('',( #49 ) ) ;
#168 = CYLINDRICAL_SURFACE ( 'NONE', #267, 0.06250000000000000000 ) ;
#169 =( CONVERSION_BASED_UNIT ( 'INCH', #242 ) LENGTH_UNIT ( ) NAMED_UNIT ( #309 ) );
#170 = VERTEX_POINT ( 'NONE', #249 ) ;
#171 = PLANE ( 'NONE',  #144 ) ;
#172 = PRESENTATION_STYLE_ASSIGNMENT (( #100 ) ) ;
#173 = AXIS2_PLACEMENT_3D ( 'NONE', #200, #4, #147 ) ;
#174 = EDGE_LOOP ( 'NONE', ( #40, #183 ) ) ;
#175 = EDGE_CURVE ( 'NONE', #135, #71, #238, .T. ) ;
#176 = DIRECTION ( 'NONE',  ( 1.000000000000000000, 3.768143997376470743E-17, 0.000000000000000000 ) ) ;
#177 = STYLED_ITEM ( 'NONE', ( #52 ), #9 ) ;
#178 =( CONVERSION_BASED_UNIT ( 'INCH', #81 ) LENGTH_UNIT ( ) NAMED_UNIT ( #289 ) );
#179 =( NAMED_UNIT ( * ) PLANE_ANGLE_UNIT ( ) SI_UNIT ( $, .RADIAN. ) );
#180 = DIRECTION ( 'NONE',  ( -3.768143997376470743E-17, 1.000000000000000000, -0.000000000000000000 ) ) ;
#181 = AXIS2_PLACEMENT_3D ( 'NONE', #298, #182, #45 ) ;
#182 = DIRECTION ( 'NONE',  ( -0.000000000000000000, -1.000000000000000000, -0.000000000000000000 ) ) ;
#183 = ORIENTED_EDGE ( 'NONE', *, *, #270, .F. ) ;
#184 = SURFACE_STYLE_FILL_AREA ( #43 ) ;
#185 = ORIENTED_EDGE ( 'NONE', *, *, #218, .T. ) ;
#186 =( GEOMETRIC_REPRESENTATION_CONTEXT ( 3 ) GLOBAL_UNCERTAINTY_ASSIGNED_CONTEXT ( ( #205 ) ) GLOBAL_UNIT_ASSIGNED_CONTEXT ( ( #115, #223, #145 ) ) REPRESENTATION_CONTEXT ( 'NONE', 'WORKASPACE' ) );
#187 = EDGE_LOOP ( 'NONE', ( #133, #44, #90, #277 ) ) ;
#188 = PRODUCT_DEFINITION ( 'UNKNOWN', '', #69, #112 ) ;
#189 =( NAMED_UNIT ( * ) SI_UNIT ( $, .STERADIAN. ) SOLID_ANGLE_UNIT ( ) );
#190 = FILL_AREA_STYLE ('',( #28 ) ) ;
#191 = PLANE ( 'NONE',  #48 ) ;
#192 = VECTOR ( 'NONE', #228, 39.37007874015748143 ) ;
#193 =( LENGTH_UNIT ( ) NAMED_UNIT ( * ) SI_UNIT ( $, .METRE. ) );
#194 = FILL_AREA_STYLE_COLOUR ( '', #15 ) ;
#195 = FACE_OUTER_BOUND ( 'NONE', #260, .T. ) ;
#196 = SURFACE_SIDE_STYLE ('',( #1 ) ) ;
#197 = STYLED_ITEM ( 'NONE', ( #172 ), #7 ) ;
#198 = PRESENTATION_LAYER_ASSIGNMENT (  '', '', ( #262 ) ) ;
#199 = ADVANCED_FACE ( 'NONE', ( #230 ), #62, .T. ) ;
#200 = CARTESIAN_POINT ( 'NONE',  ( -6.123233995736766036E-17, 2.500000000000000000, 0.000000000000000000 ) ) ;
#201 = DIMENSIONAL_EXPONENTS ( 1.000000000000000000, 0.000000000000000000, 0.000000000000000000, 0.000000000000000000, 0.000000000000000000, 0.000000000000000000, 0.000000000000000000 ) ;
#202 = CYLINDRICAL_SURFACE ( 'NONE', #173, 0.06250000000000002776 ) ;
#203 = MECHANICAL_DESIGN_GEOMETRIC_PRESENTATION_REPRESENTATION (  '', ( #244 ), #251 ) ;
#204 = DIRECTION ( 'NONE',  ( -0.000000000000000000, -1.000000000000000000, -0.000000000000000000 ) ) ;
#205 = UNCERTAINTY_MEASURE_WITH_UNIT (LENGTH_MEASURE( 1.000000000000000082E-05 ), #115, 'distance_accuracy_value', 'NONE');
#206 = DIRECTION ( 'NONE',  ( 0.000000000000000000, 0.000000000000000000, -1.000000000000000000 ) ) ;
#207 = ADVANCED_FACE ( 'NONE', ( #259 ), #87, .T. ) ;
#208 = AXIS2_PLACEMENT_3D ( 'NONE', #213, #111, #24 ) ;
#209 = CARTESIAN_POINT ( 'NONE',  ( 0.000000000000000000, 0.000000000000000000, -0.06250000000000000000 ) ) ;
#210 = ORIENTED_EDGE ( 'NONE', *, *, #88, .T. ) ;
#211 = SHAPE_DEFINITION_REPRESENTATION ( #268, #119 ) ;
#212 = ORIENTED_EDGE ( 'NONE', *, *, #54, .F. ) ;
#213 = CARTESIAN_POINT ( 'NONE',  ( 0.000000000000000000, 0.000000000000000000, 0.000000000000000000 ) ) ;
#214 = CIRCLE ( 'NONE', #245, 0.06250000000000005551 ) ;
#215 = AXIS2_PLACEMENT_3D ( 'NONE', #234, #305, #21 ) ;
#216 = LENGTH_MEASURE_WITH_UNIT ( LENGTH_MEASURE( 0.02539999999999999897 ), #143 );
#217 = MANIFOLD_SOLID_BREP ( 'Revolve - Tool Body (Straight Shanked)', #23 ) ;
#218 = EDGE_CURVE ( 'NONE', #135, #20, #13, .T. ) ;
#219 =( NAMED_UNIT ( * ) SI_UNIT ( $, .STERADIAN. ) SOLID_ANGLE_UNIT ( ) );
#220 = MECHANICAL_DESIGN_GEOMETRIC_PRESENTATION_REPRESENTATION (  '', ( #30 ), #299 ) ;
#221 = DIRECTION ( 'NONE',  ( -3.768143997376470743E-17, 1.000000000000000000, -0.000000000000000000 ) ) ;
#222 = APPLICATION_PROTOCOL_DEFINITION ( 'draft international standard', 'automotive_design', 1998, #86 ) ;
#223 =( NAMED_UNIT ( * ) PLANE_ANGLE_UNIT ( ) SI_UNIT ( $, .RADIAN. ) );
#224 = CARTESIAN_POINT ( 'NONE',  ( 0.000000000000000000, 0.8749999999999997780, 0.000000000000000000 ) ) ;
#225 = SURFACE_SIDE_STYLE ('',( #269 ) ) ;
#226 = SURFACE_STYLE_USAGE ( .BOTH. , #225 ) ;
#227 = EDGE_CURVE ( 'NONE', #285, #146, #302, .T. ) ;
#228 = DIRECTION ( 'NONE',  ( -0.000000000000000000, -1.000000000000000000, -0.000000000000000000 ) ) ;
#229 = COLOUR_RGB ( '',0.7921568627450980005, 0.8196078431372548767, 0.9333333333333333481 ) ;
#230 = FACE_OUTER_BOUND ( 'NONE', #283, .T. ) ;
#231 = ORIENTED_EDGE ( 'NONE', *, *, #218, .F. ) ;
#232 = CIRCLE ( 'NONE', #94, 0.06250000000000000000 ) ;
#233 = CIRCLE ( 'NONE', #65, 0.06250000000000000000 ) ;
#234 = CARTESIAN_POINT ( 'NONE',  ( -6.123233995736766036E-17, 2.500000000000000000, 0.000000000000000000 ) ) ;
#235 = EDGE_LOOP ( 'NONE', ( #67, #73 ) ) ;
#236 = DIRECTION ( 'NONE',  ( 0.000000000000000000, 0.000000000000000000, -1.000000000000000000 ) ) ;
#237 = ORIENTED_EDGE ( 'NONE', *, *, #70, .T. ) ;
#238 = CIRCLE ( 'NONE', #152, 0.06250000000000000000 ) ;
#239 =( CONVERSION_BASED_UNIT ( 'INCH', #72 ) LENGTH_UNIT ( ) NAMED_UNIT ( #76 ) );
#240 =( NAMED_UNIT ( * ) PLANE_ANGLE_UNIT ( ) SI_UNIT ( $, .RADIAN. ) );
#241 = EDGE_LOOP ( 'NONE', ( #231, #39, #210, #16 ) ) ;
#242 = LENGTH_MEASURE_WITH_UNIT ( LENGTH_MEASURE( 0.02539999999999999897 ), #306 );
#243 = ORIENTED_EDGE ( 'NONE', *, *, #70, .F. ) ;
#244 = STYLED_ITEM ( 'NONE', ( #89 ), #207 ) ;
#245 = AXIS2_PLACEMENT_3D ( 'NONE', #308, #221, #26 ) ;
#246 = DIRECTION ( 'NONE',  ( -3.768143997376470743E-17, 1.000000000000000000, -0.000000000000000000 ) ) ;
#247 = AXIS2_PLACEMENT_3D ( 'NONE', #150, #31, #250 ) ;
#248 = EDGE_CURVE ( 'NONE', #300, #146, #233, .T. ) ;
#249 = CARTESIAN_POINT ( 'NONE',  ( 7.654042494670957545E-18, 0.8750000000000000000, 0.06250000000000000000 ) ) ;
#250 = DIRECTION ( 'NONE',  ( 0.000000000000000000, 0.000000000000000000, -1.000000000000000000 ) ) ;
#251 =( GEOMETRIC_REPRESENTATION_CONTEXT ( 3 ) GLOBAL_UNCERTAINTY_ASSIGNED_CONTEXT ( ( #257 ) ) GLOBAL_UNIT_ASSIGNED_CONTEXT ( ( #126, #84, #278 ) ) REPRESENTATION_CONTEXT ( 'NONE', 'WORKASPACE' ) );
#252 = LINE ( 'NONE', #38, #192 ) ;
#253 =( LENGTH_UNIT ( ) NAMED_UNIT ( * ) SI_UNIT ( $, .METRE. ) );
#254 = MECHANICAL_DESIGN_GEOMETRIC_PRESENTATION_REPRESENTATION (  '', ( #197 ), #186 ) ;
#255 = LENGTH_MEASURE_WITH_UNIT ( LENGTH_MEASURE( 0.02539999999999999897 ), #109 );
#256 = ORIENTED_EDGE ( 'NONE', *, *, #270, .T. ) ;
#257 = UNCERTAINTY_MEASURE_WITH_UNIT (LENGTH_MEASURE( 1.000000000000000082E-05 ), #126, 'distance_accuracy_value', 'NONE');
#258 = DIRECTION ( 'NONE',  ( -0.000000000000000000, -1.000000000000000000, -0.000000000000000000 ) ) ;
#259 = FACE_OUTER_BOUND ( 'NONE', #93, .T. ) ;
#260 = EDGE_LOOP ( 'NONE', ( #288, #162 ) ) ;
#261 = AXIS2_PLACEMENT_3D ( 'NONE', #101, #204, #293 ) ;
#262 = STYLED_ITEM ( 'NONE', ( #64 ), #217 ) ;
#263 = CARTESIAN_POINT ( 'NONE',  ( 0.000000000000000000, 0.8750000000000000000, -0.06250000000000000000 ) ) ;
#264 = DIRECTION ( 'NONE',  ( -1.000000000000000000, -3.768143997376470743E-17, 0.000000000000000000 ) ) ;
#265 = DIMENSIONAL_EXPONENTS ( 1.000000000000000000, 0.000000000000000000, 0.000000000000000000, 0.000000000000000000, 0.000000000000000000, 0.000000000000000000, 0.000000000000000000 ) ;
#266 = DIRECTION ( 'NONE',  ( 0.000000000000000000, 0.000000000000000000, -1.000000000000000000 ) ) ;
#267 = AXIS2_PLACEMENT_3D ( 'NONE', #27, #118, #75 ) ;
#268 = PRODUCT_DEFINITION_SHAPE ( 'NONE', 'NONE',  #188 ) ;
#269 = SURFACE_STYLE_FILL_AREA ( #78 ) ;
#270 = EDGE_CURVE ( 'NONE', #170, #285, #41, .T. ) ;
#271 = CARTESIAN_POINT ( 'NONE',  ( -0.06250000000000012490, 2.500000000000000000, 0.000000000000000000 ) ) ;
#272 = FILL_AREA_STYLE_COLOUR ( '', #137 ) ;
#273 = CARTESIAN_POINT ( 'NONE',  ( 0.06250000000000000000, 2.500000000000000000, 0.000000000000000000 ) ) ;
#274 = AXIS2_PLACEMENT_3D ( 'NONE', #273, #122, #176 ) ;
#275 = UNCERTAINTY_MEASURE_WITH_UNIT (LENGTH_MEASURE( 1.000000000000000082E-05 ), #178, 'distance_accuracy_value', 'NONE');
#276 = SURFACE_SIDE_STYLE ('',( #107 ) ) ;
#277 = ORIENTED_EDGE ( 'NONE', *, *, #227, .F. ) ;
#278 =( NAMED_UNIT ( * ) SI_UNIT ( $, .STERADIAN. ) SOLID_ANGLE_UNIT ( ) );
#279 = ORIENTED_EDGE ( 'NONE', *, *, #175, .F. ) ;
#280 = MECHANICAL_DESIGN_GEOMETRIC_PRESENTATION_REPRESENTATION (  '', ( #177 ), #47 ) ;
#281 =( GEOMETRIC_REPRESENTATION_CONTEXT ( 3 ) GLOBAL_UNCERTAINTY_ASSIGNED_CONTEXT ( ( #32 ) ) GLOBAL_UNIT_ASSIGNED_CONTEXT ( ( #169, #142, #219 ) ) REPRESENTATION_CONTEXT ( 'NONE', 'WORKASPACE' ) );
#282 = FILL_AREA_STYLE_COLOUR ( '', #17 ) ;
#283 = EDGE_LOOP ( 'NONE', ( #237, #185, #85, #157 ) ) ;
#284 = CARTESIAN_POINT ( 'NONE',  ( 0.06249999999999997224, 2.500000000000000000, 7.654042494670960626E-18 ) ) ;
#285 = VERTEX_POINT ( 'NONE', #263 ) ;
#286 =( LENGTH_UNIT ( ) NAMED_UNIT ( * ) SI_UNIT ( $, .METRE. ) );
#287 =( GEOMETRIC_REPRESENTATION_CONTEXT ( 3 ) GLOBAL_UNCERTAINTY_ASSIGNED_CONTEXT ( ( #275 ) ) GLOBAL_UNIT_ASSIGNED_CONTEXT ( ( #178, #179, #103 ) ) REPRESENTATION_CONTEXT ( 'NONE', 'WORKASPACE' ) );
#288 = ORIENTED_EDGE ( 'NONE', *, *, #159, .T. ) ;
#289 = DIMENSIONAL_EXPONENTS ( 1.000000000000000000, 0.000000000000000000, 0.000000000000000000, 0.000000000000000000, 0.000000000000000000, 0.000000000000000000, 0.000000000000000000 ) ;
#290 = FILL_AREA_STYLE ('',( #194 ) ) ;
#291 =( CONVERSION_BASED_UNIT ( 'INCH', #216 ) LENGTH_UNIT ( ) NAMED_UNIT ( #163 ) );
#292 = LENGTH_MEASURE_WITH_UNIT ( LENGTH_MEASURE( 0.02539999999999999897 ), #286 );
#293 = DIRECTION ( 'NONE',  ( 0.000000000000000000, 0.000000000000000000, -1.000000000000000000 ) ) ;
#294 = ADVANCED_FACE ( 'NONE', ( #307 ), #191, .F. ) ;
#295 = STYLED_ITEM ( 'NONE', ( #102 ), #141 ) ;
#296 = CARTESIAN_POINT ( 'NONE',  ( 0.06250000000000000000, 0.8749999999999997780, 7.654042494670963708E-18 ) ) ;
#297 = PRODUCT_RELATED_PRODUCT_CATEGORY ( 'part', '', ( #2 ) ) ;
#298 = CARTESIAN_POINT ( 'NONE',  ( 0.000000000000000000, 0.8750000000000000000, 0.000000000000000000 ) ) ;
#299 =( GEOMETRIC_REPRESENTATION_CONTEXT ( 3 ) GLOBAL_UNCERTAINTY_ASSIGNED_CONTEXT ( ( #35 ) ) GLOBAL_UNIT_ASSIGNED_CONTEXT ( ( #239, #240, #139 ) ) REPRESENTATION_CONTEXT ( 'NONE', 'WORKASPACE' ) );
#300 = VERTEX_POINT ( 'NONE', #164 ) ;
#301 = ADVANCED_FACE ( 'NONE', ( #195 ), #171, .T. ) ;
#302 = LINE ( 'NONE', #209, #110 ) ;
#303 = VECTOR ( 'NONE', #149, 39.37007874015748143 ) ;
#304 = APPLICATION_PROTOCOL_DEFINITION ( 'draft international standard', 'automotive_design', 1998, #68 ) ;
#305 = DIRECTION ( 'NONE',  ( -3.768143997376470743E-17, 1.000000000000000000, -0.000000000000000000 ) ) ;
#306 =( LENGTH_UNIT ( ) NAMED_UNIT ( * ) SI_UNIT ( $, .METRE. ) );
#307 = FACE_OUTER_BOUND ( 'NONE', #46, .T. ) ;
#308 = CARTESIAN_POINT ( 'NONE',  ( -6.123233995736766036E-17, 2.500000000000000000, 0.000000000000000000 ) ) ;
#309 = DIMENSIONAL_EXPONENTS ( 1.000000000000000000, 0.000000000000000000, 0.000000000000000000, 0.000000000000000000, 0.000000000000000000, 0.000000000000000000, 0.000000000000000000 ) ;
ENDSEC;
END-ISO-10303-21;
