ISO-10303-21;
HEADER;
FILE_DESCRIPTION (( 'STEP AP214' ),
    '1' );
FILE_NAME ('44227.STEP',
    '2023-06-22T19:41:41',
    ( '' ),
    ( '' ),
    'SwSTEP 2.0',
    'SolidWorks 2023',
    '' );
FILE_SCHEMA (( 'AUTOMOTIVE_DESIGN' ));
ENDSEC;

DATA;
#1 = PRESENTATION_LAYER_ASSIGNMENT (  '', '', ( #215 ) ) ;
#2 = MECHANICAL_DESIGN_GEOMETRIC_PRESENTATION_REPRESENTATION (  '', ( #146 ), #105 ) ;
#3 = APPLICATION_CONTEXT ( 'automotive_design' ) ;
#4 = SURFACE_STYLE_USAGE ( .BOTH. , #218 ) ;
#5 = AXIS2_PLACEMENT_3D ( 'NONE', #252, #255, #276 ) ;
#6 = CARTESIAN_POINT ( 'NONE',  ( 0.1875000000000000555, 3.000000000000000444, 2.296212748401289266E-17 ) ) ;
#7 = FILL_AREA_STYLE_COLOUR ( '', #29 ) ;
#8 = DIRECTION ( 'NONE',  ( -1.000000000000000000, 0.000000000000000000, 0.000000000000000000 ) ) ;
#9 = AXIS2_PLACEMENT_3D ( 'NONE', #134, #224, #10 ) ;
#10 = DIRECTION ( 'NONE',  ( 0.000000000000000000, 0.000000000000000000, -1.000000000000000000 ) ) ;
#11 = PRODUCT ( '44227', '44227', '', ( #229 ) ) ;
#12 = ORIENTED_EDGE ( 'NONE', *, *, #247, .T. ) ;
#13 = SURFACE_STYLE_USAGE ( .BOTH. , #260 ) ;
#14 = ORIENTED_EDGE ( 'NONE', *, *, #227, .F. ) ;
#15 = PRODUCT_DEFINITION ( 'UNKNOWN', '', #225, #193 ) ;
#16 = PRESENTATION_STYLE_ASSIGNMENT (( #18 ) ) ;
#17 =( CONVERSION_BASED_UNIT ( 'INCH', #158 ) LENGTH_UNIT ( ) NAMED_UNIT ( #41 ) );
#18 = SURFACE_STYLE_USAGE ( .BOTH. , #282 ) ;
#19 = CLOSED_SHELL ( 'NONE', ( #302, #273, #124, #117 ) ) ;
#20 = VECTOR ( 'NONE', #271, 39.37007874015748143 ) ;
#21 = FILL_AREA_STYLE_COLOUR ( '', #80 ) ;
#22 = FILL_AREA_STYLE ('',( #21 ) ) ;
#23 = UNCERTAINTY_MEASURE_WITH_UNIT (LENGTH_MEASURE( 1.000000000000000082E-05 ), #112, 'distance_accuracy_value', 'NONE');
#24 = DIRECTION ( 'NONE',  ( 6.123233995736769734E-17, -1.000000000000000000, 0.000000000000000000 ) ) ;
#25 = STYLED_ITEM ( 'NONE', ( #36 ), #62 ) ;
#26 = AXIS2_PLACEMENT_3D ( 'NONE', #104, #77, #133 ) ;
#27 = MANIFOLD_SOLID_BREP ( 'Revolve - Tool Body (Straight Shanked)', #19 ) ;
#28 = FACE_OUTER_BOUND ( 'NONE', #85, .T. ) ;
#29 = COLOUR_RGB ( '',0.7921568627450980005, 0.8196078431372548767, 0.9333333333333333481 ) ;
#30 =( CONVERSION_BASED_UNIT ( 'INCH', #248 ) LENGTH_UNIT ( ) NAMED_UNIT ( #241 ) );
#31 = CYLINDRICAL_SURFACE ( 'NONE', #9, 0.1875000000000000555 ) ;
#32 = CARTESIAN_POINT ( 'NONE',  ( 2.296212748401287726E-17, 0.000000000000000000, 0.1875000000000000278 ) ) ;
#33 = CARTESIAN_POINT ( 'NONE',  ( -1.224646799147353700E-16, 3.000000000000000444, 0.000000000000000000 ) ) ;
#34 = EDGE_LOOP ( 'NONE', ( #12, #90, #60, #37 ) ) ;
#35 =( NAMED_UNIT ( * ) SI_UNIT ( $, .STERADIAN. ) SOLID_ANGLE_UNIT ( ) );
#36 = PRESENTATION_STYLE_ASSIGNMENT (( #13 ) ) ;
#37 = ORIENTED_EDGE ( 'NONE', *, *, #221, .F. ) ;
#38 =( NAMED_UNIT ( * ) PLANE_ANGLE_UNIT ( ) SI_UNIT ( $, .RADIAN. ) );
#39 =( LENGTH_UNIT ( ) NAMED_UNIT ( * ) SI_UNIT ( $, .METRE. ) );
#40 = AXIS2_PLACEMENT_3D ( 'NONE', #166, #24, #240 ) ;
#41 = DIMENSIONAL_EXPONENTS ( 1.000000000000000000, 0.000000000000000000, 0.000000000000000000, 0.000000000000000000, 0.000000000000000000, 0.000000000000000000, 0.000000000000000000 ) ;
#42 = STYLED_ITEM ( 'NONE', ( #222 ), #307 ) ;
#43 = APPLICATION_PROTOCOL_DEFINITION ( 'draft international standard', 'automotive_design', 1998, #3 ) ;
#44 = VERTEX_POINT ( 'NONE', #202 ) ;
#45 = LENGTH_MEASURE_WITH_UNIT ( LENGTH_MEASURE( 0.02539999999999999897 ), #238 );
#46 = FILL_AREA_STYLE_COLOUR ( '', #300 ) ;
#47 = EDGE_CURVE ( 'NONE', #256, #88, #118, .T. ) ;
#48 = AXIS2_PLACEMENT_3D ( 'NONE', #78, #200, #292 ) ;
#49 = CYLINDRICAL_SURFACE ( 'NONE', #286, 0.1875000000000000555 ) ;
#50 = MANIFOLD_SOLID_BREP ( 'Revolve - Cutting Edge', #76 ) ;
#51 = FILL_AREA_STYLE_COLOUR ( '', #243 ) ;
#52 = DIRECTION ( 'NONE',  ( -1.000000000000000000, 0.000000000000000000, 0.000000000000000000 ) ) ;
#53 = DIRECTION ( 'NONE',  ( 0.000000000000000000, 0.000000000000000000, -1.000000000000000000 ) ) ;
#54 = EDGE_CURVE ( 'NONE', #279, #298, #143, .T. ) ;
#55 = DIRECTION ( 'NONE',  ( -6.123233995736769734E-17, 1.000000000000000000, -0.000000000000000000 ) ) ;
#56 = DIRECTION ( 'NONE',  ( -1.000000000000000000, 0.000000000000000000, 0.000000000000000000 ) ) ;
#57 =( GEOMETRIC_REPRESENTATION_CONTEXT ( 3 ) GLOBAL_UNCERTAINTY_ASSIGNED_CONTEXT ( ( #239 ) ) GLOBAL_UNIT_ASSIGNED_CONTEXT ( ( #17, #38, #233 ) ) REPRESENTATION_CONTEXT ( 'NONE', 'WORKASPACE' ) );
#58 = AXIS2_PLACEMENT_3D ( 'NONE', #203, #262, #257 ) ;
#59 =( CONVERSION_BASED_UNIT ( 'INCH', #86 ) LENGTH_UNIT ( ) NAMED_UNIT ( #237 ) );
#60 = ORIENTED_EDGE ( 'NONE', *, *, #250, .F. ) ;
#61 = DIRECTION ( 'NONE',  ( 0.000000000000000000, 0.000000000000000000, -1.000000000000000000 ) ) ;
#62 = ADVANCED_FACE ( 'NONE', ( #69 ), #235, .T. ) ;
#63 = DIMENSIONAL_EXPONENTS ( 1.000000000000000000, 0.000000000000000000, 0.000000000000000000, 0.000000000000000000, 0.000000000000000000, 0.000000000000000000, 0.000000000000000000 ) ;
#64 =( NAMED_UNIT ( * ) PLANE_ANGLE_UNIT ( ) SI_UNIT ( $, .RADIAN. ) );
#65 =( GEOMETRIC_REPRESENTATION_CONTEXT ( 3 ) GLOBAL_UNCERTAINTY_ASSIGNED_CONTEXT ( ( #155 ) ) GLOBAL_UNIT_ASSIGNED_CONTEXT ( ( #121, #148, #93 ) ) REPRESENTATION_CONTEXT ( 'NONE', 'WORKASPACE' ) );
#66 = VECTOR ( 'NONE', #272, 39.37007874015748143 ) ;
#67 = CARTESIAN_POINT ( 'NONE',  ( 2.296212748401288034E-17, 0.000000000000000000, 0.1875000000000000555 ) ) ;
#68 = EDGE_LOOP ( 'NONE', ( #136, #165 ) ) ;
#69 = FACE_OUTER_BOUND ( 'NONE', #234, .T. ) ;
#70 = VERTEX_POINT ( 'NONE', #278 ) ;
#71 = PRESENTATION_STYLE_ASSIGNMENT (( #4 ) ) ;
#72 = AXIS2_PLACEMENT_3D ( 'NONE', #87, #181, #61 ) ;
#73 = DIMENSIONAL_EXPONENTS ( 1.000000000000000000, 0.000000000000000000, 0.000000000000000000, 0.000000000000000000, 0.000000000000000000, 0.000000000000000000, 0.000000000000000000 ) ;
#74 =( NAMED_UNIT ( * ) SI_UNIT ( $, .STERADIAN. ) SOLID_ANGLE_UNIT ( ) );
#75 = SURFACE_STYLE_FILL_AREA ( #184 ) ;
#76 = CLOSED_SHELL ( 'NONE', ( #307, #62, #132, #151 ) ) ;
#77 = DIRECTION ( 'NONE',  ( -0.000000000000000000, -1.000000000000000000, -0.000000000000000000 ) ) ;
#78 = CARTESIAN_POINT ( 'NONE',  ( 3.515061990613733900E-34, 1.000000000000000000, 0.000000000000000000 ) ) ;
#79 = DIRECTION ( 'NONE',  ( -0.000000000000000000, -1.000000000000000000, -0.000000000000000000 ) ) ;
#80 = COLOUR_RGB ( '',1.000000000000000000, 0.000000000000000000, 0.000000000000000000 ) ;
#81 = CIRCLE ( 'NONE', #170, 0.1875000000000001943 ) ;
#82 = FILL_AREA_STYLE ('',( #131 ) ) ;
#83 = DIRECTION ( 'NONE',  ( -6.123233995736769734E-17, 1.000000000000000000, -0.000000000000000000 ) ) ;
#84 = PRODUCT_RELATED_PRODUCT_CATEGORY ( 'part', '', ( #11 ) ) ;
#85 = EDGE_LOOP ( 'NONE', ( #232, #187, #259, #14 ) ) ;
#86 = LENGTH_MEASURE_WITH_UNIT ( LENGTH_MEASURE( 0.02539999999999999897 ), #111 );
#87 = CARTESIAN_POINT ( 'NONE',  ( 0.000000000000000000, 1.000000000000000000, 0.000000000000000000 ) ) ;
#88 = VERTEX_POINT ( 'NONE', #109 ) ;
#89 =( NAMED_UNIT ( * ) SI_UNIT ( $, .STERADIAN. ) SOLID_ANGLE_UNIT ( ) );
#90 = ORIENTED_EDGE ( 'NONE', *, *, #54, .T. ) ;
#91 = PRESENTATION_LAYER_ASSIGNMENT (  '', '', ( #25 ) ) ;
#92 =( CONVERSION_BASED_UNIT ( 'INCH', #141 ) LENGTH_UNIT ( ) NAMED_UNIT ( #122 ) );
#93 =( NAMED_UNIT ( * ) SI_UNIT ( $, .STERADIAN. ) SOLID_ANGLE_UNIT ( ) );
#94 = UNCERTAINTY_MEASURE_WITH_UNIT (LENGTH_MEASURE( 1.000000000000000082E-05 ), #59, 'distance_accuracy_value', 'NONE');
#95 = CARTESIAN_POINT ( 'NONE',  ( -1.224646799147353700E-16, 3.000000000000000444, 0.000000000000000000 ) ) ;
#96 = EDGE_CURVE ( 'NONE', #298, #44, #137, .T. ) ;
#97 = PRESENTATION_LAYER_ASSIGNMENT (  '', '', ( #223 ) ) ;
#98 =( GEOMETRIC_REPRESENTATION_CONTEXT ( 3 ) GLOBAL_UNCERTAINTY_ASSIGNED_CONTEXT ( ( #213 ) ) GLOBAL_UNIT_ASSIGNED_CONTEXT ( ( #30, #196, #106 ) ) REPRESENTATION_CONTEXT ( 'NONE', 'WORKASPACE' ) );
#99 = CARTESIAN_POINT ( 'NONE',  ( 0.000000000000000000, 0.000000000000000000, 0.000000000000000000 ) ) ;
#100 = DIRECTION ( 'NONE',  ( -6.123233995736769734E-17, 1.000000000000000000, -0.000000000000000000 ) ) ;
#101 = EDGE_CURVE ( 'NONE', #279, #108, #174, .T. ) ;
#102 = DIRECTION ( 'NONE',  ( -1.000000000000000000, 0.000000000000000000, 0.000000000000000000 ) ) ;
#103 = PRODUCT_DEFINITION_SHAPE ( 'NONE', 'NONE',  #15 ) ;
#104 = CARTESIAN_POINT ( 'NONE',  ( 0.000000000000000000, 1.000000000000000000, 0.000000000000000000 ) ) ;
#105 =( GEOMETRIC_REPRESENTATION_CONTEXT ( 3 ) GLOBAL_UNCERTAINTY_ASSIGNED_CONTEXT ( ( #126 ) ) GLOBAL_UNIT_ASSIGNED_CONTEXT ( ( #288, #285, #74 ) ) REPRESENTATION_CONTEXT ( 'NONE', 'WORKASPACE' ) );
#106 =( NAMED_UNIT ( * ) SI_UNIT ( $, .STERADIAN. ) SOLID_ANGLE_UNIT ( ) );
#107 = ORIENTED_EDGE ( 'NONE', *, *, #47, .T. ) ;
#108 = VERTEX_POINT ( 'NONE', #139 ) ;
#109 = CARTESIAN_POINT ( 'NONE',  ( 0.1875000000000000555, 1.000000000000000000, 2.296212748401289266E-17 ) ) ;
#110 = EDGE_LOOP ( 'NONE', ( #107, #236, #309, #185 ) ) ;
#111 =( LENGTH_UNIT ( ) NAMED_UNIT ( * ) SI_UNIT ( $, .METRE. ) );
#112 =( CONVERSION_BASED_UNIT ( 'INCH', #45 ) LENGTH_UNIT ( ) NAMED_UNIT ( #63 ) );
#113 = ORIENTED_EDGE ( 'NONE', *, *, #221, .T. ) ;
#114 = ORIENTED_EDGE ( 'NONE', *, *, #294, .T. ) ;
#115 = DIRECTION ( 'NONE',  ( 0.000000000000000000, 0.000000000000000000, -1.000000000000000000 ) ) ;
#116 = ORIENTED_EDGE ( 'NONE', *, *, #54, .F. ) ;
#117 = ADVANCED_FACE ( 'NONE', ( #208 ), #308, .F. ) ;
#118 = CIRCLE ( 'NONE', #178, 0.1875000000000000555 ) ;
#119 = DIRECTION ( 'NONE',  ( -0.000000000000000000, -1.000000000000000000, -0.000000000000000000 ) ) ;
#120 = ADVANCED_BREP_SHAPE_REPRESENTATION ( '44227', ( #50, #27, #58 ), #296 ) ;
#121 =( CONVERSION_BASED_UNIT ( 'INCH', #287 ) LENGTH_UNIT ( ) NAMED_UNIT ( #163 ) );
#122 = DIMENSIONAL_EXPONENTS ( 1.000000000000000000, 0.000000000000000000, 0.000000000000000000, 0.000000000000000000, 0.000000000000000000, 0.000000000000000000, 0.000000000000000000 ) ;
#123 = PRESENTATION_STYLE_ASSIGNMENT (( #125 ) ) ;
#124 = ADVANCED_FACE ( 'NONE', ( #28 ), #144, .T. ) ;
#125 = SURFACE_STYLE_USAGE ( .BOTH. , #263 ) ;
#126 = UNCERTAINTY_MEASURE_WITH_UNIT (LENGTH_MEASURE( 1.000000000000000082E-05 ), #288, 'distance_accuracy_value', 'NONE');
#127 = FACE_OUTER_BOUND ( 'NONE', #211, .T. ) ;
#128 = COLOUR_RGB ( '',1.000000000000000000, 0.000000000000000000, 0.000000000000000000 ) ;
#129 = CYLINDRICAL_SURFACE ( 'NONE', #216, 0.1875000000000001110 ) ;
#130 = AXIS2_PLACEMENT_3D ( 'NONE', #172, #79, #53 ) ;
#131 = FILL_AREA_STYLE_COLOUR ( '', #191 ) ;
#132 = ADVANCED_FACE ( 'NONE', ( #127 ), #49, .T. ) ;
#133 = DIRECTION ( 'NONE',  ( 0.000000000000000000, 0.000000000000000000, -1.000000000000000000 ) ) ;
#134 = CARTESIAN_POINT ( 'NONE',  ( 0.000000000000000000, 0.000000000000000000, 0.000000000000000000 ) ) ;
#135 = VECTOR ( 'NONE', #154, 39.37007874015748143 ) ;
#136 = ORIENTED_EDGE ( 'NONE', *, *, #250, .T. ) ;
#137 = CIRCLE ( 'NONE', #204, 0.1875000000000000278 ) ;
#138 =( NAMED_UNIT ( * ) PLANE_ANGLE_UNIT ( ) SI_UNIT ( $, .RADIAN. ) );
#139 = CARTESIAN_POINT ( 'NONE',  ( 0.000000000000000000, 1.000000000000000000, -0.1875000000000000555 ) ) ;
#140 = ORIENTED_EDGE ( 'NONE', *, *, #47, .F. ) ;
#141 = LENGTH_MEASURE_WITH_UNIT ( LENGTH_MEASURE( 0.02539999999999999897 ), #39 );
#142 = PRESENTATION_STYLE_ASSIGNMENT (( #305 ) ) ;
#143 = LINE ( 'NONE', #67, #156 ) ;
#144 = CYLINDRICAL_SURFACE ( 'NONE', #258, 0.1875000000000001110 ) ;
#145 = FILL_AREA_STYLE ('',( #51 ) ) ;
#146 = STYLED_ITEM ( 'NONE', ( #71 ), #151 ) ;
#147 = DIRECTION ( 'NONE',  ( -6.123233995736769734E-17, 1.000000000000000000, -0.000000000000000000 ) ) ;
#148 =( NAMED_UNIT ( * ) PLANE_ANGLE_UNIT ( ) SI_UNIT ( $, .RADIAN. ) );
#149 = SURFACE_STYLE_FILL_AREA ( #82 ) ;
#150 =( GEOMETRIC_REPRESENTATION_CONTEXT ( 3 ) GLOBAL_UNCERTAINTY_ASSIGNED_CONTEXT ( ( #284 ) ) GLOBAL_UNIT_ASSIGNED_CONTEXT ( ( #92, #64, #228 ) ) REPRESENTATION_CONTEXT ( 'NONE', 'WORKASPACE' ) );
#151 = ADVANCED_FACE ( 'NONE', ( #190 ), #266, .T. ) ;
#152 =( LENGTH_UNIT ( ) NAMED_UNIT ( * ) SI_UNIT ( $, .METRE. ) );
#153 = CARTESIAN_POINT ( 'NONE',  ( -1.224646799147353700E-16, 3.000000000000000444, 0.000000000000000000 ) ) ;
#154 = DIRECTION ( 'NONE',  ( -6.123233995736769734E-17, 1.000000000000000000, -0.000000000000000000 ) ) ;
#155 = UNCERTAINTY_MEASURE_WITH_UNIT (LENGTH_MEASURE( 1.000000000000000082E-05 ), #121, 'distance_accuracy_value', 'NONE');
#156 = VECTOR ( 'NONE', #119, 39.37007874015748143 ) ;
#157 = SHAPE_DEFINITION_REPRESENTATION ( #103, #120 ) ;
#158 = LENGTH_MEASURE_WITH_UNIT ( LENGTH_MEASURE( 0.02539999999999999897 ), #189 );
#159 = ORIENTED_EDGE ( 'NONE', *, *, #183, .F. ) ;
#160 = FILL_AREA_STYLE ('',( #230 ) ) ;
#161 = FILL_AREA_STYLE ('',( #46 ) ) ;
#162 = PRESENTATION_LAYER_ASSIGNMENT (  '', '', ( #295 ) ) ;
#163 = DIMENSIONAL_EXPONENTS ( 1.000000000000000000, 0.000000000000000000, 0.000000000000000000, 0.000000000000000000, 0.000000000000000000, 0.000000000000000000, 0.000000000000000000 ) ;
#164 = AXIS2_PLACEMENT_3D ( 'NONE', #33, #83, #8 ) ;
#165 = ORIENTED_EDGE ( 'NONE', *, *, #96, .T. ) ;
#166 = CARTESIAN_POINT ( 'NONE',  ( 0.1875000000000000555, 3.000000000000000444, 0.000000000000000000 ) ) ;
#167 = APPLICATION_CONTEXT ( 'automotive_design' ) ;
#168 = DIRECTION ( 'NONE',  ( 0.000000000000000000, 0.000000000000000000, -1.000000000000000000 ) ) ;
#169 = EDGE_CURVE ( 'NONE', #256, #70, #171, .T. ) ;
#170 = AXIS2_PLACEMENT_3D ( 'NONE', #297, #299, #173 ) ;
#171 = LINE ( 'NONE', #269, #135 ) ;
#172 = CARTESIAN_POINT ( 'NONE',  ( 0.000000000000000000, 0.000000000000000000, 0.000000000000000000 ) ) ;
#173 = DIRECTION ( 'NONE',  ( -1.000000000000000000, 0.000000000000000000, 0.000000000000000000 ) ) ;
#174 = CIRCLE ( 'NONE', #72, 0.1875000000000000555 ) ;
#175 = CARTESIAN_POINT ( 'NONE',  ( -0.1875000000000000555, 1.000000000000000000, 0.000000000000000000 ) ) ;
#176 = CIRCLE ( 'NONE', #26, 0.1875000000000000555 ) ;
#177 = CARTESIAN_POINT ( 'NONE',  ( 0.1874999999999999722, 3.000000000000000444, 2.296212748401288650E-17 ) ) ;
#178 = AXIS2_PLACEMENT_3D ( 'NONE', #179, #277, #182 ) ;
#179 = CARTESIAN_POINT ( 'NONE',  ( 3.032960542342103792E-32, 1.000000000000000000, 0.000000000000000000 ) ) ;
#180 = AXIS2_PLACEMENT_3D ( 'NONE', #99, #283, #194 ) ;
#181 = DIRECTION ( 'NONE',  ( -0.000000000000000000, -1.000000000000000000, -0.000000000000000000 ) ) ;
#182 = DIRECTION ( 'NONE',  ( -1.000000000000000000, 0.000000000000000000, 0.000000000000000000 ) ) ;
#183 = EDGE_CURVE ( 'NONE', #88, #256, #244, .T. ) ;
#184 = FILL_AREA_STYLE ('',( #7 ) ) ;
#185 = ORIENTED_EDGE ( 'NONE', *, *, #169, .F. ) ;
#186 = MECHANICAL_DESIGN_GEOMETRIC_PRESENTATION_REPRESENTATION (  '', ( #215 ), #150 ) ;
#187 = ORIENTED_EDGE ( 'NONE', *, *, #183, .T. ) ;
#188 =( LENGTH_UNIT ( ) NAMED_UNIT ( * ) SI_UNIT ( $, .METRE. ) );
#189 =( LENGTH_UNIT ( ) NAMED_UNIT ( * ) SI_UNIT ( $, .METRE. ) );
#190 = FACE_OUTER_BOUND ( 'NONE', #68, .T. ) ;
#191 = COLOUR_RGB ( '',1.000000000000000000, 0.000000000000000000, 0.000000000000000000 ) ;
#192 =( LENGTH_UNIT ( ) NAMED_UNIT ( * ) SI_UNIT ( $, .METRE. ) );
#193 = PRODUCT_DEFINITION_CONTEXT ( 'detailed design', #167, 'design' ) ;
#194 = DIRECTION ( 'NONE',  ( 0.000000000000000000, 0.000000000000000000, -1.000000000000000000 ) ) ;
#195 = PRESENTATION_LAYER_ASSIGNMENT (  '', '', ( #42 ) ) ;
#196 =( NAMED_UNIT ( * ) PLANE_ANGLE_UNIT ( ) SI_UNIT ( $, .RADIAN. ) );
#197 = LINE ( 'NONE', #219, #20 ) ;
#198 = SURFACE_STYLE_USAGE ( .BOTH. , #246 ) ;
#199 = MECHANICAL_DESIGN_GEOMETRIC_PRESENTATION_REPRESENTATION (  '', ( #295 ), #65 ) ;
#200 = DIRECTION ( 'NONE',  ( -6.123233995736769734E-17, 1.000000000000000000, 0.000000000000000000 ) ) ;
#201 = CIRCLE ( 'NONE', #130, 0.1875000000000000278 ) ;
#202 = CARTESIAN_POINT ( 'NONE',  ( 0.000000000000000000, 0.000000000000000000, -0.1875000000000000278 ) ) ;
#203 = CARTESIAN_POINT ( 'NONE',  ( 0.000000000000000000, 0.000000000000000000, 0.000000000000000000 ) ) ;
#204 = AXIS2_PLACEMENT_3D ( 'NONE', #210, #303, #115 ) ;
#205 = ORIENTED_EDGE ( 'NONE', *, *, #101, .T. ) ;
#206 =( NAMED_UNIT ( * ) PLANE_ANGLE_UNIT ( ) SI_UNIT ( $, .RADIAN. ) );
#207 = ORIENTED_EDGE ( 'NONE', *, *, #227, .T. ) ;
#208 = FACE_OUTER_BOUND ( 'NONE', #280, .T. ) ;
#209 = SURFACE_STYLE_FILL_AREA ( #161 ) ;
#210 = CARTESIAN_POINT ( 'NONE',  ( 0.000000000000000000, 0.000000000000000000, 0.000000000000000000 ) ) ;
#211 = EDGE_LOOP ( 'NONE', ( #116, #205, #113, #253 ) ) ;
#212 = PRESENTATION_LAYER_ASSIGNMENT (  '', '', ( #146 ) ) ;
#213 = UNCERTAINTY_MEASURE_WITH_UNIT (LENGTH_MEASURE( 1.000000000000000082E-05 ), #30, 'distance_accuracy_value', 'NONE');
#214 = DIRECTION ( 'NONE',  ( -0.000000000000000000, -1.000000000000000000, -0.000000000000000000 ) ) ;
#215 = STYLED_ITEM ( 'NONE', ( #16 ), #27 ) ;
#216 = AXIS2_PLACEMENT_3D ( 'NONE', #153, #55, #56 ) ;
#217 = CARTESIAN_POINT ( 'NONE',  ( 0.000000000000000000, 0.000000000000000000, 0.000000000000000000 ) ) ;
#218 = SURFACE_SIDE_STYLE ('',( #242 ) ) ;
#219 = CARTESIAN_POINT ( 'NONE',  ( 0.000000000000000000, 0.000000000000000000, -0.1875000000000000555 ) ) ;
#220 = FACE_OUTER_BOUND ( 'NONE', #110, .T. ) ;
#221 = EDGE_CURVE ( 'NONE', #108, #44, #197, .T. ) ;
#222 = PRESENTATION_STYLE_ASSIGNMENT (( #198 ) ) ;
#223 = STYLED_ITEM ( 'NONE', ( #142 ), #50 ) ;
#224 = DIRECTION ( 'NONE',  ( -0.000000000000000000, -1.000000000000000000, -0.000000000000000000 ) ) ;
#225 = PRODUCT_DEFINITION_FORMATION_WITH_SPECIFIED_SOURCE ( 'ANY', '', #11, .NOT_KNOWN. ) ;
#226 = EDGE_LOOP ( 'NONE', ( #140, #159 ) ) ;
#227 = EDGE_CURVE ( 'NONE', #231, #70, #301, .T. ) ;
#228 =( NAMED_UNIT ( * ) SI_UNIT ( $, .STERADIAN. ) SOLID_ANGLE_UNIT ( ) );
#229 = PRODUCT_CONTEXT ( 'NONE', #3, 'mechanical' ) ;
#230 = FILL_AREA_STYLE_COLOUR ( '', #128 ) ;
#231 = VERTEX_POINT ( 'NONE', #6 ) ;
#232 = ORIENTED_EDGE ( 'NONE', *, *, #281, .F. ) ;
#233 =( NAMED_UNIT ( * ) SI_UNIT ( $, .STERADIAN. ) SOLID_ANGLE_UNIT ( ) );
#234 = EDGE_LOOP ( 'NONE', ( #304, #261 ) ) ;
#235 = PLANE ( 'NONE',  #5 ) ;
#236 = ORIENTED_EDGE ( 'NONE', *, *, #281, .T. ) ;
#237 = DIMENSIONAL_EXPONENTS ( 1.000000000000000000, 0.000000000000000000, 0.000000000000000000, 0.000000000000000000, 0.000000000000000000, 0.000000000000000000, 0.000000000000000000 ) ;
#238 =( LENGTH_UNIT ( ) NAMED_UNIT ( * ) SI_UNIT ( $, .METRE. ) );
#239 = UNCERTAINTY_MEASURE_WITH_UNIT (LENGTH_MEASURE( 1.000000000000000082E-05 ), #17, 'distance_accuracy_value', 'NONE');
#240 = DIRECTION ( 'NONE',  ( 1.000000000000000000, 6.123233995736769734E-17, 0.000000000000000000 ) ) ;
#241 = DIMENSIONAL_EXPONENTS ( 1.000000000000000000, 0.000000000000000000, 0.000000000000000000, 0.000000000000000000, 0.000000000000000000, 0.000000000000000000, 0.000000000000000000 ) ;
#242 = SURFACE_STYLE_FILL_AREA ( #145 ) ;
#243 = COLOUR_RGB ( '',1.000000000000000000, 0.000000000000000000, 0.000000000000000000 ) ;
#244 = CIRCLE ( 'NONE', #265, 0.1875000000000000555 ) ;
#245 = LENGTH_MEASURE_WITH_UNIT ( LENGTH_MEASURE( 0.02539999999999999897 ), #192 );
#246 = SURFACE_SIDE_STYLE ('',( #149 ) ) ;
#247 = EDGE_CURVE ( 'NONE', #108, #279, #176, .T. ) ;
#248 = LENGTH_MEASURE_WITH_UNIT ( LENGTH_MEASURE( 0.02539999999999999897 ), #152 );
#249 = PLANE ( 'NONE',  #48 ) ;
#250 = EDGE_CURVE ( 'NONE', #44, #298, #201, .T. ) ;
#251 = FACE_OUTER_BOUND ( 'NONE', #34, .T. ) ;
#252 = CARTESIAN_POINT ( 'NONE',  ( 0.000000000000000000, 1.000000000000000000, 0.000000000000000000 ) ) ;
#253 = ORIENTED_EDGE ( 'NONE', *, *, #96, .F. ) ;
#254 = APPLICATION_PROTOCOL_DEFINITION ( 'draft international standard', 'automotive_design', 1998, #167 ) ;
#255 = DIRECTION ( 'NONE',  ( 0.000000000000000000, 1.000000000000000000, 0.000000000000000000 ) ) ;
#256 = VERTEX_POINT ( 'NONE', #175 ) ;
#257 = DIRECTION ( 'NONE',  ( 1.000000000000000000, 0.000000000000000000, 0.000000000000000000 ) ) ;
#258 = AXIS2_PLACEMENT_3D ( 'NONE', #95, #147, #52 ) ;
#259 = ORIENTED_EDGE ( 'NONE', *, *, #169, .T. ) ;
#260 = SURFACE_SIDE_STYLE ('',( #306 ) ) ;
#261 = ORIENTED_EDGE ( 'NONE', *, *, #101, .F. ) ;
#262 = DIRECTION ( 'NONE',  ( 0.000000000000000000, 0.000000000000000000, 1.000000000000000000 ) ) ;
#263 = SURFACE_SIDE_STYLE ('',( #267 ) ) ;
#264 =( GEOMETRIC_REPRESENTATION_CONTEXT ( 3 ) GLOBAL_UNCERTAINTY_ASSIGNED_CONTEXT ( ( #23 ) ) GLOBAL_UNIT_ASSIGNED_CONTEXT ( ( #112, #206, #89 ) ) REPRESENTATION_CONTEXT ( 'NONE', 'WORKASPACE' ) );
#265 = AXIS2_PLACEMENT_3D ( 'NONE', #275, #100, #102 ) ;
#266 = PLANE ( 'NONE',  #180 ) ;
#267 = SURFACE_STYLE_FILL_AREA ( #22 ) ;
#268 = MECHANICAL_DESIGN_GEOMETRIC_PRESENTATION_REPRESENTATION (  '', ( #25 ), #264 ) ;
#269 = CARTESIAN_POINT ( 'NONE',  ( -0.1875000000000002498, 3.000000000000000444, 0.000000000000000000 ) ) ;
#270 = LINE ( 'NONE', #177, #66 ) ;
#271 = DIRECTION ( 'NONE',  ( -0.000000000000000000, -1.000000000000000000, -0.000000000000000000 ) ) ;
#272 = DIRECTION ( 'NONE',  ( -6.123233995736769734E-17, 1.000000000000000000, -0.000000000000000000 ) ) ;
#273 = ADVANCED_FACE ( 'NONE', ( #293 ), #249, .F. ) ;
#274 = CARTESIAN_POINT ( 'NONE',  ( 2.296212748401288034E-17, 1.000000000000000000, 0.1875000000000000555 ) ) ;
#275 = CARTESIAN_POINT ( 'NONE',  ( 3.032960542342103792E-32, 1.000000000000000000, 0.000000000000000000 ) ) ;
#276 = DIRECTION ( 'NONE',  ( 0.000000000000000000, -0.000000000000000000, 1.000000000000000000 ) ) ;
#277 = DIRECTION ( 'NONE',  ( -6.123233995736769734E-17, 1.000000000000000000, -0.000000000000000000 ) ) ;
#278 = CARTESIAN_POINT ( 'NONE',  ( -0.1875000000000003331, 3.000000000000000444, 0.000000000000000000 ) ) ;
#279 = VERTEX_POINT ( 'NONE', #274 ) ;
#280 = EDGE_LOOP ( 'NONE', ( #114, #207 ) ) ;
#281 = EDGE_CURVE ( 'NONE', #88, #231, #270, .T. ) ;
#282 = SURFACE_SIDE_STYLE ('',( #209 ) ) ;
#283 = DIRECTION ( 'NONE',  ( 0.000000000000000000, -1.000000000000000000, -0.000000000000000000 ) ) ;
#284 = UNCERTAINTY_MEASURE_WITH_UNIT (LENGTH_MEASURE( 1.000000000000000082E-05 ), #92, 'distance_accuracy_value', 'NONE');
#285 =( NAMED_UNIT ( * ) PLANE_ANGLE_UNIT ( ) SI_UNIT ( $, .RADIAN. ) );
#286 = AXIS2_PLACEMENT_3D ( 'NONE', #217, #214, #168 ) ;
#287 = LENGTH_MEASURE_WITH_UNIT ( LENGTH_MEASURE( 0.02539999999999999897 ), #188 );
#288 =( CONVERSION_BASED_UNIT ( 'INCH', #245 ) LENGTH_UNIT ( ) NAMED_UNIT ( #73 ) );
#289 = SURFACE_SIDE_STYLE ('',( #75 ) ) ;
#290 = MECHANICAL_DESIGN_GEOMETRIC_PRESENTATION_REPRESENTATION (  '', ( #223 ), #57 ) ;
#291 = MECHANICAL_DESIGN_GEOMETRIC_PRESENTATION_REPRESENTATION (  '', ( #42 ), #98 ) ;
#292 = DIRECTION ( 'NONE',  ( -1.000000000000000000, -6.123233995736769734E-17, 0.000000000000000000 ) ) ;
#293 = FACE_OUTER_BOUND ( 'NONE', #226, .T. ) ;
#294 = EDGE_CURVE ( 'NONE', #70, #231, #81, .T. ) ;
#295 = STYLED_ITEM ( 'NONE', ( #123 ), #132 ) ;
#296 =( GEOMETRIC_REPRESENTATION_CONTEXT ( 3 ) GLOBAL_UNCERTAINTY_ASSIGNED_CONTEXT ( ( #94 ) ) GLOBAL_UNIT_ASSIGNED_CONTEXT ( ( #59, #138, #35 ) ) REPRESENTATION_CONTEXT ( 'NONE', 'WORKASPACE' ) );
#297 = CARTESIAN_POINT ( 'NONE',  ( -1.224646799147353700E-16, 3.000000000000000444, 0.000000000000000000 ) ) ;
#298 = VERTEX_POINT ( 'NONE', #32 ) ;
#299 = DIRECTION ( 'NONE',  ( -6.123233995736769734E-17, 1.000000000000000000, -0.000000000000000000 ) ) ;
#300 = COLOUR_RGB ( '',0.7921568627450980005, 0.8196078431372548767, 0.9333333333333333481 ) ;
#301 = CIRCLE ( 'NONE', #164, 0.1875000000000001943 ) ;
#302 = ADVANCED_FACE ( 'NONE', ( #220 ), #129, .T. ) ;
#303 = DIRECTION ( 'NONE',  ( -0.000000000000000000, -1.000000000000000000, -0.000000000000000000 ) ) ;
#304 = ORIENTED_EDGE ( 'NONE', *, *, #247, .F. ) ;
#305 = SURFACE_STYLE_USAGE ( .BOTH. , #289 ) ;
#306 = SURFACE_STYLE_FILL_AREA ( #160 ) ;
#307 = ADVANCED_FACE ( 'NONE', ( #251 ), #31, .T. ) ;
#308 = PLANE ( 'NONE',  #40 ) ;
#309 = ORIENTED_EDGE ( 'NONE', *, *, #294, .F. ) ;
ENDSEC;
END-ISO-10303-21;
