ISO-10303-21;
HEADER;
FILE_DESCRIPTION (( 'STEP AP214' ),
    '1' );
FILE_NAME ('59944.STEP',
    '2023-06-23T00:12:21',
    ( '' ),
    ( '' ),
    'SwSTEP 2.0',
    'SolidWorks 2023',
    '' );
FILE_SCHEMA (( 'AUTOMOTIVE_DESIGN' ));
ENDSEC;

DATA;
#1 = DIMENSIONAL_EXPONENTS ( 1.000000000000000000, 0.000000000000000000, 0.000000000000000000, 0.000000000000000000, 0.000000000000000000, 0.000000000000000000, 0.000000000000000000 ) ;
#2 = ORIENTED_EDGE ( 'NONE', *, *, #252, .T. ) ;
#3 = PRODUCT_RELATED_PRODUCT_CATEGORY ( 'part', '', ( #253 ) ) ;
#4 =( NAMED_UNIT ( * ) PLANE_ANGLE_UNIT ( ) SI_UNIT ( $, .RADIAN. ) );
#5 = VERTEX_POINT ( 'NONE', #198 ) ;
#6 = CIRCLE ( 'NONE', #15, 0.1875000000000000278 ) ;
#7 = LENGTH_MEASURE_WITH_UNIT ( LENGTH_MEASURE( 0.02539999999999999897 ), #106 );
#8 = DIRECTION ( 'NONE',  ( -4.082155997157843818E-17, 1.000000000000000000, -0.000000000000000000 ) ) ;
#9 = CARTESIAN_POINT ( 'NONE',  ( -6.123233995736766036E-17, 2.500000000000000000, 0.000000000000000000 ) ) ;
#10 = PRESENTATION_STYLE_ASSIGNMENT (( #131 ) ) ;
#11 = AXIS2_PLACEMENT_3D ( 'NONE', #38, #133, #211 ) ;
#12 = LENGTH_MEASURE_WITH_UNIT ( LENGTH_MEASURE( 0.02539999999999999897 ), #151 );
#13 = CARTESIAN_POINT ( 'NONE',  ( 0.1875000000000000278, 2.500000000000000000, 2.296212748401288342E-17 ) ) ;
#14 = DIRECTION ( 'NONE',  ( -4.082155997157843818E-17, 1.000000000000000000, -0.000000000000000000 ) ) ;
#15 = AXIS2_PLACEMENT_3D ( 'NONE', #239, #245, #148 ) ;
#16 = AXIS2_PLACEMENT_3D ( 'NONE', #254, #14, #177 ) ;
#17 = FILL_AREA_STYLE_COLOUR ( '', #295 ) ;
#18 = CARTESIAN_POINT ( 'NONE',  ( -6.123233995736766036E-17, 2.500000000000000000, 0.000000000000000000 ) ) ;
#19 = PRODUCT_DEFINITION_SHAPE ( 'NONE', 'NONE',  #68 ) ;
#20 = ADVANCED_FACE ( 'NONE', ( #161 ), #51, .T. ) ;
#21 = STYLED_ITEM ( 'NONE', ( #159 ), #20 ) ;
#22 = ORIENTED_EDGE ( 'NONE', *, *, #220, .F. ) ;
#23 = SURFACE_SIDE_STYLE ('',( #224 ) ) ;
#24 = SURFACE_SIDE_STYLE ('',( #167 ) ) ;
#25 = CARTESIAN_POINT ( 'NONE',  ( 0.1874999999999999722, 2.500000000000000000, 2.296212748401288034E-17 ) ) ;
#26 =( GEOMETRIC_REPRESENTATION_CONTEXT ( 3 ) GLOBAL_UNCERTAINTY_ASSIGNED_CONTEXT ( ( #307 ) ) GLOBAL_UNIT_ASSIGNED_CONTEXT ( ( #290, #4, #188 ) ) REPRESENTATION_CONTEXT ( 'NONE', 'WORKASPACE' ) );
#27 = UNCERTAINTY_MEASURE_WITH_UNIT (LENGTH_MEASURE( 1.000000000000000082E-05 ), #259, 'distance_accuracy_value', 'NONE');
#28 = AXIS2_PLACEMENT_3D ( 'NONE', #18, #115, #197 ) ;
#29 = ORIENTED_EDGE ( 'NONE', *, *, #75, .F. ) ;
#30 = FILL_AREA_STYLE_COLOUR ( '', #288 ) ;
#31 = EDGE_CURVE ( 'NONE', #267, #205, #137, .T. ) ;
#32 = DIRECTION ( 'NONE',  ( -0.000000000000000000, -1.000000000000000000, -0.000000000000000000 ) ) ;
#33 = DIMENSIONAL_EXPONENTS ( 1.000000000000000000, 0.000000000000000000, 0.000000000000000000, 0.000000000000000000, 0.000000000000000000, 0.000000000000000000, 0.000000000000000000 ) ;
#34 =( GEOMETRIC_REPRESENTATION_CONTEXT ( 3 ) GLOBAL_UNCERTAINTY_ASSIGNED_CONTEXT ( ( #261 ) ) GLOBAL_UNIT_ASSIGNED_CONTEXT ( ( #48, #199, #208 ) ) REPRESENTATION_CONTEXT ( 'NONE', 'WORKASPACE' ) );
#35 = AXIS2_PLACEMENT_3D ( 'NONE', #123, #204, #303 ) ;
#36 = FILL_AREA_STYLE_COLOUR ( '', #257 ) ;
#37 = VERTEX_POINT ( 'NONE', #265 ) ;
#38 = CARTESIAN_POINT ( 'NONE',  ( -6.123233995736766036E-17, 2.500000000000000000, 0.000000000000000000 ) ) ;
#39 = DIRECTION ( 'NONE',  ( 0.000000000000000000, 0.000000000000000000, -1.000000000000000000 ) ) ;
#40 = SURFACE_STYLE_USAGE ( .BOTH. , #88 ) ;
#41 = DIRECTION ( 'NONE',  ( -0.000000000000000000, -1.000000000000000000, -0.000000000000000000 ) ) ;
#42 = ORIENTED_EDGE ( 'NONE', *, *, #75, .T. ) ;
#43 = DIRECTION ( 'NONE',  ( 4.082155997157843818E-17, -1.000000000000000000, 0.000000000000000000 ) ) ;
#44 = ORIENTED_EDGE ( 'NONE', *, *, #107, .T. ) ;
#45 = DIRECTION ( 'NONE',  ( 0.000000000000000000, 0.000000000000000000, -1.000000000000000000 ) ) ;
#46 = FILL_AREA_STYLE_COLOUR ( '', #58 ) ;
#47 = EDGE_CURVE ( 'NONE', #205, #267, #170, .T. ) ;
#48 =( CONVERSION_BASED_UNIT ( 'INCH', #298 ) LENGTH_UNIT ( ) NAMED_UNIT ( #233 ) );
#49 =( CONVERSION_BASED_UNIT ( 'INCH', #248 ) LENGTH_UNIT ( ) NAMED_UNIT ( #33 ) );
#50 = APPLICATION_PROTOCOL_DEFINITION ( 'draft international standard', 'automotive_design', 1998, #66 ) ;
#51 = CYLINDRICAL_SURFACE ( 'NONE', #306, 0.1875000000000000278 ) ;
#52 = CIRCLE ( 'NONE', #16, 0.1875000000000000278 ) ;
#53 =( NAMED_UNIT ( * ) SI_UNIT ( $, .STERADIAN. ) SOLID_ANGLE_UNIT ( ) );
#54 =( NAMED_UNIT ( * ) PLANE_ANGLE_UNIT ( ) SI_UNIT ( $, .RADIAN. ) );
#55 = CARTESIAN_POINT ( 'NONE',  ( 0.000000000000000000, 0.000000000000000000, 0.000000000000000000 ) ) ;
#56 = CYLINDRICAL_SURFACE ( 'NONE', #108, 0.1875000000000000278 ) ;
#57 = PRESENTATION_LAYER_ASSIGNMENT (  '', '', ( #21 ) ) ;
#58 = COLOUR_RGB ( '',0.7921568627450980005, 0.8196078431372548767, 0.9333333333333333481 ) ;
#59 = CARTESIAN_POINT ( 'NONE',  ( 0.000000000000000000, 0.000000000000000000, 0.000000000000000000 ) ) ;
#60 = CYLINDRICAL_SURFACE ( 'NONE', #124, 0.1875000000000000555 ) ;
#61 = VECTOR ( 'NONE', #109, 39.37007874015748143 ) ;
#62 = STYLED_ITEM ( 'NONE', ( #122 ), #86 ) ;
#63 = CIRCLE ( 'NONE', #171, 0.1875000000000000278 ) ;
#64 =( NAMED_UNIT ( * ) PLANE_ANGLE_UNIT ( ) SI_UNIT ( $, .RADIAN. ) );
#65 = FACE_OUTER_BOUND ( 'NONE', #182, .T. ) ;
#66 = APPLICATION_CONTEXT ( 'automotive_design' ) ;
#67 = SURFACE_STYLE_FILL_AREA ( #87 ) ;
#68 = PRODUCT_DEFINITION ( 'UNKNOWN', '', #308, #266 ) ;
#69 = LINE ( 'NONE', #299, #196 ) ;
#70 = PRESENTATION_LAYER_ASSIGNMENT (  '', '', ( #62 ) ) ;
#71 =( NAMED_UNIT ( * ) SI_UNIT ( $, .STERADIAN. ) SOLID_ANGLE_UNIT ( ) );
#72 = LENGTH_MEASURE_WITH_UNIT ( LENGTH_MEASURE( 0.02539999999999999897 ), #180 );
#73 = DIRECTION ( 'NONE',  ( -0.000000000000000000, -1.000000000000000000, -0.000000000000000000 ) ) ;
#74 = PRESENTATION_STYLE_ASSIGNMENT (( #40 ) ) ;
#75 = EDGE_CURVE ( 'NONE', #5, #37, #82, .T. ) ;
#76 = VERTEX_POINT ( 'NONE', #173 ) ;
#77 = STYLED_ITEM ( 'NONE', ( #278 ), #174 ) ;
#78 = CARTESIAN_POINT ( 'NONE',  ( 0.000000000000000000, 0.000000000000000000, 0.000000000000000000 ) ) ;
#79 = EDGE_CURVE ( 'NONE', #76, #267, #69, .T. ) ;
#80 = DIRECTION ( 'NONE',  ( -0.000000000000000000, -1.000000000000000000, -0.000000000000000000 ) ) ;
#81 = FILL_AREA_STYLE ('',( #294 ) ) ;
#82 = LINE ( 'NONE', #191, #61 ) ;
#83 = AXIS2_PLACEMENT_3D ( 'NONE', #98, #203, #286 ) ;
#84 =( CONVERSION_BASED_UNIT ( 'INCH', #7 ) LENGTH_UNIT ( ) NAMED_UNIT ( #164 ) );
#85 = DIRECTION ( 'NONE',  ( -0.000000000000000000, -1.000000000000000000, -0.000000000000000000 ) ) ;
#86 = ADVANCED_FACE ( 'NONE', ( #260 ), #231, .T. ) ;
#87 = FILL_AREA_STYLE ('',( #36 ) ) ;
#88 = SURFACE_SIDE_STYLE ('',( #226 ) ) ;
#89 = PLANE ( 'NONE',  #285 ) ;
#90 = SURFACE_STYLE_USAGE ( .BOTH. , #221 ) ;
#91 = CIRCLE ( 'NONE', #28, 0.1875000000000000833 ) ;
#92 = ADVANCED_FACE ( 'NONE', ( #302 ), #56, .T. ) ;
#93 = ORIENTED_EDGE ( 'NONE', *, *, #31, .T. ) ;
#94 = SURFACE_STYLE_FILL_AREA ( #207 ) ;
#95 =( GEOMETRIC_REPRESENTATION_CONTEXT ( 3 ) GLOBAL_UNCERTAINTY_ASSIGNED_CONTEXT ( ( #291 ) ) GLOBAL_UNIT_ASSIGNED_CONTEXT ( ( #222, #154, #71 ) ) REPRESENTATION_CONTEXT ( 'NONE', 'WORKASPACE' ) );
#96 = MECHANICAL_DESIGN_GEOMETRIC_PRESENTATION_REPRESENTATION (  '', ( #127 ), #175 ) ;
#97 = ORIENTED_EDGE ( 'NONE', *, *, #118, .F. ) ;
#98 = CARTESIAN_POINT ( 'NONE',  ( 0.000000000000000000, 1.000000000000000000, 0.000000000000000000 ) ) ;
#99 = SURFACE_STYLE_USAGE ( .BOTH. , #183 ) ;
#100 = COLOUR_RGB ( '',0.7921568627450980005, 0.8196078431372548767, 0.9333333333333333481 ) ;
#101 = AXIS2_PLACEMENT_3D ( 'NONE', #195, #279, #45 ) ;
#102 = VERTEX_POINT ( 'NONE', #13 ) ;
#103 = ADVANCED_FACE ( 'NONE', ( #65 ), #60, .T. ) ;
#104 = DIRECTION ( 'NONE',  ( -4.082155997157843818E-17, 1.000000000000000000, -0.000000000000000000 ) ) ;
#105 = PRODUCT_CONTEXT ( 'NONE', #66, 'mechanical' ) ;
#106 =( LENGTH_UNIT ( ) NAMED_UNIT ( * ) SI_UNIT ( $, .METRE. ) );
#107 = EDGE_CURVE ( 'NONE', #102, #37, #280, .T. ) ;
#108 = AXIS2_PLACEMENT_3D ( 'NONE', #190, #32, #39 ) ;
#109 = DIRECTION ( 'NONE',  ( -4.082155997157843818E-17, 1.000000000000000000, -0.000000000000000000 ) ) ;
#110 = SURFACE_SIDE_STYLE ('',( #270 ) ) ;
#111 = UNCERTAINTY_MEASURE_WITH_UNIT (LENGTH_MEASURE( 1.000000000000000082E-05 ), #215, 'distance_accuracy_value', 'NONE');
#112 = MECHANICAL_DESIGN_GEOMETRIC_PRESENTATION_REPRESENTATION (  '', ( #77 ), #95 ) ;
#113 = CARTESIAN_POINT ( 'NONE',  ( 0.000000000000000000, 0.000000000000000000, -0.1875000000000000278 ) ) ;
#114 = EDGE_LOOP ( 'NONE', ( #155, #301, #42, #117 ) ) ;
#115 = DIRECTION ( 'NONE',  ( -4.082155997157843818E-17, 1.000000000000000000, -0.000000000000000000 ) ) ;
#116 =( LENGTH_UNIT ( ) NAMED_UNIT ( * ) SI_UNIT ( $, .METRE. ) );
#117 = ORIENTED_EDGE ( 'NONE', *, *, #107, .F. ) ;
#118 = EDGE_CURVE ( 'NONE', #136, #76, #6, .T. ) ;
#119 =( NAMED_UNIT ( * ) PLANE_ANGLE_UNIT ( ) SI_UNIT ( $, .RADIAN. ) );
#120 = ORIENTED_EDGE ( 'NONE', *, *, #214, .T. ) ;
#121 = SURFACE_STYLE_USAGE ( .BOTH. , #23 ) ;
#122 = PRESENTATION_STYLE_ASSIGNMENT (( #145 ) ) ;
#123 = CARTESIAN_POINT ( 'NONE',  ( 1.562249773606101675E-34, 1.000000000000000000, 0.000000000000000000 ) ) ;
#124 = AXIS2_PLACEMENT_3D ( 'NONE', #9, #169, #130 ) ;
#125 = DIMENSIONAL_EXPONENTS ( 1.000000000000000000, 0.000000000000000000, 0.000000000000000000, 0.000000000000000000, 0.000000000000000000, 0.000000000000000000, 0.000000000000000000 ) ;
#126 = DIRECTION ( 'NONE',  ( -1.000000000000000000, 0.000000000000000000, 0.000000000000000000 ) ) ;
#127 = STYLED_ITEM ( 'NONE', ( #74 ), #271 ) ;
#128 = EDGE_LOOP ( 'NONE', ( #201, #181, #300, #206 ) ) ;
#129 = LENGTH_MEASURE_WITH_UNIT ( LENGTH_MEASURE( 0.02539999999999999897 ), #240 );
#130 = DIRECTION ( 'NONE',  ( -1.000000000000000000, 0.000000000000000000, 0.000000000000000000 ) ) ;
#131 = SURFACE_STYLE_USAGE ( .BOTH. , #110 ) ;
#132 = AXIS2_PLACEMENT_3D ( 'NONE', #55, #80, #168 ) ;
#133 = DIRECTION ( 'NONE',  ( -4.082155997157843818E-17, 1.000000000000000000, -0.000000000000000000 ) ) ;
#134 = LINE ( 'NONE', #113, #150 ) ;
#135 = CARTESIAN_POINT ( 'NONE',  ( 0.000000000000000000, 0.000000000000000000, -0.1875000000000000278 ) ) ;
#136 = VERTEX_POINT ( 'NONE', #241 ) ;
#137 = CIRCLE ( 'NONE', #132, 0.1875000000000000278 ) ;
#138 = DIRECTION ( 'NONE',  ( -4.082155997157843818E-17, 1.000000000000000000, -0.000000000000000000 ) ) ;
#139 = ORIENTED_EDGE ( 'NONE', *, *, #202, .F. ) ;
#140 = CARTESIAN_POINT ( 'NONE',  ( 0.1875000000000000278, 1.000000000000000000, 2.296212748401288342E-17 ) ) ;
#141 =( GEOMETRIC_REPRESENTATION_CONTEXT ( 3 ) GLOBAL_UNCERTAINTY_ASSIGNED_CONTEXT ( ( #144 ) ) GLOBAL_UNIT_ASSIGNED_CONTEXT ( ( #84, #172, #268 ) ) REPRESENTATION_CONTEXT ( 'NONE', 'WORKASPACE' ) );
#142 = LENGTH_MEASURE_WITH_UNIT ( LENGTH_MEASURE( 0.02539999999999999897 ), #304 );
#143 = CARTESIAN_POINT ( 'NONE',  ( 0.000000000000000000, 0.000000000000000000, 0.000000000000000000 ) ) ;
#144 = UNCERTAINTY_MEASURE_WITH_UNIT (LENGTH_MEASURE( 1.000000000000000082E-05 ), #84, 'distance_accuracy_value', 'NONE');
#145 = SURFACE_STYLE_USAGE ( .BOTH. , #24 ) ;
#146 = DIMENSIONAL_EXPONENTS ( 1.000000000000000000, 0.000000000000000000, 0.000000000000000000, 0.000000000000000000, 0.000000000000000000, 0.000000000000000000, 0.000000000000000000 ) ;
#147 = APPLICATION_PROTOCOL_DEFINITION ( 'draft international standard', 'automotive_design', 1998, #275 ) ;
#148 = DIRECTION ( 'NONE',  ( 0.000000000000000000, 0.000000000000000000, -1.000000000000000000 ) ) ;
#149 = MECHANICAL_DESIGN_GEOMETRIC_PRESENTATION_REPRESENTATION (  '', ( #276 ), #212 ) ;
#150 = VECTOR ( 'NONE', #225, 39.37007874015748143 ) ;
#151 =( LENGTH_UNIT ( ) NAMED_UNIT ( * ) SI_UNIT ( $, .METRE. ) );
#152 = DIRECTION ( 'NONE',  ( -1.000000000000000000, 0.000000000000000000, 0.000000000000000000 ) ) ;
#153 = ADVANCED_FACE ( 'NONE', ( #297 ), #218, .T. ) ;
#154 =( NAMED_UNIT ( * ) PLANE_ANGLE_UNIT ( ) SI_UNIT ( $, .RADIAN. ) );
#155 = ORIENTED_EDGE ( 'NONE', *, *, #282, .F. ) ;
#156 = DIRECTION ( 'NONE',  ( 0.000000000000000000, 0.000000000000000000, -1.000000000000000000 ) ) ;
#157 = AXIS2_PLACEMENT_3D ( 'NONE', #59, #85, #216 ) ;
#158 = LINE ( 'NONE', #25, #277 ) ;
#159 = PRESENTATION_STYLE_ASSIGNMENT (( #121 ) ) ;
#160 = FILL_AREA_STYLE ('',( #46 ) ) ;
#161 = FACE_OUTER_BOUND ( 'NONE', #128, .T. ) ;
#162 = DIRECTION ( 'NONE',  ( 1.000000000000000000, 0.000000000000000000, 0.000000000000000000 ) ) ;
#163 = MECHANICAL_DESIGN_GEOMETRIC_PRESENTATION_REPRESENTATION (  '', ( #21 ), #34 ) ;
#164 = DIMENSIONAL_EXPONENTS ( 1.000000000000000000, 0.000000000000000000, 0.000000000000000000, 0.000000000000000000, 0.000000000000000000, 0.000000000000000000, 0.000000000000000000 ) ;
#165 = DIRECTION ( 'NONE',  ( -0.000000000000000000, -1.000000000000000000, -0.000000000000000000 ) ) ;
#166 = MANIFOLD_SOLID_BREP ( 'Revolve - Cutting Edge', #200 ) ;
#167 = SURFACE_STYLE_FILL_AREA ( #234 ) ;
#168 = DIRECTION ( 'NONE',  ( 0.000000000000000000, 0.000000000000000000, -1.000000000000000000 ) ) ;
#169 = DIRECTION ( 'NONE',  ( -4.082155997157843818E-17, 1.000000000000000000, -0.000000000000000000 ) ) ;
#170 = CIRCLE ( 'NONE', #157, 0.1875000000000000278 ) ;
#171 = AXIS2_PLACEMENT_3D ( 'NONE', #227, #73, #156 ) ;
#172 =( NAMED_UNIT ( * ) PLANE_ANGLE_UNIT ( ) SI_UNIT ( $, .RADIAN. ) );
#173 = CARTESIAN_POINT ( 'NONE',  ( 2.296212748401287726E-17, 1.000000000000000000, 0.1875000000000000278 ) ) ;
#174 = ADVANCED_FACE ( 'NONE', ( #296 ), #273, .T. ) ;
#175 =( GEOMETRIC_REPRESENTATION_CONTEXT ( 3 ) GLOBAL_UNCERTAINTY_ASSIGNED_CONTEXT ( ( #249 ) ) GLOBAL_UNIT_ASSIGNED_CONTEXT ( ( #49, #119, #53 ) ) REPRESENTATION_CONTEXT ( 'NONE', 'WORKASPACE' ) );
#176 = CARTESIAN_POINT ( 'NONE',  ( 0.000000000000000000, 1.000000000000000000, 0.000000000000000000 ) ) ;
#177 = DIRECTION ( 'NONE',  ( -1.000000000000000000, 0.000000000000000000, 0.000000000000000000 ) ) ;
#178 = CARTESIAN_POINT ( 'NONE',  ( 2.296212748401287726E-17, 0.000000000000000000, 0.1875000000000000278 ) ) ;
#179 = PRESENTATION_LAYER_ASSIGNMENT (  '', '', ( #276 ) ) ;
#180 =( LENGTH_UNIT ( ) NAMED_UNIT ( * ) SI_UNIT ( $, .METRE. ) );
#181 = ORIENTED_EDGE ( 'NONE', *, *, #79, .T. ) ;
#182 = EDGE_LOOP ( 'NONE', ( #309, #189, #244, #29 ) ) ;
#183 = SURFACE_SIDE_STYLE ('',( #94 ) ) ;
#184 = EDGE_LOOP ( 'NONE', ( #272, #93 ) ) ;
#185 = ADVANCED_FACE ( 'NONE', ( #274 ), #89, .F. ) ;
#186 = PRESENTATION_STYLE_ASSIGNMENT (( #99 ) ) ;
#187 = EDGE_LOOP ( 'NONE', ( #262, #251, #120, #210 ) ) ;
#188 =( NAMED_UNIT ( * ) SI_UNIT ( $, .STERADIAN. ) SOLID_ANGLE_UNIT ( ) );
#189 = ORIENTED_EDGE ( 'NONE', *, *, #282, .T. ) ;
#190 = CARTESIAN_POINT ( 'NONE',  ( 0.000000000000000000, 0.000000000000000000, 0.000000000000000000 ) ) ;
#191 = CARTESIAN_POINT ( 'NONE',  ( -0.1875000000000001110, 2.500000000000000000, 0.000000000000000000 ) ) ;
#192 = MECHANICAL_DESIGN_GEOMETRIC_PRESENTATION_REPRESENTATION (  '', ( #62 ), #26 ) ;
#193 = AXIS2_PLACEMENT_3D ( 'NONE', #143, #256, #162 ) ;
#194 = ADVANCED_BREP_SHAPE_REPRESENTATION ( '59944', ( #166, #271, #193 ), #247 ) ;
#195 = CARTESIAN_POINT ( 'NONE',  ( 0.000000000000000000, 0.000000000000000000, 0.000000000000000000 ) ) ;
#196 = VECTOR ( 'NONE', #41, 39.37007874015748143 ) ;
#197 = DIRECTION ( 'NONE',  ( -1.000000000000000000, 0.000000000000000000, 0.000000000000000000 ) ) ;
#198 = CARTESIAN_POINT ( 'NONE',  ( -0.1875000000000000278, 1.000000000000000000, 0.000000000000000000 ) ) ;
#199 =( NAMED_UNIT ( * ) PLANE_ANGLE_UNIT ( ) SI_UNIT ( $, .RADIAN. ) );
#200 = CLOSED_SHELL ( 'NONE', ( #20, #86, #92, #174 ) ) ;
#201 = ORIENTED_EDGE ( 'NONE', *, *, #118, .T. ) ;
#202 = EDGE_CURVE ( 'NONE', #238, #5, #289, .T. ) ;
#203 = DIRECTION ( 'NONE',  ( 0.000000000000000000, 1.000000000000000000, 0.000000000000000000 ) ) ;
#204 = DIRECTION ( 'NONE',  ( -4.082155997157843818E-17, 1.000000000000000000, 0.000000000000000000 ) ) ;
#205 = VERTEX_POINT ( 'NONE', #135 ) ;
#206 = ORIENTED_EDGE ( 'NONE', *, *, #214, .F. ) ;
#207 = FILL_AREA_STYLE ('',( #237 ) ) ;
#208 =( NAMED_UNIT ( * ) SI_UNIT ( $, .STERADIAN. ) SOLID_ANGLE_UNIT ( ) );
#209 = EDGE_LOOP ( 'NONE', ( #97, #281 ) ) ;
#210 = ORIENTED_EDGE ( 'NONE', *, *, #31, .F. ) ;
#211 = DIRECTION ( 'NONE',  ( -1.000000000000000000, 0.000000000000000000, 0.000000000000000000 ) ) ;
#212 =( GEOMETRIC_REPRESENTATION_CONTEXT ( 3 ) GLOBAL_UNCERTAINTY_ASSIGNED_CONTEXT ( ( #111 ) ) GLOBAL_UNIT_ASSIGNED_CONTEXT ( ( #215, #64, #217 ) ) REPRESENTATION_CONTEXT ( 'NONE', 'WORKASPACE' ) );
#213 = PLANE ( 'NONE',  #35 ) ;
#214 = EDGE_CURVE ( 'NONE', #136, #205, #134, .T. ) ;
#215 =( CONVERSION_BASED_UNIT ( 'INCH', #12 ) LENGTH_UNIT ( ) NAMED_UNIT ( #1 ) );
#216 = DIRECTION ( 'NONE',  ( 0.000000000000000000, 0.000000000000000000, -1.000000000000000000 ) ) ;
#217 =( NAMED_UNIT ( * ) SI_UNIT ( $, .STERADIAN. ) SOLID_ANGLE_UNIT ( ) );
#218 = CYLINDRICAL_SURFACE ( 'NONE', #11, 0.1875000000000000555 ) ;
#219 = PRESENTATION_LAYER_ASSIGNMENT (  '', '', ( #284 ) ) ;
#220 = EDGE_CURVE ( 'NONE', #5, #238, #52, .T. ) ;
#221 = SURFACE_SIDE_STYLE ('',( #67 ) ) ;
#222 =( CONVERSION_BASED_UNIT ( 'INCH', #72 ) LENGTH_UNIT ( ) NAMED_UNIT ( #125 ) );
#223 = DIRECTION ( 'NONE',  ( 1.000000000000000000, 4.082155997157843818E-17, 0.000000000000000000 ) ) ;
#224 = SURFACE_STYLE_FILL_AREA ( #232 ) ;
#225 = DIRECTION ( 'NONE',  ( -0.000000000000000000, -1.000000000000000000, -0.000000000000000000 ) ) ;
#226 = SURFACE_STYLE_FILL_AREA ( #160 ) ;
#227 = CARTESIAN_POINT ( 'NONE',  ( 0.000000000000000000, 1.000000000000000000, 0.000000000000000000 ) ) ;
#228 = EDGE_CURVE ( 'NONE', #76, #136, #63, .T. ) ;
#229 = CLOSED_SHELL ( 'NONE', ( #103, #305, #153, #185 ) ) ;
#230 = AXIS2_PLACEMENT_3D ( 'NONE', #176, #138, #152 ) ;
#231 = PLANE ( 'NONE',  #83 ) ;
#232 = FILL_AREA_STYLE ('',( #17 ) ) ;
#233 = DIMENSIONAL_EXPONENTS ( 1.000000000000000000, 0.000000000000000000, 0.000000000000000000, 0.000000000000000000, 0.000000000000000000, 0.000000000000000000, 0.000000000000000000 ) ;
#234 = FILL_AREA_STYLE ('',( #30 ) ) ;
#235 =( NAMED_UNIT ( * ) SI_UNIT ( $, .STERADIAN. ) SOLID_ANGLE_UNIT ( ) );
#236 = COLOUR_RGB ( '',1.000000000000000000, 0.000000000000000000, 0.000000000000000000 ) ;
#237 = FILL_AREA_STYLE_COLOUR ( '', #236 ) ;
#238 = VERTEX_POINT ( 'NONE', #140 ) ;
#239 = CARTESIAN_POINT ( 'NONE',  ( 0.000000000000000000, 1.000000000000000000, 0.000000000000000000 ) ) ;
#240 =( LENGTH_UNIT ( ) NAMED_UNIT ( * ) SI_UNIT ( $, .METRE. ) );
#241 = CARTESIAN_POINT ( 'NONE',  ( 0.000000000000000000, 1.000000000000000000, -0.1875000000000000278 ) ) ;
#242 = PRESENTATION_LAYER_ASSIGNMENT (  '', '', ( #77 ) ) ;
#243 = DIMENSIONAL_EXPONENTS ( 1.000000000000000000, 0.000000000000000000, 0.000000000000000000, 0.000000000000000000, 0.000000000000000000, 0.000000000000000000, 0.000000000000000000 ) ;
#244 = ORIENTED_EDGE ( 'NONE', *, *, #252, .F. ) ;
#245 = DIRECTION ( 'NONE',  ( -0.000000000000000000, -1.000000000000000000, -0.000000000000000000 ) ) ;
#246 = AXIS2_PLACEMENT_3D ( 'NONE', #292, #104, #126 ) ;
#247 =( GEOMETRIC_REPRESENTATION_CONTEXT ( 3 ) GLOBAL_UNCERTAINTY_ASSIGNED_CONTEXT ( ( #27 ) ) GLOBAL_UNIT_ASSIGNED_CONTEXT ( ( #259, #54, #235 ) ) REPRESENTATION_CONTEXT ( 'NONE', 'WORKASPACE' ) );
#248 = LENGTH_MEASURE_WITH_UNIT ( LENGTH_MEASURE( 0.02539999999999999897 ), #116 );
#249 = UNCERTAINTY_MEASURE_WITH_UNIT (LENGTH_MEASURE( 1.000000000000000082E-05 ), #49, 'distance_accuracy_value', 'NONE');
#250 = CARTESIAN_POINT ( 'NONE',  ( 0.1875000000000000278, 2.500000000000000000, 0.000000000000000000 ) ) ;
#251 = ORIENTED_EDGE ( 'NONE', *, *, #228, .T. ) ;
#252 = EDGE_CURVE ( 'NONE', #37, #102, #91, .T. ) ;
#253 = PRODUCT ( '59944', '59944', '', ( #105 ) ) ;
#254 = CARTESIAN_POINT ( 'NONE',  ( 0.000000000000000000, 1.000000000000000000, 0.000000000000000000 ) ) ;
#255 =( LENGTH_UNIT ( ) NAMED_UNIT ( * ) SI_UNIT ( $, .METRE. ) );
#256 = DIRECTION ( 'NONE',  ( 0.000000000000000000, 0.000000000000000000, 1.000000000000000000 ) ) ;
#257 = COLOUR_RGB ( '',1.000000000000000000, 0.000000000000000000, 0.000000000000000000 ) ;
#258 = PRESENTATION_LAYER_ASSIGNMENT (  '', '', ( #127 ) ) ;
#259 =( CONVERSION_BASED_UNIT ( 'INCH', #129 ) LENGTH_UNIT ( ) NAMED_UNIT ( #146 ) );
#260 = FACE_OUTER_BOUND ( 'NONE', #209, .T. ) ;
#261 = UNCERTAINTY_MEASURE_WITH_UNIT (LENGTH_MEASURE( 1.000000000000000082E-05 ), #48, 'distance_accuracy_value', 'NONE');
#262 = ORIENTED_EDGE ( 'NONE', *, *, #79, .F. ) ;
#263 = EDGE_LOOP ( 'NONE', ( #22, #139 ) ) ;
#264 = MECHANICAL_DESIGN_GEOMETRIC_PRESENTATION_REPRESENTATION (  '', ( #284 ), #141 ) ;
#265 = CARTESIAN_POINT ( 'NONE',  ( -0.1875000000000001388, 2.500000000000000000, 0.000000000000000000 ) ) ;
#266 = PRODUCT_DEFINITION_CONTEXT ( 'detailed design', #275, 'design' ) ;
#267 = VERTEX_POINT ( 'NONE', #178 ) ;
#268 =( NAMED_UNIT ( * ) SI_UNIT ( $, .STERADIAN. ) SOLID_ANGLE_UNIT ( ) );
#269 = SHAPE_DEFINITION_REPRESENTATION ( #19, #194 ) ;
#270 = SURFACE_STYLE_FILL_AREA ( #81 ) ;
#271 = MANIFOLD_SOLID_BREP ( 'Revolve - Tool Body (Straight Shanked)', #229 ) ;
#272 = ORIENTED_EDGE ( 'NONE', *, *, #47, .T. ) ;
#273 = PLANE ( 'NONE',  #101 ) ;
#274 = FACE_OUTER_BOUND ( 'NONE', #283, .T. ) ;
#275 = APPLICATION_CONTEXT ( 'automotive_design' ) ;
#276 = STYLED_ITEM ( 'NONE', ( #10 ), #166 ) ;
#277 = VECTOR ( 'NONE', #8, 39.37007874015748143 ) ;
#278 = PRESENTATION_STYLE_ASSIGNMENT (( #90 ) ) ;
#279 = DIRECTION ( 'NONE',  ( 0.000000000000000000, -1.000000000000000000, -0.000000000000000000 ) ) ;
#280 = CIRCLE ( 'NONE', #246, 0.1875000000000000833 ) ;
#281 = ORIENTED_EDGE ( 'NONE', *, *, #228, .F. ) ;
#282 = EDGE_CURVE ( 'NONE', #238, #102, #158, .T. ) ;
#283 = EDGE_LOOP ( 'NONE', ( #2, #44 ) ) ;
#284 = STYLED_ITEM ( 'NONE', ( #186 ), #92 ) ;
#285 = AXIS2_PLACEMENT_3D ( 'NONE', #250, #43, #223 ) ;
#286 = DIRECTION ( 'NONE',  ( 0.000000000000000000, -0.000000000000000000, 1.000000000000000000 ) ) ;
#287 = DIRECTION ( 'NONE',  ( 0.000000000000000000, 0.000000000000000000, -1.000000000000000000 ) ) ;
#288 = COLOUR_RGB ( '',1.000000000000000000, 0.000000000000000000, 0.000000000000000000 ) ;
#289 = CIRCLE ( 'NONE', #230, 0.1875000000000000278 ) ;
#290 =( CONVERSION_BASED_UNIT ( 'INCH', #142 ) LENGTH_UNIT ( ) NAMED_UNIT ( #243 ) );
#291 = UNCERTAINTY_MEASURE_WITH_UNIT (LENGTH_MEASURE( 1.000000000000000082E-05 ), #222, 'distance_accuracy_value', 'NONE');
#292 = CARTESIAN_POINT ( 'NONE',  ( -6.123233995736766036E-17, 2.500000000000000000, 0.000000000000000000 ) ) ;
#293 = FACE_OUTER_BOUND ( 'NONE', #263, .T. ) ;
#294 = FILL_AREA_STYLE_COLOUR ( '', #100 ) ;
#295 = COLOUR_RGB ( '',1.000000000000000000, 0.000000000000000000, 0.000000000000000000 ) ;
#296 = FACE_OUTER_BOUND ( 'NONE', #184, .T. ) ;
#297 = FACE_OUTER_BOUND ( 'NONE', #114, .T. ) ;
#298 = LENGTH_MEASURE_WITH_UNIT ( LENGTH_MEASURE( 0.02539999999999999897 ), #255 );
#299 = CARTESIAN_POINT ( 'NONE',  ( 2.296212748401287726E-17, 0.000000000000000000, 0.1875000000000000278 ) ) ;
#300 = ORIENTED_EDGE ( 'NONE', *, *, #47, .F. ) ;
#301 = ORIENTED_EDGE ( 'NONE', *, *, #202, .T. ) ;
#302 = FACE_OUTER_BOUND ( 'NONE', #187, .T. ) ;
#303 = DIRECTION ( 'NONE',  ( -1.000000000000000000, -4.082155997157843818E-17, 0.000000000000000000 ) ) ;
#304 =( LENGTH_UNIT ( ) NAMED_UNIT ( * ) SI_UNIT ( $, .METRE. ) );
#305 = ADVANCED_FACE ( 'NONE', ( #293 ), #213, .F. ) ;
#306 = AXIS2_PLACEMENT_3D ( 'NONE', #78, #165, #287 ) ;
#307 = UNCERTAINTY_MEASURE_WITH_UNIT (LENGTH_MEASURE( 1.000000000000000082E-05 ), #290, 'distance_accuracy_value', 'NONE');
#308 = PRODUCT_DEFINITION_FORMATION_WITH_SPECIFIED_SOURCE ( 'ANY', '', #253, .NOT_KNOWN. ) ;
#309 = ORIENTED_EDGE ( 'NONE', *, *, #220, .T. ) ;
ENDSEC;
END-ISO-10303-21;
