ISO-10303-21;
HEADER;
FILE_DESCRIPTION (( 'STEP AP214' ),
    '1' );
FILE_NAME ('Micro_RTCM-080-1.STEP',
    '2021-09-03T18:25:22',
    ( '' ),
    ( '' ),
    'SwSTEP 2.0',
    'SolidWorks 2020',
    '' );
FILE_SCHEMA (( 'AUTOMOTIVE_DESIGN' ));
ENDSEC;

DATA;
#1 = ORIENTED_EDGE ( 'NONE', *, *, #202, .T. ) ;
#2 = EDGE_LOOP ( 'NONE', ( #75, #108 ) ) ;
#3 = ORIENTED_EDGE ( 'NONE', *, *, #113, .F. ) ;
#4 = DIRECTION ( 'NONE',  ( 0.0000000000000000000, 0.0000000000000000000, 1.000000000000000000 ) ) ;
#5 = ORIENTED_EDGE ( 'NONE', *, *, #187, .F. ) ;
#6 = CARTESIAN_POINT ( 'NONE',  ( 0.0000000000000000000, 0.0000000000000000000, 0.0000000000000000000 ) ) ;
#7 = COLOUR_RGB ( '',0.7921568627450980005, 0.8196078431372548767, 0.9333333333333333481 ) ;
#8 = UNCERTAINTY_MEASURE_WITH_UNIT (LENGTH_MEASURE( 1.000000000000000082E-05 ), #47, 'distance_accuracy_value', 'NONE');
#9 =( GEOMETRIC_REPRESENTATION_CONTEXT ( 3 ) GLOBAL_UNCERTAINTY_ASSIGNED_CONTEXT ( ( #8 ) ) GLOBAL_UNIT_ASSIGNED_CONTEXT ( ( #47, #167, #81 ) ) REPRESENTATION_CONTEXT ( 'NONE', 'WORKASPACE' ) );
#10 = ORIENTED_EDGE ( 'NONE', *, *, #208, .F. ) ;
#11 = ORIENTED_EDGE ( 'NONE', *, *, #144, .F. ) ;
#12 = LENGTH_MEASURE_WITH_UNIT ( LENGTH_MEASURE( 0.02539999999999999897 ), #151 );
#13 = EDGE_CURVE ( 'NONE', #92, #55, #73, .T. ) ;
#14 = PRODUCT ( 'Micro_RTCM-080-1', 'Micro_RTCM-080-1', '', ( #117 ) ) ;
#15 = ORIENTED_EDGE ( 'NONE', *, *, #189, .T. ) ;
#16 = APPLICATION_PROTOCOL_DEFINITION ( 'draft international standard', 'automotive_design', 1998, #178 ) ;
#17 = CARTESIAN_POINT ( 'NONE',  ( 0.0000000000000000000, 0.0000000000000000000, 0.0000000000000000000 ) ) ;
#18 = DIRECTION ( 'NONE',  ( 0.0000000000000000000, 0.0000000000000000000, 1.000000000000000000 ) ) ;
#19 = CARTESIAN_POINT ( 'NONE',  ( 0.0000000000000000000, 0.0000000000000000000, 0.0000000000000000000 ) ) ;
#20 = FILL_AREA_STYLE_COLOUR ( '', #68 ) ;
#21 = AXIS2_PLACEMENT_3D ( 'NONE', #106, #52, #245 ) ;
#22 = DIRECTION ( 'NONE',  ( 1.000000000000000000, 0.0000000000000000000, 0.0000000000000000000 ) ) ;
#23 = CARTESIAN_POINT ( 'NONE',  ( 0.0000000000000000000, 0.0000000000000000000, 2.465314999999999923 ) ) ;
#24 = DIRECTION ( 'NONE',  ( 1.000000000000000000, 0.0000000000000000000, -0.0000000000000000000 ) ) ;
#25 = DIRECTION ( 'NONE',  ( -0.0000000000000000000, -0.0000000000000000000, -1.000000000000000000 ) ) ;
#26 = DIRECTION ( 'NONE',  ( -1.000000000000000000, 0.0000000000000000000, 0.0000000000000000000 ) ) ;
#27 =( GEOMETRIC_REPRESENTATION_CONTEXT ( 3 ) GLOBAL_UNCERTAINTY_ASSIGNED_CONTEXT ( ( #191 ) ) GLOBAL_UNIT_ASSIGNED_CONTEXT ( ( #168, #86, #145 ) ) REPRESENTATION_CONTEXT ( 'NONE', 'WORKASPACE' ) );
#28 = CARTESIAN_POINT ( 'NONE',  ( -0.003936999999999995191, 4.821434448243123477E-19, 0.0000000000000000000 ) ) ;
#29 = CARTESIAN_POINT ( 'NONE',  ( 0.0000000000000000000, 0.0000000000000000000, 2.465314999999999923 ) ) ;
#30 = CONICAL_SURFACE ( 'NONE', #213, 0.1424804999999990940, 0.7853981633974699283 ) ;
#31 = DIRECTION ( 'NONE',  ( 0.0000000000000000000, 0.0000000000000000000, 1.000000000000000000 ) ) ;
#32 = ADVANCED_FACE ( 'NONE', ( #78 ), #30, .T. ) ;
#33 = EDGE_LOOP ( 'NONE', ( #88, #207 ) ) ;
#34 = ORIENTED_EDGE ( 'NONE', *, *, #247, .F. ) ;
#35 = DIRECTION ( 'NONE',  ( -0.0000000000000000000, -0.0000000000000000000, -1.000000000000000000 ) ) ;
#36 = VECTOR ( 'NONE', #203, 39.37007874015748854 ) ;
#37 = AXIS2_PLACEMENT_3D ( 'NONE', #6, #197, #95 ) ;
#38 = APPLICATION_PROTOCOL_DEFINITION ( 'draft international standard', 'automotive_design', 1998, #160 ) ;
#39 = SURFACE_STYLE_USAGE ( .BOTH. , #183 ) ;
#40 = FACE_OUTER_BOUND ( 'NONE', #233, .T. ) ;
#41 = DIRECTION ( 'NONE',  ( -1.000000000000000000, 0.0000000000000000000, 0.0000000000000000000 ) ) ;
#42 = DIRECTION ( 'NONE',  ( -0.7071067811865627828, 0.0000000000000000000, -0.7071067811865321406 ) ) ;
#43 = SHAPE_DEFINITION_REPRESENTATION ( #172, #69 ) ;
#44 = AXIS2_PLACEMENT_3D ( 'NONE', #19, #118, #97 ) ;
#45 = PLANE ( 'NONE',  #135 ) ;
#46 = DIRECTION ( 'NONE',  ( 1.000000000000000000, 0.0000000000000000000, 0.0000000000000000000 ) ) ;
#47 =( CONVERSION_BASED_UNIT ( 'INCH', #12 ) LENGTH_UNIT ( ) NAMED_UNIT ( #111 ) );
#48 = CARTESIAN_POINT ( 'NONE',  ( 0.0000000000000000000, 0.0000000000000000000, 0.0000000000000000000 ) ) ;
#49 =( NAMED_UNIT ( * ) SI_UNIT ( $, .STERADIAN. ) SOLID_ANGLE_UNIT ( ) );
#50 = ADVANCED_FACE ( 'NONE', ( #234 ), #45, .F. ) ;
#51 = CARTESIAN_POINT ( 'NONE',  ( 0.0000000000000000000, 0.0000000000000000000, 2.480315000000000047 ) ) ;
#52 = DIRECTION ( 'NONE',  ( -0.0000000000000000000, -0.0000000000000000000, -1.000000000000000000 ) ) ;
#53 = CARTESIAN_POINT ( 'NONE',  ( 0.1424804999999990940, 1.744882882659133128E-17, 2.480315000000000047 ) ) ;
#54 = VECTOR ( 'NONE', #139, 39.37007874015748854 ) ;
#55 = VERTEX_POINT ( 'NONE', #61 ) ;
#56 = AXIS2_PLACEMENT_3D ( 'NONE', #128, #35, #211 ) ;
#57 = EDGE_CURVE ( 'NONE', #236, #76, #124, .T. ) ;
#58 = ORIENTED_EDGE ( 'NONE', *, *, #247, .T. ) ;
#59 =( NAMED_UNIT ( * ) PLANE_ANGLE_UNIT ( ) SI_UNIT ( $, .RADIAN. ) );
#60 = MECHANICAL_DESIGN_GEOMETRIC_PRESENTATION_REPRESENTATION (  '', ( #90 ), #239 ) ;
#61 = CARTESIAN_POINT ( 'NONE',  ( -0.1574804999999999955, 0.0000000000000000000, 0.5730321431719496150 ) ) ;
#62 = FACE_OUTER_BOUND ( 'NONE', #210, .T. ) ;
#63 = DIRECTION ( 'NONE',  ( -0.0000000000000000000, -0.0000000000000000000, -1.000000000000000000 ) ) ;
#64 = CARTESIAN_POINT ( 'NONE',  ( 0.0000000000000000000, 0.0000000000000000000, 0.0000000000000000000 ) ) ;
#65 = LINE ( 'NONE', #141, #204 ) ;
#66 = DIRECTION ( 'NONE',  ( 1.000000000000000000, 0.0000000000000000000, 0.0000000000000000000 ) ) ;
#67 = DIRECTION ( 'NONE',  ( -0.2588190451025217387, 3.169619151431776651E-17, 0.9659258262890679791 ) ) ;
#68 = COLOUR_RGB ( '',0.7921568627450980005, 0.8196078431372548767, 0.9333333333333333481 ) ;
#69 = ADVANCED_BREP_SHAPE_REPRESENTATION ( 'Micro_RTCM-080-1', ( #102, #37 ), #9 ) ;
#70 = EDGE_LOOP ( 'NONE', ( #72, #77, #190, #149 ) ) ;
#71 = ADVANCED_FACE ( 'NONE', ( #83 ), #142, .T. ) ;
#72 = ORIENTED_EDGE ( 'NONE', *, *, #189, .F. ) ;
#73 = CIRCLE ( 'NONE', #56, 0.1574804999999999955 ) ;
#74 = AXIS2_PLACEMENT_3D ( 'NONE', #48, #104, #82 ) ;
#75 = ORIENTED_EDGE ( 'NONE', *, *, #220, .T. ) ;
#76 = VERTEX_POINT ( 'NONE', #226 ) ;
#77 = ORIENTED_EDGE ( 'NONE', *, *, #113, .T. ) ;
#78 = FACE_OUTER_BOUND ( 'NONE', #155, .T. ) ;
#79 = EDGE_CURVE ( 'NONE', #94, #55, #173, .T. ) ;
#80 = AXIS2_PLACEMENT_3D ( 'NONE', #157, #241, #238 ) ;
#81 =( NAMED_UNIT ( * ) SI_UNIT ( $, .STERADIAN. ) SOLID_ANGLE_UNIT ( ) );
#82 = DIRECTION ( 'NONE',  ( -1.000000000000000000, 0.0000000000000000000, 0.0000000000000000000 ) ) ;
#83 = FACE_OUTER_BOUND ( 'NONE', #91, .T. ) ;
#84 = LINE ( 'NONE', #218, #107 ) ;
#85 = AXIS2_PLACEMENT_3D ( 'NONE', #196, #18, #96 ) ;
#86 =( NAMED_UNIT ( * ) PLANE_ANGLE_UNIT ( ) SI_UNIT ( $, .RADIAN. ) );
#87 = CONICAL_SURFACE ( 'NONE', #85, 0.003936999999999995191, 0.2617993877991504625 ) ;
#88 = ORIENTED_EDGE ( 'NONE', *, *, #230, .T. ) ;
#89 = CIRCLE ( 'NONE', #44, 0.003936999999999995191 ) ;
#90 = STYLED_ITEM ( 'NONE', ( #223 ), #69 ) ;
#91 = EDGE_LOOP ( 'NONE', ( #209, #130, #110, #150 ) ) ;
#92 = VERTEX_POINT ( 'NONE', #143 ) ;
#93 = PRESENTATION_LAYER_ASSIGNMENT (  '', '', ( #232 ) ) ;
#94 = VERTEX_POINT ( 'NONE', #179 ) ;
#95 = DIRECTION ( 'NONE',  ( 1.000000000000000000, 0.0000000000000000000, 0.0000000000000000000 ) ) ;
#96 = DIRECTION ( 'NONE',  ( 1.000000000000000000, 0.0000000000000000000, 0.0000000000000000000 ) ) ;
#97 = DIRECTION ( 'NONE',  ( -1.000000000000000000, 0.0000000000000000000, 0.0000000000000000000 ) ) ;
#98 = CONICAL_SURFACE ( 'NONE', #80, 0.1424804999999990940, 0.7853981633974699283 ) ;
#99 = DIRECTION ( 'NONE',  ( 0.0000000000000000000, 0.0000000000000000000, -1.000000000000000000 ) ) ;
#100 = CARTESIAN_POINT ( 'NONE',  ( 0.0000000000000000000, 0.0000000000000000000, 2.480315000000000047 ) ) ;
#101 = CARTESIAN_POINT ( 'NONE',  ( 0.1424804999999990940, 1.836731392595189962E-17, 2.480315000000000047 ) ) ;
#102 = MANIFOLD_SOLID_BREP ( 'Cut-Revolve1', #109 ) ;
#103 = CARTESIAN_POINT ( 'NONE',  ( -0.1574804999999999955, 0.0000000000000000000, 2.465314999999999923 ) ) ;
#104 = DIRECTION ( 'NONE',  ( -0.0000000000000000000, -0.0000000000000000000, -1.000000000000000000 ) ) ;
#105 = PRODUCT_RELATED_PRODUCT_CATEGORY ( 'part', '', ( #14 ) ) ;
#106 = CARTESIAN_POINT ( 'NONE',  ( 0.0000000000000000000, 0.0000000000000000000, 0.5730321431719496150 ) ) ;
#107 = VECTOR ( 'NONE', #42, 39.37007874015748854 ) ;
#108 = ORIENTED_EDGE ( 'NONE', *, *, #57, .T. ) ;
#109 = CLOSED_SHELL ( 'NONE', ( #129, #32, #171, #206, #159, #115, #71, #50 ) ) ;
#110 = ORIENTED_EDGE ( 'NONE', *, *, #169, .T. ) ;
#111 = DIMENSIONAL_EXPONENTS ( 1.000000000000000000, 0.0000000000000000000, 0.0000000000000000000, 0.0000000000000000000, 0.0000000000000000000, 0.0000000000000000000, 0.0000000000000000000 ) ;
#112 = AXIS2_PLACEMENT_3D ( 'NONE', #162, #63, #41 ) ;
#113 = EDGE_CURVE ( 'NONE', #194, #176, #146, .T. ) ;
#114 = SURFACE_SIDE_STYLE ('',( #216 ) ) ;
#115 = ADVANCED_FACE ( 'NONE', ( #40 ), #98, .T. ) ;
#116 = CIRCLE ( 'NONE', #227, 0.1574804999999999955 ) ;
#117 = PRODUCT_CONTEXT ( 'NONE', #160, 'mechanical' ) ;
#118 = DIRECTION ( 'NONE',  ( -0.0000000000000000000, -0.0000000000000000000, -1.000000000000000000 ) ) ;
#119 = FACE_OUTER_BOUND ( 'NONE', #70, .T. ) ;
#120 = PLANE ( 'NONE',  #131 ) ;
#121 = CARTESIAN_POINT ( 'NONE',  ( 0.1574804999999999955, 1.928579902531247412E-17, 2.465314999999999923 ) ) ;
#122 = MECHANICAL_DESIGN_GEOMETRIC_PRESENTATION_REPRESENTATION (  '', ( #232 ), #27 ) ;
#123 = ORIENTED_EDGE ( 'NONE', *, *, #187, .T. ) ;
#124 = CIRCLE ( 'NONE', #180, 0.1424804999999990940 ) ;
#125 = PRESENTATION_LAYER_ASSIGNMENT (  '', '', ( #90 ) ) ;
#126 = EDGE_LOOP ( 'NONE', ( #1, #15, #5, #217 ) ) ;
#127 = CARTESIAN_POINT ( 'NONE',  ( 0.0000000000000000000, 0.0000000000000000000, 2.480315000000000047 ) ) ;
#128 = CARTESIAN_POINT ( 'NONE',  ( 0.0000000000000000000, 0.0000000000000000000, 0.5730321431719496150 ) ) ;
#129 = ADVANCED_FACE ( 'NONE', ( #62 ), #87, .T. ) ;
#130 = ORIENTED_EDGE ( 'NONE', *, *, #230, .F. ) ;
#131 = AXIS2_PLACEMENT_3D ( 'NONE', #205, #31, #229 ) ;
#132 = FILL_AREA_STYLE_COLOUR ( '', #7 ) ;
#133 = LINE ( 'NONE', #53, #54 ) ;
#134 = DIRECTION ( 'NONE',  ( 0.0000000000000000000, 0.0000000000000000000, -1.000000000000000000 ) ) ;
#135 = AXIS2_PLACEMENT_3D ( 'NONE', #17, #4, #24 ) ;
#136 = LENGTH_MEASURE_WITH_UNIT ( LENGTH_MEASURE( 0.02539999999999999897 ), #235 );
#137 = PRESENTATION_STYLE_ASSIGNMENT (( #184 ) ) ;
#138 = LINE ( 'NONE', #242, #221 ) ;
#139 = DIRECTION ( 'NONE',  ( 0.7071067811865627828, 8.659560562355118980E-17, -0.7071067811865321406 ) ) ;
#140 = LENGTH_MEASURE_WITH_UNIT ( LENGTH_MEASURE( 0.02539999999999999897 ), #165 );
#141 = CARTESIAN_POINT ( 'NONE',  ( 0.1574804999999999955, 1.928579902531247412E-17, 2.480315000000000047 ) ) ;
#142 = CONICAL_SURFACE ( 'NONE', #201, 0.003936999999999995191, 0.2617993877991504625 ) ;
#143 = CARTESIAN_POINT ( 'NONE',  ( 0.1574804999999999955, 1.928579902531247412E-17, 0.5730321431719496150 ) ) ;
#144 = EDGE_CURVE ( 'NONE', #236, #194, #133, .T. ) ;
#145 =( NAMED_UNIT ( * ) SI_UNIT ( $, .STERADIAN. ) SOLID_ANGLE_UNIT ( ) );
#146 = CIRCLE ( 'NONE', #237, 0.1574804999999999955 ) ;
#147 = ORIENTED_EDGE ( 'NONE', *, *, #57, .F. ) ;
#148 = UNCERTAINTY_MEASURE_WITH_UNIT (LENGTH_MEASURE( 1.000000000000000082E-05 ), #215, 'distance_accuracy_value', 'NONE');
#149 = ORIENTED_EDGE ( 'NONE', *, *, #13, .F. ) ;
#150 = ORIENTED_EDGE ( 'NONE', *, *, #13, .T. ) ;
#151 =( LENGTH_UNIT ( ) NAMED_UNIT ( * ) SI_UNIT ( $, .METRE. ) );
#152 = ORIENTED_EDGE ( 'NONE', *, *, #79, .T. ) ;
#153 = ORIENTED_EDGE ( 'NONE', *, *, #169, .F. ) ;
#154 = FILL_AREA_STYLE ('',( #20 ) ) ;
#155 = EDGE_LOOP ( 'NONE', ( #147, #214, #231, #34 ) ) ;
#156 = CARTESIAN_POINT ( 'NONE',  ( 0.0000000000000000000, 0.0000000000000000000, 2.480315000000000047 ) ) ;
#157 = CARTESIAN_POINT ( 'NONE',  ( 0.0000000000000000000, 0.0000000000000000000, 2.480315000000000047 ) ) ;
#158 = CIRCLE ( 'NONE', #74, 0.003936999999999995191 ) ;
#159 = ADVANCED_FACE ( 'NONE', ( #185 ), #120, .T. ) ;
#160 = APPLICATION_CONTEXT ( 'automotive_design' ) ;
#161 = DIRECTION ( 'NONE',  ( 1.000000000000000000, 0.0000000000000000000, 0.0000000000000000000 ) ) ;
#162 = CARTESIAN_POINT ( 'NONE',  ( 0.0000000000000000000, 0.0000000000000000000, 2.480315000000000047 ) ) ;
#163 = CIRCLE ( 'NONE', #21, 0.1574804999999999955 ) ;
#164 = DIRECTION ( 'NONE',  ( 0.0000000000000000000, 0.0000000000000000000, 1.000000000000000000 ) ) ;
#165 =( LENGTH_UNIT ( ) NAMED_UNIT ( * ) SI_UNIT ( $, .METRE. ) );
#166 = CARTESIAN_POINT ( 'NONE',  ( 0.003936999999999995191, 0.0000000000000000000, 0.0000000000000000000 ) ) ;
#167 =( NAMED_UNIT ( * ) PLANE_ANGLE_UNIT ( ) SI_UNIT ( $, .RADIAN. ) );
#168 =( CONVERSION_BASED_UNIT ( 'INCH', #140 ) LENGTH_UNIT ( ) NAMED_UNIT ( #181 ) );
#169 = EDGE_CURVE ( 'NONE', #177, #92, #170, .T. ) ;
#170 = LINE ( 'NONE', #249, #36 ) ;
#171 = ADVANCED_FACE ( 'NONE', ( #186 ), #200, .T. ) ;
#172 = PRODUCT_DEFINITION_SHAPE ( 'NONE', 'NONE',  #195 ) ;
#173 = LINE ( 'NONE', #28, #244 ) ;
#174 = PRODUCT_DEFINITION_CONTEXT ( 'detailed design', #178, 'design' ) ;
#175 = AXIS2_PLACEMENT_3D ( 'NONE', #51, #248, #26 ) ;
#176 = VERTEX_POINT ( 'NONE', #103 ) ;
#177 = VERTEX_POINT ( 'NONE', #166 ) ;
#178 = APPLICATION_CONTEXT ( 'automotive_design' ) ;
#179 = CARTESIAN_POINT ( 'NONE',  ( -0.003936999999999995191, 9.883971235068394293E-18, 0.0000000000000000000 ) ) ;
#180 = AXIS2_PLACEMENT_3D ( 'NONE', #156, #198, #22 ) ;
#181 = DIMENSIONAL_EXPONENTS ( 1.000000000000000000, 0.0000000000000000000, 0.0000000000000000000, 0.0000000000000000000, 0.0000000000000000000, 0.0000000000000000000, 0.0000000000000000000 ) ;
#182 = CYLINDRICAL_SURFACE ( 'NONE', #112, 0.1574804999999999955 ) ;
#183 = SURFACE_SIDE_STYLE ('',( #240 ) ) ;
#184 = SURFACE_STYLE_USAGE ( .BOTH. , #114 ) ;
#185 = FACE_OUTER_BOUND ( 'NONE', #2, .T. ) ;
#186 = FACE_OUTER_BOUND ( 'NONE', #126, .T. ) ;
#187 = EDGE_CURVE ( 'NONE', #55, #92, #163, .T. ) ;
#188 = AXIS2_PLACEMENT_3D ( 'NONE', #100, #164, #46 ) ;
#189 = EDGE_CURVE ( 'NONE', #194, #92, #65, .T. ) ;
#190 = ORIENTED_EDGE ( 'NONE', *, *, #243, .T. ) ;
#191 = UNCERTAINTY_MEASURE_WITH_UNIT (LENGTH_MEASURE( 1.000000000000000082E-05 ), #168, 'distance_accuracy_value', 'NONE');
#192 = ORIENTED_EDGE ( 'NONE', *, *, #220, .F. ) ;
#193 = CIRCLE ( 'NONE', #188, 0.1424804999999990940 ) ;
#194 = VERTEX_POINT ( 'NONE', #121 ) ;
#195 = PRODUCT_DEFINITION ( 'UNKNOWN', '', #228, #174 ) ;
#196 = CARTESIAN_POINT ( 'NONE',  ( 0.0000000000000000000, 0.0000000000000000000, 0.0000000000000000000 ) ) ;
#197 = DIRECTION ( 'NONE',  ( 0.0000000000000000000, 0.0000000000000000000, 1.000000000000000000 ) ) ;
#198 = DIRECTION ( 'NONE',  ( 0.0000000000000000000, 0.0000000000000000000, 1.000000000000000000 ) ) ;
#199 = DIRECTION ( 'NONE',  ( 1.000000000000000000, 0.0000000000000000000, 0.0000000000000000000 ) ) ;
#200 = CYLINDRICAL_SURFACE ( 'NONE', #175, 0.1574804999999999955 ) ;
#201 = AXIS2_PLACEMENT_3D ( 'NONE', #64, #225, #66 ) ;
#202 = EDGE_CURVE ( 'NONE', #176, #194, #116, .T. ) ;
#203 = DIRECTION ( 'NONE',  ( 0.2588190451025217387, 0.0000000000000000000, 0.9659258262890679791 ) ) ;
#204 = VECTOR ( 'NONE', #224, 39.37007874015748143 ) ;
#205 = CARTESIAN_POINT ( 'NONE',  ( 0.0000000000000000000, 0.0000000000000000000, 2.480315000000000047 ) ) ;
#206 = ADVANCED_FACE ( 'NONE', ( #119 ), #182, .T. ) ;
#207 = ORIENTED_EDGE ( 'NONE', *, *, #208, .T. ) ;
#208 = EDGE_CURVE ( 'NONE', #94, #177, #89, .T. ) ;
#209 = ORIENTED_EDGE ( 'NONE', *, *, #79, .F. ) ;
#210 = EDGE_LOOP ( 'NONE', ( #10, #152, #123, #153 ) ) ;
#211 = DIRECTION ( 'NONE',  ( -1.000000000000000000, 0.0000000000000000000, 0.0000000000000000000 ) ) ;
#212 = DIMENSIONAL_EXPONENTS ( 1.000000000000000000, 0.0000000000000000000, 0.0000000000000000000, 0.0000000000000000000, 0.0000000000000000000, 0.0000000000000000000, 0.0000000000000000000 ) ;
#213 = AXIS2_PLACEMENT_3D ( 'NONE', #127, #134, #219 ) ;
#214 = ORIENTED_EDGE ( 'NONE', *, *, #144, .T. ) ;
#215 =( CONVERSION_BASED_UNIT ( 'INCH', #136 ) LENGTH_UNIT ( ) NAMED_UNIT ( #212 ) );
#216 = SURFACE_STYLE_FILL_AREA ( #222 ) ;
#217 = ORIENTED_EDGE ( 'NONE', *, *, #243, .F. ) ;
#218 = CARTESIAN_POINT ( 'NONE',  ( -0.1424804999999990940, 0.0000000000000000000, 2.480315000000000047 ) ) ;
#219 = DIRECTION ( 'NONE',  ( -1.000000000000000000, 0.0000000000000000000, 0.0000000000000000000 ) ) ;
#220 = EDGE_CURVE ( 'NONE', #76, #236, #193, .T. ) ;
#221 = VECTOR ( 'NONE', #25, 39.37007874015748143 ) ;
#222 = FILL_AREA_STYLE ('',( #132 ) ) ;
#223 = PRESENTATION_STYLE_ASSIGNMENT (( #39 ) ) ;
#224 = DIRECTION ( 'NONE',  ( -0.0000000000000000000, -0.0000000000000000000, -1.000000000000000000 ) ) ;
#225 = DIRECTION ( 'NONE',  ( 0.0000000000000000000, 0.0000000000000000000, 1.000000000000000000 ) ) ;
#226 = CARTESIAN_POINT ( 'NONE',  ( -0.1424804999999990940, 0.0000000000000000000, 2.480315000000000047 ) ) ;
#227 = AXIS2_PLACEMENT_3D ( 'NONE', #29, #246, #199 ) ;
#228 = PRODUCT_DEFINITION_FORMATION_WITH_SPECIFIED_SOURCE ( 'ANY', '', #14, .NOT_KNOWN. ) ;
#229 = DIRECTION ( 'NONE',  ( 1.000000000000000000, 0.0000000000000000000, -0.0000000000000000000 ) ) ;
#230 = EDGE_CURVE ( 'NONE', #177, #94, #158, .T. ) ;
#231 = ORIENTED_EDGE ( 'NONE', *, *, #202, .F. ) ;
#232 = STYLED_ITEM ( 'NONE', ( #137 ), #102 ) ;
#233 = EDGE_LOOP ( 'NONE', ( #11, #192, #58, #3 ) ) ;
#234 = FACE_OUTER_BOUND ( 'NONE', #33, .T. ) ;
#235 =( LENGTH_UNIT ( ) NAMED_UNIT ( * ) SI_UNIT ( $, .METRE. ) );
#236 = VERTEX_POINT ( 'NONE', #101 ) ;
#237 = AXIS2_PLACEMENT_3D ( 'NONE', #23, #99, #161 ) ;
#238 = DIRECTION ( 'NONE',  ( -1.000000000000000000, 0.0000000000000000000, 0.0000000000000000000 ) ) ;
#239 =( GEOMETRIC_REPRESENTATION_CONTEXT ( 3 ) GLOBAL_UNCERTAINTY_ASSIGNED_CONTEXT ( ( #148 ) ) GLOBAL_UNIT_ASSIGNED_CONTEXT ( ( #215, #59, #49 ) ) REPRESENTATION_CONTEXT ( 'NONE', 'WORKASPACE' ) );
#240 = SURFACE_STYLE_FILL_AREA ( #154 ) ;
#241 = DIRECTION ( 'NONE',  ( 0.0000000000000000000, 0.0000000000000000000, -1.000000000000000000 ) ) ;
#242 = CARTESIAN_POINT ( 'NONE',  ( -0.1574804999999999955, 0.0000000000000000000, 2.480315000000000047 ) ) ;
#243 = EDGE_CURVE ( 'NONE', #176, #55, #138, .T. ) ;
#244 = VECTOR ( 'NONE', #67, 39.37007874015748854 ) ;
#245 = DIRECTION ( 'NONE',  ( -1.000000000000000000, 0.0000000000000000000, 0.0000000000000000000 ) ) ;
#246 = DIRECTION ( 'NONE',  ( 0.0000000000000000000, 0.0000000000000000000, -1.000000000000000000 ) ) ;
#247 = EDGE_CURVE ( 'NONE', #76, #176, #84, .T. ) ;
#248 = DIRECTION ( 'NONE',  ( -0.0000000000000000000, -0.0000000000000000000, -1.000000000000000000 ) ) ;
#249 = CARTESIAN_POINT ( 'NONE',  ( 0.003936999999999995191, 0.0000000000000000000, 0.0000000000000000000 ) ) ;
ENDSEC;
END-ISO-10303-21;
