ISO-10303-21;
HEADER;
FILE_DESCRIPTION (( 'STEP AP214' ),
    '1' );
FILE_NAME ('83848.STEP',
    '2023-07-05T16:18:44',
    ( '' ),
    ( '' ),
    'SwSTEP 2.0',
    'SolidWorks 2023',
    '' );
FILE_SCHEMA (( 'AUTOMOTIVE_DESIGN' ));
ENDSEC;

DATA;
#1 = SURFACE_STYLE_USAGE ( .BOTH. , #158 ) ;
#2 = DIRECTION ( 'NONE',  ( -1.678977451528527160E-17, -1.000000000000000000, -0.000000000000000000 ) ) ;
#3 = DIRECTION ( 'NONE',  ( -1.000000000000000000, -1.821231995776178930E-16, 0.000000000000000000 ) ) ;
#4 = STYLED_ITEM ( 'NONE', ( #184 ), #151 ) ;
#5 = PRODUCT ( '83848', '83848', '', ( #137 ) ) ;
#6 = PRODUCT_DEFINITION ( 'UNKNOWN', '', #265, #256 ) ;
#7 = PRESENTATION_LAYER_ASSIGNMENT (  '', '', ( #182 ) ) ;
#8 = ADVANCED_FACE ( 'NONE', ( #104 ), #109, .T. ) ;
#9 = UNCERTAINTY_MEASURE_WITH_UNIT (LENGTH_MEASURE( 1.000000000000000082E-05 ), #206, 'distance_accuracy_value', 'NONE');
#10 = FILL_AREA_STYLE_COLOUR ( '', #27 ) ;
#11 = FACE_OUTER_BOUND ( 'NONE', #31, .T. ) ;
#12 = PRODUCT_RELATED_PRODUCT_CATEGORY ( 'part', '', ( #5 ) ) ;
#13 =( NAMED_UNIT ( * ) SI_UNIT ( $, .STERADIAN. ) SOLID_ANGLE_UNIT ( ) );
#14 = COLOUR_RGB ( '',1.000000000000000000, 0.000000000000000000, 0.000000000000000000 ) ;
#15 = CARTESIAN_POINT ( 'NONE',  ( 1.707404996040164512E-16, 0.09374999999999966693, 0.000000000000000000 ) ) ;
#16 = EDGE_LOOP ( 'NONE', ( #131, #156 ) ) ;
#17 = DIRECTION ( 'NONE',  ( -1.000000000000000000, 0.000000000000000000, 0.000000000000000000 ) ) ;
#18 = LINE ( 'NONE', #259, #187 ) ;
#19 = ORIENTED_EDGE ( 'NONE', *, *, #254, .T. ) ;
#20 = AXIS2_PLACEMENT_3D ( 'NONE', #246, #47, #3 ) ;
#21 = EDGE_CURVE ( 'NONE', #192, #175, #194, .T. ) ;
#22 = AXIS2_PLACEMENT_3D ( 'NONE', #203, #72, #91 ) ;
#23 = PRESENTATION_STYLE_ASSIGNMENT (( #255 ) ) ;
#24 =( GEOMETRIC_REPRESENTATION_CONTEXT ( 3 ) GLOBAL_UNCERTAINTY_ASSIGNED_CONTEXT ( ( #101 ) ) GLOBAL_UNIT_ASSIGNED_CONTEXT ( ( #185, #84, #13 ) ) REPRESENTATION_CONTEXT ( 'NONE', 'WORKASPACE' ) );
#25 = DIRECTION ( 'NONE',  ( 1.678977451528527160E-17, 1.000000000000000000, 0.000000000000000000 ) ) ;
#26 = LENGTH_MEASURE_WITH_UNIT ( LENGTH_MEASURE( 0.02539999999999999897 ), #249 );
#27 = COLOUR_RGB ( '',1.000000000000000000, 0.000000000000000000, 0.000000000000000000 ) ;
#28 = CARTESIAN_POINT ( 'NONE',  ( 0.09374999999999987510, 2.000000000000000000, 1.148106374200642938E-17 ) ) ;
#29 = ORIENTED_EDGE ( 'NONE', *, *, #216, .F. ) ;
#30 = ADVANCED_FACE ( 'NONE', ( #248 ), #48, .F. ) ;
#31 = EDGE_LOOP ( 'NONE', ( #29, #214, #19 ) ) ;
#32 = AXIS2_PLACEMENT_3D ( 'NONE', #128, #155, #90 ) ;
#33 = VECTOR ( 'NONE', #85, 39.37007874015748143 ) ;
#34 = LINE ( 'NONE', #73, #235 ) ;
#35 = SURFACE_STYLE_USAGE ( .BOTH. , #93 ) ;
#36 = AXIS2_PLACEMENT_3D ( 'NONE', #198, #133, #17 ) ;
#37 = AXIS2_PLACEMENT_3D ( 'NONE', #15, #40, #105 ) ;
#38 = EDGE_LOOP ( 'NONE', ( #240, #127, #170, #70 ) ) ;
#39 = VERTEX_POINT ( 'NONE', #134 ) ;
#40 = DIRECTION ( 'NONE',  ( -1.216906699338408135E-16, 1.000000000000000000, 0.000000000000000000 ) ) ;
#41 = DIMENSIONAL_EXPONENTS ( 1.000000000000000000, 0.000000000000000000, 0.000000000000000000, 0.000000000000000000, 0.000000000000000000, 0.000000000000000000, 0.000000000000000000 ) ;
#42 = EDGE_LOOP ( 'NONE', ( #217, #147 ) ) ;
#43 = COLOUR_RGB ( '',0.7921568627450980005, 0.8196078431372548767, 0.9333333333333333481 ) ;
#44 = CARTESIAN_POINT ( 'NONE',  ( -0.09374999999999998612, 0.09374999999999966693, 0.000000000000000000 ) ) ;
#45 = FACE_OUTER_BOUND ( 'NONE', #64, .T. ) ;
#46 = ORIENTED_EDGE ( 'NONE', *, *, #220, .F. ) ;
#47 = DIRECTION ( 'NONE',  ( -1.216906699338408135E-16, 1.000000000000000000, -0.000000000000000000 ) ) ;
#48 = PLANE ( 'NONE',  #49 ) ;
#49 = AXIS2_PLACEMENT_3D ( 'NONE', #157, #95, #114 ) ;
#50 = EDGE_CURVE ( 'NONE', #39, #192, #229, .T. ) ;
#51 = FILL_AREA_STYLE_COLOUR ( '', #148 ) ;
#52 = PRESENTATION_STYLE_ASSIGNMENT (( #1 ) ) ;
#53 =( LENGTH_UNIT ( ) NAMED_UNIT ( * ) SI_UNIT ( $, .METRE. ) );
#54 = EDGE_CURVE ( 'NONE', #192, #39, #124, .T. ) ;
#55 = LENGTH_MEASURE_WITH_UNIT ( LENGTH_MEASURE( 0.02539999999999999897 ), #62 );
#56 = SURFACE_STYLE_FILL_AREA ( #225 ) ;
#57 = COLOUR_RGB ( '',0.7921568627450980005, 0.8196078431372548767, 0.9333333333333333481 ) ;
#58 = FILL_AREA_STYLE_COLOUR ( '', #14 ) ;
#59 = CARTESIAN_POINT ( 'NONE',  ( 1.574041360807988724E-18, 0.09374999999999966693, 0.000000000000000000 ) ) ;
#60 = CIRCLE ( 'NONE', #32, 0.09375000000000005551 ) ;
#61 = UNCERTAINTY_MEASURE_WITH_UNIT (LENGTH_MEASURE( 1.000000000000000082E-05 ), #117, 'distance_accuracy_value', 'NONE');
#62 =( LENGTH_UNIT ( ) NAMED_UNIT ( * ) SI_UNIT ( $, .METRE. ) );
#63 = PLANE ( 'NONE',  #191 ) ;
#64 = EDGE_LOOP ( 'NONE', ( #66, #149, #262, #196 ) ) ;
#65 =( GEOMETRIC_REPRESENTATION_CONTEXT ( 3 ) GLOBAL_UNCERTAINTY_ASSIGNED_CONTEXT ( ( #61 ) ) GLOBAL_UNIT_ASSIGNED_CONTEXT ( ( #117, #76, #122 ) ) REPRESENTATION_CONTEXT ( 'NONE', 'WORKASPACE' ) );
#66 = ORIENTED_EDGE ( 'NONE', *, *, #50, .T. ) ;
#67 = DIMENSIONAL_EXPONENTS ( 1.000000000000000000, 0.000000000000000000, 0.000000000000000000, 0.000000000000000000, 0.000000000000000000, 0.000000000000000000, 0.000000000000000000 ) ;
#68 = PLANE ( 'NONE',  #37 ) ;
#69 = MANIFOLD_SOLID_BREP ( 'Revolve - Tool Body (Pointed)', #107 ) ;
#70 = ORIENTED_EDGE ( 'NONE', *, *, #111, .F. ) ;
#71 = FILL_AREA_STYLE ('',( #181 ) ) ;
#72 = DIRECTION ( 'NONE',  ( -1.216906699338408135E-16, 1.000000000000000000, -0.000000000000000000 ) ) ;
#73 = CARTESIAN_POINT ( 'NONE',  ( -0.09375000000000001388, 2.000000000000000000, 0.000000000000000000 ) ) ;
#74 = MECHANICAL_DESIGN_GEOMETRIC_PRESENTATION_REPRESENTATION (  '', ( #221 ), #177 ) ;
#75 =( NAMED_UNIT ( * ) PLANE_ANGLE_UNIT ( ) SI_UNIT ( $, .RADIAN. ) );
#76 =( NAMED_UNIT ( * ) PLANE_ANGLE_UNIT ( ) SI_UNIT ( $, .RADIAN. ) );
#77 = CIRCLE ( 'NONE', #215, 0.09375000000000005551 ) ;
#78 =( NAMED_UNIT ( * ) PLANE_ANGLE_UNIT ( ) SI_UNIT ( $, .RADIAN. ) );
#79 = FILL_AREA_STYLE ('',( #121 ) ) ;
#80 = FACE_OUTER_BOUND ( 'NONE', #106, .T. ) ;
#81 = DIRECTION ( 'NONE',  ( 0.000000000000000000, 0.000000000000000000, 1.000000000000000000 ) ) ;
#82 = PRESENTATION_STYLE_ASSIGNMENT (( #100 ) ) ;
#83 = DIMENSIONAL_EXPONENTS ( 1.000000000000000000, 0.000000000000000000, 0.000000000000000000, 0.000000000000000000, 0.000000000000000000, 0.000000000000000000, 0.000000000000000000 ) ;
#84 =( NAMED_UNIT ( * ) PLANE_ANGLE_UNIT ( ) SI_UNIT ( $, .RADIAN. ) );
#85 = DIRECTION ( 'NONE',  ( -1.216906699338408135E-16, 1.000000000000000000, -0.000000000000000000 ) ) ;
#86 = CARTESIAN_POINT ( 'NONE',  ( 0.000000000000000000, 0.000000000000000000, 0.000000000000000000 ) ) ;
#87 = CIRCLE ( 'NONE', #183, 0.09374999999999998612 ) ;
#88 = EDGE_CURVE ( 'NONE', #108, #236, #200, .T. ) ;
#89 = DIMENSIONAL_EXPONENTS ( 1.000000000000000000, 0.000000000000000000, 0.000000000000000000, 0.000000000000000000, 0.000000000000000000, 0.000000000000000000, 0.000000000000000000 ) ;
#90 = DIRECTION ( 'NONE',  ( -1.000000000000000000, 0.000000000000000000, 0.000000000000000000 ) ) ;
#91 = DIRECTION ( 'NONE',  ( -1.000000000000000000, -1.821231995776178930E-16, 0.000000000000000000 ) ) ;
#92 = STYLED_ITEM ( 'NONE', ( #23 ), #202 ) ;
#93 = SURFACE_SIDE_STYLE ('',( #56 ) ) ;
#94 = EDGE_CURVE ( 'NONE', #39, #174, #34, .T. ) ;
#95 = DIRECTION ( 'NONE',  ( 1.216906699338408135E-16, -1.000000000000000000, 0.000000000000000000 ) ) ;
#96 = DIRECTION ( 'NONE',  ( -1.216906699338408135E-16, 1.000000000000000000, -0.000000000000000000 ) ) ;
#97 = SURFACE_STYLE_FILL_AREA ( #79 ) ;
#98 = PRESENTATION_LAYER_ASSIGNMENT (  '', '', ( #92 ) ) ;
#99 = CARTESIAN_POINT ( 'NONE',  ( 0.09374999999999998612, 2.000000000000000000, 1.148106374200643555E-17 ) ) ;
#100 = SURFACE_STYLE_USAGE ( .BOTH. , #143 ) ;
#101 = UNCERTAINTY_MEASURE_WITH_UNIT (LENGTH_MEASURE( 1.000000000000000082E-05 ), #185, 'distance_accuracy_value', 'NONE');
#102 = DIRECTION ( 'NONE',  ( 1.678977451528527160E-17, 1.000000000000000000, 0.000000000000000000 ) ) ;
#103 = SHAPE_DEFINITION_REPRESENTATION ( #120, #226 ) ;
#104 = FACE_OUTER_BOUND ( 'NONE', #38, .T. ) ;
#105 = DIRECTION ( 'NONE',  ( -1.000000000000000000, -1.216906699338408135E-16, 0.000000000000000000 ) ) ;
#106 = EDGE_LOOP ( 'NONE', ( #260, #153 ) ) ;
#107 = CLOSED_SHELL ( 'NONE', ( #119, #211, #8, #30 ) ) ;
#108 = VERTEX_POINT ( 'NONE', #152 ) ;
#109 = CYLINDRICAL_SURFACE ( 'NONE', #36, 0.09374999999999994449 ) ;
#110 = LENGTH_MEASURE_WITH_UNIT ( LENGTH_MEASURE( 0.02539999999999999897 ), #136 );
#111 = EDGE_CURVE ( 'NONE', #175, #174, #60, .T. ) ;
#112 = AXIS2_PLACEMENT_3D ( 'NONE', #209, #102, #261 ) ;
#113 = FACE_OUTER_BOUND ( 'NONE', #234, .T. ) ;
#114 = DIRECTION ( 'NONE',  ( 1.000000000000000000, 1.216906699338408135E-16, 0.000000000000000000 ) ) ;
#115 = CARTESIAN_POINT ( 'NONE',  ( 0.000000000000000000, 0.000000000000000000, 0.000000000000000000 ) ) ;
#116 = CARTESIAN_POINT ( 'NONE',  ( 6.610147446962705066E-16, 39.37007874015748143, 0.000000000000000000 ) ) ;
#117 =( CONVERSION_BASED_UNIT ( 'INCH', #227 ) LENGTH_UNIT ( ) NAMED_UNIT ( #186 ) );
#118 = SURFACE_STYLE_USAGE ( .BOTH. , #163 ) ;
#119 = ADVANCED_FACE ( 'NONE', ( #45 ), #132, .T. ) ;
#120 = PRODUCT_DEFINITION_SHAPE ( 'NONE', 'NONE',  #6 ) ;
#121 = FILL_AREA_STYLE_COLOUR ( '', #57 ) ;
#122 =( NAMED_UNIT ( * ) SI_UNIT ( $, .STERADIAN. ) SOLID_ANGLE_UNIT ( ) );
#123 = FILL_AREA_STYLE ('',( #10 ) ) ;
#124 = CIRCLE ( 'NONE', #20, 0.09374999999999981959 ) ;
#125 = DIRECTION ( 'NONE',  ( 1.000000000000000000, 0.000000000000000000, 0.000000000000000000 ) ) ;
#126 = ORIENTED_EDGE ( 'NONE', *, *, #216, .T. ) ;
#127 = ORIENTED_EDGE ( 'NONE', *, *, #54, .T. ) ;
#128 = CARTESIAN_POINT ( 'NONE',  ( -6.123233995736763571E-17, 2.000000000000000000, 0.000000000000000000 ) ) ;
#129 = CONICAL_SURFACE ( 'NONE', #241, 39.37007874015762354, 0.7853981633974500554 ) ;
#130 = MECHANICAL_DESIGN_GEOMETRIC_PRESENTATION_REPRESENTATION (  '', ( #92 ), #251 ) ;
#131 = ORIENTED_EDGE ( 'NONE', *, *, #50, .F. ) ;
#132 = CYLINDRICAL_SURFACE ( 'NONE', #172, 0.09374999999999994449 ) ;
#133 = DIRECTION ( 'NONE',  ( -1.216906699338408135E-16, 1.000000000000000000, -0.000000000000000000 ) ) ;
#134 = CARTESIAN_POINT ( 'NONE',  ( -0.09374999999999965306, 0.09374999999999976408, 0.000000000000000000 ) ) ;
#135 = STYLED_ITEM ( 'NONE', ( #212 ), #162 ) ;
#136 =( LENGTH_UNIT ( ) NAMED_UNIT ( * ) SI_UNIT ( $, .METRE. ) );
#137 = PRODUCT_CONTEXT ( 'NONE', #167, 'mechanical' ) ;
#138 =( NAMED_UNIT ( * ) SI_UNIT ( $, .STERADIAN. ) SOLID_ANGLE_UNIT ( ) );
#139 = SURFACE_STYLE_FILL_AREA ( #190 ) ;
#140 =( CONVERSION_BASED_UNIT ( 'INCH', #210 ) LENGTH_UNIT ( ) NAMED_UNIT ( #238 ) );
#141 = LENGTH_MEASURE_WITH_UNIT ( LENGTH_MEASURE( 0.02539999999999999897 ), #188 );
#142 = MECHANICAL_DESIGN_GEOMETRIC_PRESENTATION_REPRESENTATION (  '', ( #4 ), #65 ) ;
#143 = SURFACE_SIDE_STYLE ('',( #145 ) ) ;
#144 = MECHANICAL_DESIGN_GEOMETRIC_PRESENTATION_REPRESENTATION (  '', ( #135 ), #222 ) ;
#145 = SURFACE_STYLE_FILL_AREA ( #123 ) ;
#146 = APPLICATION_PROTOCOL_DEFINITION ( 'draft international standard', 'automotive_design', 1998, #258 ) ;
#147 = ORIENTED_EDGE ( 'NONE', *, *, #111, .T. ) ;
#148 = COLOUR_RGB ( '',1.000000000000000000, 0.000000000000000000, 0.000000000000000000 ) ;
#149 = ORIENTED_EDGE ( 'NONE', *, *, #21, .T. ) ;
#150 = DIRECTION ( 'NONE',  ( -0.7071067811865486830, 0.7071067811865462405, 0.000000000000000000 ) ) ;
#151 = ADVANCED_FACE ( 'NONE', ( #113 ), #129, .T. ) ;
#152 = CARTESIAN_POINT ( 'NONE',  ( 0.09374999999999998612, 0.09374999999999966693, 1.148106374200643555E-17 ) ) ;
#153 = ORIENTED_EDGE ( 'NONE', *, *, #88, .F. ) ;
#154 = DIRECTION ( 'NONE',  ( 0.7071067811865486830, 0.7071067811865462405, 8.659560562354947649E-17 ) ) ;
#155 = DIRECTION ( 'NONE',  ( -1.216906699338408135E-16, 1.000000000000000000, -0.000000000000000000 ) ) ;
#156 = ORIENTED_EDGE ( 'NONE', *, *, #54, .F. ) ;
#157 = CARTESIAN_POINT ( 'NONE',  ( 0.09374999999999998612, 2.000000000000000000, 0.000000000000000000 ) ) ;
#158 = SURFACE_SIDE_STYLE ('',( #218 ) ) ;
#159 = AXIS2_PLACEMENT_3D ( 'NONE', #179, #2, #223 ) ;
#160 = PRESENTATION_LAYER_ASSIGNMENT (  '', '', ( #135 ) ) ;
#161 = ADVANCED_FACE ( 'NONE', ( #80 ), #63, .T. ) ;
#162 = MANIFOLD_SOLID_BREP ( 'Revolve - Cutting Edge', #176 ) ;
#163 = SURFACE_SIDE_STYLE ('',( #97 ) ) ;
#164 = MECHANICAL_DESIGN_GEOMETRIC_PRESENTATION_REPRESENTATION (  '', ( #182 ), #264 ) ;
#165 = DIRECTION ( 'NONE',  ( -1.000000000000000000, 1.678977451528527160E-17, 0.000000000000000000 ) ) ;
#166 = DIRECTION ( 'NONE',  ( -1.000000000000000000, 0.000000000000000000, 0.000000000000000000 ) ) ;
#167 = APPLICATION_CONTEXT ( 'automotive_design' ) ;
#168 = AXIS2_PLACEMENT_3D ( 'NONE', #250, #81, #125 ) ;
#169 = APPLICATION_PROTOCOL_DEFINITION ( 'draft international standard', 'automotive_design', 1998, #167 ) ;
#170 = ORIENTED_EDGE ( 'NONE', *, *, #94, .T. ) ;
#171 = ORIENTED_EDGE ( 'NONE', *, *, #88, .T. ) ;
#172 = AXIS2_PLACEMENT_3D ( 'NONE', #205, #96, #180 ) ;
#173 = CONICAL_SURFACE ( 'NONE', #112, 39.37007874015762354, 0.7853981633974500554 ) ;
#174 = VERTEX_POINT ( 'NONE', #252 ) ;
#175 = VERTEX_POINT ( 'NONE', #99 ) ;
#176 = CLOSED_SHELL ( 'NONE', ( #151, #161, #202 ) ) ;
#177 =( GEOMETRIC_REPRESENTATION_CONTEXT ( 3 ) GLOBAL_UNCERTAINTY_ASSIGNED_CONTEXT ( ( #233 ) ) GLOBAL_UNIT_ASSIGNED_CONTEXT ( ( #140, #78, #224 ) ) REPRESENTATION_CONTEXT ( 'NONE', 'WORKASPACE' ) );
#178 = VECTOR ( 'NONE', #154, 39.37007874015748854 ) ;
#179 = CARTESIAN_POINT ( 'NONE',  ( 1.574041360807988724E-18, 0.09374999999999966693, 0.000000000000000000 ) ) ;
#180 = DIRECTION ( 'NONE',  ( -1.000000000000000000, 0.000000000000000000, 0.000000000000000000 ) ) ;
#181 = FILL_AREA_STYLE_COLOUR ( '', #43 ) ;
#182 = STYLED_ITEM ( 'NONE', ( #52 ), #69 ) ;
#183 = AXIS2_PLACEMENT_3D ( 'NONE', #204, #243, #219 ) ;
#184 = PRESENTATION_STYLE_ASSIGNMENT (( #35 ) ) ;
#185 =( CONVERSION_BASED_UNIT ( 'INCH', #26 ) LENGTH_UNIT ( ) NAMED_UNIT ( #41 ) );
#186 = DIMENSIONAL_EXPONENTS ( 1.000000000000000000, 0.000000000000000000, 0.000000000000000000, 0.000000000000000000, 0.000000000000000000, 0.000000000000000000, 0.000000000000000000 ) ;
#187 = VECTOR ( 'NONE', #150, 39.37007874015748854 ) ;
#188 =( LENGTH_UNIT ( ) NAMED_UNIT ( * ) SI_UNIT ( $, .METRE. ) );
#189 = DIRECTION ( 'NONE',  ( 1.678977451528527160E-17, 1.000000000000000000, 0.000000000000000000 ) ) ;
#190 = FILL_AREA_STYLE ('',( #58 ) ) ;
#191 = AXIS2_PLACEMENT_3D ( 'NONE', #59, #25, #165 ) ;
#192 = VERTEX_POINT ( 'NONE', #208 ) ;
#193 = FACE_OUTER_BOUND ( 'NONE', #16, .T. ) ;
#194 = LINE ( 'NONE', #28, #33 ) ;
#195 = LINE ( 'NONE', #86, #178 ) ;
#196 = ORIENTED_EDGE ( 'NONE', *, *, #94, .F. ) ;
#197 = PRESENTATION_LAYER_ASSIGNMENT (  '', '', ( #221 ) ) ;
#198 = CARTESIAN_POINT ( 'NONE',  ( -6.123233995736763571E-17, 2.000000000000000000, 0.000000000000000000 ) ) ;
#199 =( CONVERSION_BASED_UNIT ( 'INCH', #110 ) LENGTH_UNIT ( ) NAMED_UNIT ( #83 ) );
#200 = CIRCLE ( 'NONE', #159, 0.09374999999999998612 ) ;
#201 =( NAMED_UNIT ( * ) PLANE_ANGLE_UNIT ( ) SI_UNIT ( $, .RADIAN. ) );
#202 = ADVANCED_FACE ( 'NONE', ( #11 ), #173, .T. ) ;
#203 = CARTESIAN_POINT ( 'NONE',  ( 1.707404996040164512E-16, 0.09374999999999979183, 0.000000000000000000 ) ) ;
#204 = CARTESIAN_POINT ( 'NONE',  ( 1.574041360807988724E-18, 0.09374999999999966693, 0.000000000000000000 ) ) ;
#205 = CARTESIAN_POINT ( 'NONE',  ( -6.123233995736763571E-17, 2.000000000000000000, 0.000000000000000000 ) ) ;
#206 =( CONVERSION_BASED_UNIT ( 'INCH', #55 ) LENGTH_UNIT ( ) NAMED_UNIT ( #67 ) );
#207 = UNCERTAINTY_MEASURE_WITH_UNIT (LENGTH_MEASURE( 1.000000000000000082E-05 ), #199, 'distance_accuracy_value', 'NONE');
#208 = CARTESIAN_POINT ( 'NONE',  ( 0.09374999999999998612, 0.09374999999999980571, 1.148106374200643555E-17 ) ) ;
#209 = CARTESIAN_POINT ( 'NONE',  ( 6.610147446962705066E-16, 39.37007874015748143, 0.000000000000000000 ) ) ;
#210 = LENGTH_MEASURE_WITH_UNIT ( LENGTH_MEASURE( 0.02539999999999999897 ), #253 );
#211 = ADVANCED_FACE ( 'NONE', ( #193 ), #68, .F. ) ;
#212 = PRESENTATION_STYLE_ASSIGNMENT (( #118 ) ) ;
#213 =( NAMED_UNIT ( * ) SI_UNIT ( $, .STERADIAN. ) SOLID_ANGLE_UNIT ( ) );
#214 = ORIENTED_EDGE ( 'NONE', *, *, #220, .T. ) ;
#215 = AXIS2_PLACEMENT_3D ( 'NONE', #237, #228, #263 ) ;
#216 = EDGE_CURVE ( 'NONE', #242, #108, #195, .T. ) ;
#217 = ORIENTED_EDGE ( 'NONE', *, *, #239, .T. ) ;
#218 = SURFACE_STYLE_FILL_AREA ( #71 ) ;
#219 = DIRECTION ( 'NONE',  ( 1.000000000000000000, 0.000000000000000000, 0.000000000000000000 ) ) ;
#220 = EDGE_CURVE ( 'NONE', #242, #236, #18, .T. ) ;
#221 = STYLED_ITEM ( 'NONE', ( #82 ), #161 ) ;
#222 =( GEOMETRIC_REPRESENTATION_CONTEXT ( 3 ) GLOBAL_UNCERTAINTY_ASSIGNED_CONTEXT ( ( #9 ) ) GLOBAL_UNIT_ASSIGNED_CONTEXT ( ( #206, #75, #138 ) ) REPRESENTATION_CONTEXT ( 'NONE', 'WORKASPACE' ) );
#223 = DIRECTION ( 'NONE',  ( 1.000000000000000000, 0.000000000000000000, 0.000000000000000000 ) ) ;
#224 =( NAMED_UNIT ( * ) SI_UNIT ( $, .STERADIAN. ) SOLID_ANGLE_UNIT ( ) );
#225 = FILL_AREA_STYLE ('',( #51 ) ) ;
#226 = ADVANCED_BREP_SHAPE_REPRESENTATION ( '83848', ( #162, #69, #168 ), #24 ) ;
#227 = LENGTH_MEASURE_WITH_UNIT ( LENGTH_MEASURE( 0.02539999999999999897 ), #53 );
#228 = DIRECTION ( 'NONE',  ( -1.216906699338408135E-16, 1.000000000000000000, -0.000000000000000000 ) ) ;
#229 = CIRCLE ( 'NONE', #22, 0.09374999999999981959 ) ;
#230 = SURFACE_SIDE_STYLE ('',( #139 ) ) ;
#231 =( CONVERSION_BASED_UNIT ( 'INCH', #141 ) LENGTH_UNIT ( ) NAMED_UNIT ( #89 ) );
#232 =( NAMED_UNIT ( * ) PLANE_ANGLE_UNIT ( ) SI_UNIT ( $, .RADIAN. ) );
#233 = UNCERTAINTY_MEASURE_WITH_UNIT (LENGTH_MEASURE( 1.000000000000000082E-05 ), #140, 'distance_accuracy_value', 'NONE');
#234 = EDGE_LOOP ( 'NONE', ( #46, #126, #171 ) ) ;
#235 = VECTOR ( 'NONE', #244, 39.37007874015748143 ) ;
#236 = VERTEX_POINT ( 'NONE', #44 ) ;
#237 = CARTESIAN_POINT ( 'NONE',  ( -6.123233995736763571E-17, 2.000000000000000000, 0.000000000000000000 ) ) ;
#238 = DIMENSIONAL_EXPONENTS ( 1.000000000000000000, 0.000000000000000000, 0.000000000000000000, 0.000000000000000000, 0.000000000000000000, 0.000000000000000000, 0.000000000000000000 ) ;
#239 = EDGE_CURVE ( 'NONE', #174, #175, #77, .T. ) ;
#240 = ORIENTED_EDGE ( 'NONE', *, *, #21, .F. ) ;
#241 = AXIS2_PLACEMENT_3D ( 'NONE', #116, #189, #166 ) ;
#242 = VERTEX_POINT ( 'NONE', #115 ) ;
#243 = DIRECTION ( 'NONE',  ( -1.678977451528527160E-17, -1.000000000000000000, -0.000000000000000000 ) ) ;
#244 = DIRECTION ( 'NONE',  ( -1.216906699338408135E-16, 1.000000000000000000, -0.000000000000000000 ) ) ;
#245 =( NAMED_UNIT ( * ) SI_UNIT ( $, .STERADIAN. ) SOLID_ANGLE_UNIT ( ) );
#246 = CARTESIAN_POINT ( 'NONE',  ( 1.707404996040164512E-16, 0.09374999999999979183, 0.000000000000000000 ) ) ;
#247 = PRESENTATION_LAYER_ASSIGNMENT (  '', '', ( #4 ) ) ;
#248 = FACE_OUTER_BOUND ( 'NONE', #42, .T. ) ;
#249 =( LENGTH_UNIT ( ) NAMED_UNIT ( * ) SI_UNIT ( $, .METRE. ) );
#250 = CARTESIAN_POINT ( 'NONE',  ( 0.000000000000000000, 0.000000000000000000, 0.000000000000000000 ) ) ;
#251 =( GEOMETRIC_REPRESENTATION_CONTEXT ( 3 ) GLOBAL_UNCERTAINTY_ASSIGNED_CONTEXT ( ( #257 ) ) GLOBAL_UNIT_ASSIGNED_CONTEXT ( ( #231, #232, #213 ) ) REPRESENTATION_CONTEXT ( 'NONE', 'WORKASPACE' ) );
#252 = CARTESIAN_POINT ( 'NONE',  ( -0.09375000000000012490, 2.000000000000000000, 0.000000000000000000 ) ) ;
#253 =( LENGTH_UNIT ( ) NAMED_UNIT ( * ) SI_UNIT ( $, .METRE. ) );
#254 = EDGE_CURVE ( 'NONE', #236, #108, #87, .T. ) ;
#255 = SURFACE_STYLE_USAGE ( .BOTH. , #230 ) ;
#256 = PRODUCT_DEFINITION_CONTEXT ( 'detailed design', #258, 'design' ) ;
#257 = UNCERTAINTY_MEASURE_WITH_UNIT (LENGTH_MEASURE( 1.000000000000000082E-05 ), #231, 'distance_accuracy_value', 'NONE');
#258 = APPLICATION_CONTEXT ( 'automotive_design' ) ;
#259 = CARTESIAN_POINT ( 'NONE',  ( 0.000000000000000000, 0.000000000000000000, 0.000000000000000000 ) ) ;
#260 = ORIENTED_EDGE ( 'NONE', *, *, #254, .F. ) ;
#261 = DIRECTION ( 'NONE',  ( -1.000000000000000000, 0.000000000000000000, 0.000000000000000000 ) ) ;
#262 = ORIENTED_EDGE ( 'NONE', *, *, #239, .F. ) ;
#263 = DIRECTION ( 'NONE',  ( -1.000000000000000000, 0.000000000000000000, 0.000000000000000000 ) ) ;
#264 =( GEOMETRIC_REPRESENTATION_CONTEXT ( 3 ) GLOBAL_UNCERTAINTY_ASSIGNED_CONTEXT ( ( #207 ) ) GLOBAL_UNIT_ASSIGNED_CONTEXT ( ( #199, #201, #245 ) ) REPRESENTATION_CONTEXT ( 'NONE', 'WORKASPACE' ) );
#265 = PRODUCT_DEFINITION_FORMATION_WITH_SPECIFIED_SOURCE ( 'ANY', '', #5, .NOT_KNOWN. ) ;
ENDSEC;
END-ISO-10303-21;
