ISO-10303-21;
HEADER;
FILE_DESCRIPTION (( 'STEP AP214' ),
    '1' );
FILE_NAME ('Micro_GEMM-080-2.STEP',
    '2021-09-01T21:46:19',
    ( '' ),
    ( '' ),
    'SwSTEP 2.0',
    'SolidWorks 2020',
    '' );
FILE_SCHEMA (( 'AUTOMOTIVE_DESIGN' ));
ENDSEC;

DATA;
#1 = AXIS2_PLACEMENT_3D ( 'NONE', #158, #292, #130 ) ;
#2 = EDGE_CURVE ( 'NONE', #287, #165, #57, .T. ) ;
#3 = CARTESIAN_POINT ( 'NONE',  ( 0.0000000000000000000, 0.0000000000000000000, 2.480315000000000047 ) ) ;
#4 = SURFACE_STYLE_FILL_AREA ( #276 ) ;
#5 = DIRECTION ( 'NONE',  ( 0.0000000000000000000, 0.0000000000000000000, -1.000000000000000000 ) ) ;
#6 = CIRCLE ( 'NONE', #112, 0.1574804999999999955 ) ;
#7 = CARTESIAN_POINT ( 'NONE',  ( -0.1573230194999999110, 1.927615612579981403E-17, 0.6299209999999999532 ) ) ;
#8 = ORIENTED_EDGE ( 'NONE', *, *, #2, .F. ) ;
#9 = ORIENTED_EDGE ( 'NONE', *, *, #201, .F. ) ;
#10 = FACE_OUTER_BOUND ( 'NONE', #120, .T. ) ;
#11 = VERTEX_POINT ( 'NONE', #216 ) ;
#12 = SHAPE_DEFINITION_REPRESENTATION ( #30, #39 ) ;
#13 = EDGE_LOOP ( 'NONE', ( #263, #170, #219, #169 ) ) ;
#14 = DIRECTION ( 'NONE',  ( -0.1736481776669311639, 2.126576849575783008E-17, 0.9848077530122080203 ) ) ;
#15 = DIRECTION ( 'NONE',  ( -1.000000000000000000, 0.0000000000000000000, 1.224646799147352961E-16 ) ) ;
#16 = ADVANCED_FACE ( 'NONE', ( #10 ), #64, .F. ) ;
#17 = DIRECTION ( 'NONE',  ( -1.224646799147353207E-16, -0.0000000000000000000, -1.000000000000000000 ) ) ;
#18 = MECHANICAL_DESIGN_GEOMETRIC_PRESENTATION_REPRESENTATION (  '', ( #83 ), #50 ) ;
#19 =( GEOMETRIC_REPRESENTATION_CONTEXT ( 3 ) GLOBAL_UNCERTAINTY_ASSIGNED_CONTEXT ( ( #111 ) ) GLOBAL_UNIT_ASSIGNED_CONTEXT ( ( #52, #162, #114 ) ) REPRESENTATION_CONTEXT ( 'NONE', 'WORKASPACE' ) );
#20 = CARTESIAN_POINT ( 'NONE',  ( -0.1574804999999999955, 0.0000000000000000000, 2.480315000000000047 ) ) ;
#21 = FACE_OUTER_BOUND ( 'NONE', #61, .T. ) ;
#22 = VECTOR ( 'NONE', #36, 39.37007874015748143 ) ;
#23 = EDGE_CURVE ( 'NONE', #79, #148, #240, .T. ) ;
#24 = CARTESIAN_POINT ( 'NONE',  ( -0.1424804999999990940, 0.0000000000000000000, 2.480315000000000047 ) ) ;
#25 = CIRCLE ( 'NONE', #280, 0.1573230194999999665 ) ;
#26 = SURFACE_STYLE_USAGE ( .BOTH. , #225 ) ;
#27 = DIRECTION ( 'NONE',  ( -1.224646799147353207E-16, -0.0000000000000000000, -1.000000000000000000 ) ) ;
#28 = CARTESIAN_POINT ( 'NONE',  ( 7.725244883795906416E-17, 0.0000000000000000000, 0.6308141162965944515 ) ) ;
#29 = DIRECTION ( 'NONE',  ( -0.7071067811865627828, 0.0000000000000000000, -0.7071067811865321406 ) ) ;
#30 = PRODUCT_DEFINITION_SHAPE ( 'NONE', 'NONE',  #54 ) ;
#31 = AXIS2_PLACEMENT_3D ( 'NONE', #134, #222, #207 ) ;
#32 = EDGE_CURVE ( 'NONE', #290, #287, #25, .T. ) ;
#33 = ORIENTED_EDGE ( 'NONE', *, *, #59, .T. ) ;
#34 =( LENGTH_UNIT ( ) NAMED_UNIT ( * ) SI_UNIT ( $, .METRE. ) );
#35 = ORIENTED_EDGE ( 'NONE', *, *, #51, .F. ) ;
#36 = DIRECTION ( 'NONE',  ( 0.1736481776669313581, 0.0000000000000000000, 0.9848077530122077983 ) ) ;
#37 = AXIS2_PLACEMENT_3D ( 'NONE', #95, #218, #260 ) ;
#38 = FILL_AREA_STYLE_COLOUR ( '', #163 ) ;
#39 = ADVANCED_BREP_SHAPE_REPRESENTATION ( 'Micro_GEMM-080-2', ( #250, #37 ), #209 ) ;
#40 = ORIENTED_EDGE ( 'NONE', *, *, #143, .T. ) ;
#41 = FACE_OUTER_BOUND ( 'NONE', #99, .T. ) ;
#42 = CIRCLE ( 'NONE', #298, 0.1573230194999999942 ) ;
#43 = DIRECTION ( 'NONE',  ( -1.224646799147353207E-16, -0.0000000000000000000, -1.000000000000000000 ) ) ;
#44 = DIRECTION ( 'NONE',  ( -1.224646799147353207E-16, -0.0000000000000000000, -1.000000000000000000 ) ) ;
#45 = DIRECTION ( 'NONE',  ( -1.000000000000000000, 0.0000000000000000000, 0.0000000000000000000 ) ) ;
#46 = DIRECTION ( 'NONE',  ( 1.000000000000000000, 0.0000000000000000000, 0.0000000000000000000 ) ) ;
#47 = DIRECTION ( 'NONE',  ( 1.000000000000000000, 0.0000000000000000000, 0.0000000000000000000 ) ) ;
#48 = CARTESIAN_POINT ( 'NONE',  ( 0.1573230195000000220, 0.0000000000000000000, 0.6299209999999999532 ) ) ;
#49 = CYLINDRICAL_SURFACE ( 'NONE', #206, 0.1574804999999999955 ) ;
#50 =( GEOMETRIC_REPRESENTATION_CONTEXT ( 3 ) GLOBAL_UNCERTAINTY_ASSIGNED_CONTEXT ( ( #246 ) ) GLOBAL_UNIT_ASSIGNED_CONTEXT ( ( #232, #126, #284 ) ) REPRESENTATION_CONTEXT ( 'NONE', 'WORKASPACE' ) );
#51 = EDGE_CURVE ( 'NONE', #11, #128, #42, .T. ) ;
#52 =( CONVERSION_BASED_UNIT ( 'INCH', #248 ) LENGTH_UNIT ( ) NAMED_UNIT ( #191 ) );
#53 =( NAMED_UNIT ( * ) SI_UNIT ( $, .STERADIAN. ) SOLID_ANGLE_UNIT ( ) );
#54 = PRODUCT_DEFINITION ( 'UNKNOWN', '', #118, #71 ) ;
#55 = ORIENTED_EDGE ( 'NONE', *, *, #32, .F. ) ;
#56 =( LENGTH_UNIT ( ) NAMED_UNIT ( * ) SI_UNIT ( $, .METRE. ) );
#57 = LINE ( 'NONE', #233, #22 ) ;
#58 = ORIENTED_EDGE ( 'NONE', *, *, #32, .T. ) ;
#59 = EDGE_CURVE ( 'NONE', #290, #128, #296, .T. ) ;
#60 = FILL_AREA_STYLE ('',( #38 ) ) ;
#61 = EDGE_LOOP ( 'NONE', ( #58, #166, #9, #255 ) ) ;
#62 = ORIENTED_EDGE ( 'NONE', *, *, #295, .T. ) ;
#63 = ADVANCED_FACE ( 'NONE', ( #271 ), #78, .T. ) ;
#64 = PLANE ( 'NONE',  #210 ) ;
#65 = CONICAL_SURFACE ( 'NONE', #277, 0.1424804999999990940, 0.7853981633974699283 ) ;
#66 = DIRECTION ( 'NONE',  ( 0.0000000000000000000, 0.0000000000000000000, 1.000000000000000000 ) ) ;
#67 = PLANE ( 'NONE',  #132 ) ;
#68 = CARTESIAN_POINT ( 'NONE',  ( 0.1424804999999990940, 1.744882882659133128E-17, 2.480315000000000047 ) ) ;
#69 = VECTOR ( 'NONE', #110, 39.37007874015748143 ) ;
#70 = DIRECTION ( 'NONE',  ( 1.000000000000000000, 0.0000000000000000000, 0.0000000000000000000 ) ) ;
#71 = PRODUCT_DEFINITION_CONTEXT ( 'detailed design', #203, 'design' ) ;
#72 = CARTESIAN_POINT ( 'NONE',  ( -0.1574804999999999122, 0.0000000000000000000, 0.6308141162965944515 ) ) ;
#73 = EDGE_CURVE ( 'NONE', #288, #148, #135, .T. ) ;
#74 = DIRECTION ( 'NONE',  ( 1.224646799147353207E-16, 0.0000000000000000000, 1.000000000000000000 ) ) ;
#75 = PRODUCT ( 'Micro_GEMM-080-2', 'Micro_GEMM-080-2', '', ( #215 ) ) ;
#76 = EDGE_CURVE ( 'NONE', #79, #258, #156, .T. ) ;
#77 = VERTEX_POINT ( 'NONE', #175 ) ;
#78 = CONICAL_SURFACE ( 'NONE', #254, 0.1573230194999999665, 0.1745329251994338637 ) ;
#79 = VERTEX_POINT ( 'NONE', #204 ) ;
#80 = SURFACE_STYLE_USAGE ( .BOTH. , #213 ) ;
#81 = EDGE_LOOP ( 'NONE', ( #100, #146 ) ) ;
#82 = EDGE_LOOP ( 'NONE', ( #235, #167, #122, #193 ) ) ;
#83 = STYLED_ITEM ( 'NONE', ( #192 ), #39 ) ;
#84 = ORIENTED_EDGE ( 'NONE', *, *, #194, .F. ) ;
#85 = CARTESIAN_POINT ( 'NONE',  ( 0.0000000000000000000, 0.0000000000000000000, 2.480315000000000047 ) ) ;
#86 = CARTESIAN_POINT ( 'NONE',  ( 0.0000000000000000000, 0.0000000000000000000, 0.0000000000000000000 ) ) ;
#87 = DIRECTION ( 'NONE',  ( 1.000000000000000000, 0.0000000000000000000, 0.0000000000000000000 ) ) ;
#88 = CARTESIAN_POINT ( 'NONE',  ( 2.359467375330272285E-33, 0.0000000000000000000, 1.926651322628716627E-17 ) ) ;
#89 = LINE ( 'NONE', #220, #282 ) ;
#90 = AXIS2_PLACEMENT_3D ( 'NONE', #3, #5, #160 ) ;
#91 = FACE_OUTER_BOUND ( 'NONE', #195, .T. ) ;
#92 = LINE ( 'NONE', #24, #124 ) ;
#93 = DIRECTION ( 'NONE',  ( 1.000000000000000000, 0.0000000000000000000, 0.0000000000000000000 ) ) ;
#94 = CARTESIAN_POINT ( 'NONE',  ( 7.714307363656999460E-17, 0.0000000000000000000, 0.6299209999999999532 ) ) ;
#95 = CARTESIAN_POINT ( 'NONE',  ( 0.0000000000000000000, 0.0000000000000000000, 0.0000000000000000000 ) ) ;
#96 = ORIENTED_EDGE ( 'NONE', *, *, #73, .F. ) ;
#97 = MECHANICAL_DESIGN_GEOMETRIC_PRESENTATION_REPRESENTATION (  '', ( #238 ), #19 ) ;
#98 = ORIENTED_EDGE ( 'NONE', *, *, #262, .F. ) ;
#99 = EDGE_LOOP ( 'NONE', ( #217, #62, #33, #35 ) ) ;
#100 = ORIENTED_EDGE ( 'NONE', *, *, #268, .T. ) ;
#101 = EDGE_LOOP ( 'NONE', ( #285, #214, #150, #279 ) ) ;
#102 = CIRCLE ( 'NONE', #273, 0.1573230194999999665 ) ;
#103 = DIRECTION ( 'NONE',  ( -1.000000000000000000, 0.0000000000000000000, 1.224646799147352961E-16 ) ) ;
#104 = PRODUCT_RELATED_PRODUCT_CATEGORY ( 'part', '', ( #75 ) ) ;
#105 = LINE ( 'NONE', #267, #289 ) ;
#106 = CARTESIAN_POINT ( 'NONE',  ( 7.714307363656999460E-17, 0.0000000000000000000, 0.6299209999999999532 ) ) ;
#107 = AXIS2_PLACEMENT_3D ( 'NONE', #239, #43, #133 ) ;
#108 = DIRECTION ( 'NONE',  ( -0.0000000000000000000, -0.0000000000000000000, -1.000000000000000000 ) ) ;
#109 = CARTESIAN_POINT ( 'NONE',  ( 7.714307363656999460E-17, 0.0000000000000000000, 0.6299209999999999532 ) ) ;
#110 = DIRECTION ( 'NONE',  ( -1.224646799147353207E-16, -0.0000000000000000000, -1.000000000000000000 ) ) ;
#111 = UNCERTAINTY_MEASURE_WITH_UNIT (LENGTH_MEASURE( 1.000000000000000082E-05 ), #52, 'distance_accuracy_value', 'NONE');
#112 = AXIS2_PLACEMENT_3D ( 'NONE', #144, #142, #70 ) ;
#113 = VECTOR ( 'NONE', #137, 39.37007874015748854 ) ;
#114 =( NAMED_UNIT ( * ) SI_UNIT ( $, .STERADIAN. ) SOLID_ANGLE_UNIT ( ) );
#115 = ADVANCED_FACE ( 'NONE', ( #269 ), #67, .T. ) ;
#116 = DIRECTION ( 'NONE',  ( -1.000000000000000000, 0.0000000000000000000, 0.0000000000000000000 ) ) ;
#117 = DIRECTION ( 'NONE',  ( -1.224646799147353207E-16, -0.0000000000000000000, -1.000000000000000000 ) ) ;
#118 = PRODUCT_DEFINITION_FORMATION_WITH_SPECIFIED_SOURCE ( 'ANY', '', #75, .NOT_KNOWN. ) ;
#119 = CYLINDRICAL_SURFACE ( 'NONE', #196, 0.1574804999999999955 ) ;
#120 = EDGE_LOOP ( 'NONE', ( #190, #234 ) ) ;
#121 = APPLICATION_PROTOCOL_DEFINITION ( 'draft international standard', 'automotive_design', 1998, #203 ) ;
#122 = ORIENTED_EDGE ( 'NONE', *, *, #2, .T. ) ;
#123 = ADVANCED_FACE ( 'NONE', ( #41 ), #223, .T. ) ;
#124 = VECTOR ( 'NONE', #29, 39.37007874015748854 ) ;
#125 = ORIENTED_EDGE ( 'NONE', *, *, #76, .T. ) ;
#126 =( NAMED_UNIT ( * ) PLANE_ANGLE_UNIT ( ) SI_UNIT ( $, .RADIAN. ) );
#127 = EDGE_LOOP ( 'NONE', ( #55, #40, #231, #8 ) ) ;
#128 = VERTEX_POINT ( 'NONE', #176 ) ;
#129 = EDGE_CURVE ( 'NONE', #288, #77, #145, .T. ) ;
#130 = DIRECTION ( 'NONE',  ( 1.000000000000000000, 0.0000000000000000000, 0.0000000000000000000 ) ) ;
#131 = AXIS2_PLACEMENT_3D ( 'NONE', #237, #294, #46 ) ;
#132 = AXIS2_PLACEMENT_3D ( 'NONE', #153, #221, #242 ) ;
#133 = DIRECTION ( 'NONE',  ( 1.000000000000000000, 0.0000000000000000000, 0.0000000000000000000 ) ) ;
#134 = CARTESIAN_POINT ( 'NONE',  ( 2.359467375330272285E-33, 0.0000000000000000000, 1.926651322628716627E-17 ) ) ;
#135 = LINE ( 'NONE', #68, #113 ) ;
#136 = CONICAL_SURFACE ( 'NONE', #259, 0.1573230194999999665, 0.1745329251994338637 ) ;
#137 = DIRECTION ( 'NONE',  ( 0.7071067811865627828, 8.659560562355118980E-17, -0.7071067811865321406 ) ) ;
#138 = DIRECTION ( 'NONE',  ( -0.0000000000000000000, -0.0000000000000000000, -1.000000000000000000 ) ) ;
#139 = CARTESIAN_POINT ( 'NONE',  ( 7.714307363656999460E-17, 0.0000000000000000000, 0.6299209999999999532 ) ) ;
#140 = CIRCLE ( 'NONE', #107, 0.1574804999999999955 ) ;
#141 =( LENGTH_UNIT ( ) NAMED_UNIT ( * ) SI_UNIT ( $, .METRE. ) );
#142 = DIRECTION ( 'NONE',  ( 0.0000000000000000000, 0.0000000000000000000, -1.000000000000000000 ) ) ;
#143 = EDGE_CURVE ( 'NONE', #290, #258, #89, .T. ) ;
#144 = CARTESIAN_POINT ( 'NONE',  ( 0.0000000000000000000, 0.0000000000000000000, 2.465314999999999923 ) ) ;
#145 = CIRCLE ( 'NONE', #1, 0.1424804999999990940 ) ;
#146 = ORIENTED_EDGE ( 'NONE', *, *, #129, .T. ) ;
#147 = LENGTH_MEASURE_WITH_UNIT ( LENGTH_MEASURE( 0.02539999999999999897 ), #34 );
#148 = VERTEX_POINT ( 'NONE', #243 ) ;
#149 = COLOUR_RGB ( '',0.7921568627450980005, 0.8196078431372548767, 0.9333333333333333481 ) ;
#150 = ORIENTED_EDGE ( 'NONE', *, *, #23, .F. ) ;
#151 = ORIENTED_EDGE ( 'NONE', *, *, #268, .F. ) ;
#152 = DIRECTION ( 'NONE',  ( -1.224646799147353207E-16, -0.0000000000000000000, -1.000000000000000000 ) ) ;
#153 = CARTESIAN_POINT ( 'NONE',  ( 0.0000000000000000000, 0.0000000000000000000, 2.480315000000000047 ) ) ;
#154 = AXIS2_PLACEMENT_3D ( 'NONE', #297, #44, #15 ) ;
#155 = DIRECTION ( 'NONE',  ( -1.224646799147353207E-16, -0.0000000000000000000, -1.000000000000000000 ) ) ;
#156 = LINE ( 'NONE', #20, #164 ) ;
#157 = ADVANCED_FACE ( 'NONE', ( #21 ), #177, .T. ) ;
#158 = CARTESIAN_POINT ( 'NONE',  ( 0.0000000000000000000, 0.0000000000000000000, 2.480315000000000047 ) ) ;
#159 = CIRCLE ( 'NONE', #31, 0.1573230194999999942 ) ;
#160 = DIRECTION ( 'NONE',  ( -1.000000000000000000, 0.0000000000000000000, 0.0000000000000000000 ) ) ;
#161 = DIRECTION ( 'NONE',  ( -1.000000000000000000, 0.0000000000000000000, 0.0000000000000000000 ) ) ;
#162 =( NAMED_UNIT ( * ) PLANE_ANGLE_UNIT ( ) SI_UNIT ( $, .RADIAN. ) );
#163 = COLOUR_RGB ( '',0.7921568627450980005, 0.8196078431372548767, 0.9333333333333333481 ) ;
#164 = VECTOR ( 'NONE', #108, 39.37007874015748143 ) ;
#165 = VERTEX_POINT ( 'NONE', #199 ) ;
#166 = ORIENTED_EDGE ( 'NONE', *, *, #257, .T. ) ;
#167 = ORIENTED_EDGE ( 'NONE', *, *, #295, .F. ) ;
#168 =( NAMED_UNIT ( * ) PLANE_ANGLE_UNIT ( ) SI_UNIT ( $, .RADIAN. ) );
#169 = ORIENTED_EDGE ( 'NONE', *, *, #76, .F. ) ;
#170 = ORIENTED_EDGE ( 'NONE', *, *, #194, .T. ) ;
#171 = DIRECTION ( 'NONE',  ( 0.0000000000000000000, 0.0000000000000000000, -1.000000000000000000 ) ) ;
#172 = ADVANCED_FACE ( 'NONE', ( #291 ), #65, .T. ) ;
#173 = DIRECTION ( 'NONE',  ( -1.224646799147353207E-16, -0.0000000000000000000, -1.000000000000000000 ) ) ;
#174 = CIRCLE ( 'NONE', #182, 0.1574804999999999955 ) ;
#175 = CARTESIAN_POINT ( 'NONE',  ( -0.1424804999999990940, 0.0000000000000000000, 2.480315000000000047 ) ) ;
#176 = CARTESIAN_POINT ( 'NONE',  ( -0.1573230194999999942, 0.0000000000000000000, 3.853302645257433254E-17 ) ) ;
#177 = CYLINDRICAL_SURFACE ( 'NONE', #266, 0.1573230194999999665 ) ;
#178 = CARTESIAN_POINT ( 'NONE',  ( 0.0000000000000000000, 0.0000000000000000000, 2.480315000000000047 ) ) ;
#179 = UNCERTAINTY_MEASURE_WITH_UNIT (LENGTH_MEASURE( 1.000000000000000082E-05 ), #189, 'distance_accuracy_value', 'NONE');
#180 = EDGE_CURVE ( 'NONE', #165, #258, #140, .T. ) ;
#181 = LINE ( 'NONE', #299, #69 ) ;
#182 = AXIS2_PLACEMENT_3D ( 'NONE', #28, #117, #227 ) ;
#183 = CIRCLE ( 'NONE', #188, 0.1424804999999990940 ) ;
#184 = DIMENSIONAL_EXPONENTS ( 1.000000000000000000, 0.0000000000000000000, 0.0000000000000000000, 0.0000000000000000000, 0.0000000000000000000, 0.0000000000000000000, 0.0000000000000000000 ) ;
#185 = CARTESIAN_POINT ( 'NONE',  ( 0.1424804999999990940, 1.836731392595189962E-17, 2.480315000000000047 ) ) ;
#186 = DIRECTION ( 'NONE',  ( -1.000000000000000000, 0.0000000000000000000, 0.0000000000000000000 ) ) ;
#187 = ORIENTED_EDGE ( 'NONE', *, *, #253, .T. ) ;
#188 = AXIS2_PLACEMENT_3D ( 'NONE', #208, #275, #93 ) ;
#189 =( CONVERSION_BASED_UNIT ( 'INCH', #212 ) LENGTH_UNIT ( ) NAMED_UNIT ( #283 ) );
#190 = ORIENTED_EDGE ( 'NONE', *, *, #201, .T. ) ;
#191 = DIMENSIONAL_EXPONENTS ( 1.000000000000000000, 0.0000000000000000000, 0.0000000000000000000, 0.0000000000000000000, 0.0000000000000000000, 0.0000000000000000000, 0.0000000000000000000 ) ;
#192 = PRESENTATION_STYLE_ASSIGNMENT (( #80 ) ) ;
#193 = ORIENTED_EDGE ( 'NONE', *, *, #180, .T. ) ;
#194 = EDGE_CURVE ( 'NONE', #148, #165, #105, .T. ) ;
#195 = EDGE_LOOP ( 'NONE', ( #84, #197, #125, #261 ) ) ;
#196 = AXIS2_PLACEMENT_3D ( 'NONE', #252, #138, #116 ) ;
#197 = ORIENTED_EDGE ( 'NONE', *, *, #262, .T. ) ;
#198 = APPLICATION_CONTEXT ( 'automotive_design' ) ;
#199 = CARTESIAN_POINT ( 'NONE',  ( 0.1574805000000000510, 1.928579902531248028E-17, 0.6308141162965944515 ) ) ;
#200 = DIRECTION ( 'NONE',  ( -1.000000000000000000, 0.0000000000000000000, 1.224646799147353454E-16 ) ) ;
#201 = EDGE_CURVE ( 'NONE', #128, #11, #159, .T. ) ;
#202 = DIRECTION ( 'NONE',  ( 1.224646799147353207E-16, 0.0000000000000000000, 1.000000000000000000 ) ) ;
#203 = APPLICATION_CONTEXT ( 'automotive_design' ) ;
#204 = CARTESIAN_POINT ( 'NONE',  ( -0.1574804999999999955, 0.0000000000000000000, 2.465314999999999923 ) ) ;
#205 = CARTESIAN_POINT ( 'NONE',  ( -0.1573230194999999665, 0.0000000000000000000, 1.926651322628715702E-17 ) ) ;
#206 = AXIS2_PLACEMENT_3D ( 'NONE', #178, #211, #161 ) ;
#207 = DIRECTION ( 'NONE',  ( -1.000000000000000000, 0.0000000000000000000, 1.224646799147353454E-16 ) ) ;
#208 = CARTESIAN_POINT ( 'NONE',  ( 0.0000000000000000000, 0.0000000000000000000, 2.480315000000000047 ) ) ;
#209 =( GEOMETRIC_REPRESENTATION_CONTEXT ( 3 ) GLOBAL_UNCERTAINTY_ASSIGNED_CONTEXT ( ( #179 ) ) GLOBAL_UNIT_ASSIGNED_CONTEXT ( ( #189, #168, #53 ) ) REPRESENTATION_CONTEXT ( 'NONE', 'WORKASPACE' ) );
#210 = AXIS2_PLACEMENT_3D ( 'NONE', #86, #66, #224 ) ;
#211 = DIRECTION ( 'NONE',  ( -0.0000000000000000000, -0.0000000000000000000, -1.000000000000000000 ) ) ;
#212 = LENGTH_MEASURE_WITH_UNIT ( LENGTH_MEASURE( 0.02539999999999999897 ), #56 );
#213 = SURFACE_SIDE_STYLE ('',( #230 ) ) ;
#214 = ORIENTED_EDGE ( 'NONE', *, *, #73, .T. ) ;
#215 = PRODUCT_CONTEXT ( 'NONE', #198, 'mechanical' ) ;
#216 = CARTESIAN_POINT ( 'NONE',  ( 0.1573230194999999942, 1.926651322628716011E-17, 3.791200677927629740E-33 ) ) ;
#217 = ORIENTED_EDGE ( 'NONE', *, *, #257, .F. ) ;
#218 = DIRECTION ( 'NONE',  ( 0.0000000000000000000, 0.0000000000000000000, 1.000000000000000000 ) ) ;
#219 = ORIENTED_EDGE ( 'NONE', *, *, #264, .F. ) ;
#220 = CARTESIAN_POINT ( 'NONE',  ( -0.1573230194999999110, 1.926651322628715702E-17, 0.6299209999999999532 ) ) ;
#221 = DIRECTION ( 'NONE',  ( 0.0000000000000000000, 0.0000000000000000000, 1.000000000000000000 ) ) ;
#222 = DIRECTION ( 'NONE',  ( -1.224646799147353207E-16, -0.0000000000000000000, -1.000000000000000000 ) ) ;
#223 = CYLINDRICAL_SURFACE ( 'NONE', #154, 0.1573230194999999665 ) ;
#224 = DIRECTION ( 'NONE',  ( 1.000000000000000000, 0.0000000000000000000, -0.0000000000000000000 ) ) ;
#225 = SURFACE_SIDE_STYLE ('',( #4 ) ) ;
#226 = FILL_AREA_STYLE_COLOUR ( '', #149 ) ;
#227 = DIRECTION ( 'NONE',  ( 1.000000000000000000, 0.0000000000000000000, 0.0000000000000000000 ) ) ;
#228 = ADVANCED_FACE ( 'NONE', ( #251 ), #249, .T. ) ;
#229 = EDGE_LOOP ( 'NONE', ( #96, #151, #187, #98 ) ) ;
#230 = SURFACE_STYLE_FILL_AREA ( #60 ) ;
#231 = ORIENTED_EDGE ( 'NONE', *, *, #264, .T. ) ;
#232 =( CONVERSION_BASED_UNIT ( 'INCH', #147 ) LENGTH_UNIT ( ) NAMED_UNIT ( #184 ) );
#233 = CARTESIAN_POINT ( 'NONE',  ( 0.1573230195000000220, 0.0000000000000000000, 0.6299209999999999532 ) ) ;
#234 = ORIENTED_EDGE ( 'NONE', *, *, #51, .T. ) ;
#235 = ORIENTED_EDGE ( 'NONE', *, *, #143, .F. ) ;
#236 = ADVANCED_FACE ( 'NONE', ( #245 ), #136, .T. ) ;
#237 = CARTESIAN_POINT ( 'NONE',  ( 0.0000000000000000000, 0.0000000000000000000, 2.465314999999999923 ) ) ;
#238 = STYLED_ITEM ( 'NONE', ( #278 ), #250 ) ;
#239 = CARTESIAN_POINT ( 'NONE',  ( 7.725244883795906416E-17, 0.0000000000000000000, 0.6308141162965944515 ) ) ;
#240 = CIRCLE ( 'NONE', #131, 0.1574804999999999955 ) ;
#241 = DIRECTION ( 'NONE',  ( -0.0000000000000000000, -0.0000000000000000000, -1.000000000000000000 ) ) ;
#242 = DIRECTION ( 'NONE',  ( 1.000000000000000000, 0.0000000000000000000, -0.0000000000000000000 ) ) ;
#243 = CARTESIAN_POINT ( 'NONE',  ( 0.1574804999999999955, 1.928579902531247412E-17, 2.465314999999999923 ) ) ;
#244 = PRESENTATION_LAYER_ASSIGNMENT (  '', '', ( #83 ) ) ;
#245 = FACE_OUTER_BOUND ( 'NONE', #127, .T. ) ;
#246 = UNCERTAINTY_MEASURE_WITH_UNIT (LENGTH_MEASURE( 1.000000000000000082E-05 ), #232, 'distance_accuracy_value', 'NONE');
#247 = ADVANCED_FACE ( 'NONE', ( #274 ), #119, .T. ) ;
#248 = LENGTH_MEASURE_WITH_UNIT ( LENGTH_MEASURE( 0.02539999999999999897 ), #141 );
#249 = CONICAL_SURFACE ( 'NONE', #90, 0.1424804999999990940, 0.7853981633974699283 ) ;
#250 = MANIFOLD_SOLID_BREP ( 'Cut-Revolve1', #270 ) ;
#251 = FACE_OUTER_BOUND ( 'NONE', #229, .T. ) ;
#252 = CARTESIAN_POINT ( 'NONE',  ( 0.0000000000000000000, 0.0000000000000000000, 2.480315000000000047 ) ) ;
#253 = EDGE_CURVE ( 'NONE', #77, #79, #92, .T. ) ;
#254 = AXIS2_PLACEMENT_3D ( 'NONE', #106, #202, #87 ) ;
#255 = ORIENTED_EDGE ( 'NONE', *, *, #59, .F. ) ;
#256 = APPLICATION_PROTOCOL_DEFINITION ( 'draft international standard', 'automotive_design', 1998, #198 ) ;
#257 = EDGE_CURVE ( 'NONE', #287, #11, #181, .T. ) ;
#258 = VERTEX_POINT ( 'NONE', #72 ) ;
#259 = AXIS2_PLACEMENT_3D ( 'NONE', #139, #74, #47 ) ;
#260 = DIRECTION ( 'NONE',  ( 1.000000000000000000, 0.0000000000000000000, 0.0000000000000000000 ) ) ;
#261 = ORIENTED_EDGE ( 'NONE', *, *, #180, .F. ) ;
#262 = EDGE_CURVE ( 'NONE', #148, #79, #6, .T. ) ;
#263 = ORIENTED_EDGE ( 'NONE', *, *, #23, .T. ) ;
#264 = EDGE_CURVE ( 'NONE', #258, #165, #174, .T. ) ;
#265 = DIRECTION ( 'NONE',  ( -1.000000000000000000, 0.0000000000000000000, 0.0000000000000000000 ) ) ;
#266 = AXIS2_PLACEMENT_3D ( 'NONE', #272, #152, #103 ) ;
#267 = CARTESIAN_POINT ( 'NONE',  ( 0.1574804999999999955, 1.928579902531247412E-17, 2.480315000000000047 ) ) ;
#268 = EDGE_CURVE ( 'NONE', #77, #288, #183, .T. ) ;
#269 = FACE_OUTER_BOUND ( 'NONE', #81, .T. ) ;
#270 = CLOSED_SHELL ( 'NONE', ( #157, #236, #172, #247, #286, #115, #228, #63, #123, #16 ) ) ;
#271 = FACE_OUTER_BOUND ( 'NONE', #82, .T. ) ;
#272 = CARTESIAN_POINT ( 'NONE',  ( 0.0000000000000000000, 0.0000000000000000000, 0.0000000000000000000 ) ) ;
#273 = AXIS2_PLACEMENT_3D ( 'NONE', #94, #27, #186 ) ;
#274 = FACE_OUTER_BOUND ( 'NONE', #13, .T. ) ;
#275 = DIRECTION ( 'NONE',  ( 0.0000000000000000000, 0.0000000000000000000, 1.000000000000000000 ) ) ;
#276 = FILL_AREA_STYLE ('',( #226 ) ) ;
#277 = AXIS2_PLACEMENT_3D ( 'NONE', #85, #171, #265 ) ;
#278 = PRESENTATION_STYLE_ASSIGNMENT (( #26 ) ) ;
#279 = ORIENTED_EDGE ( 'NONE', *, *, #253, .F. ) ;
#280 = AXIS2_PLACEMENT_3D ( 'NONE', #109, #17, #45 ) ;
#281 = PRESENTATION_LAYER_ASSIGNMENT (  '', '', ( #238 ) ) ;
#282 = VECTOR ( 'NONE', #14, 39.37007874015747433 ) ;
#283 = DIMENSIONAL_EXPONENTS ( 1.000000000000000000, 0.0000000000000000000, 0.0000000000000000000, 0.0000000000000000000, 0.0000000000000000000, 0.0000000000000000000, 0.0000000000000000000 ) ;
#284 =( NAMED_UNIT ( * ) SI_UNIT ( $, .STERADIAN. ) SOLID_ANGLE_UNIT ( ) );
#285 = ORIENTED_EDGE ( 'NONE', *, *, #129, .F. ) ;
#286 = ADVANCED_FACE ( 'NONE', ( #91 ), #49, .T. ) ;
#287 = VERTEX_POINT ( 'NONE', #48 ) ;
#288 = VERTEX_POINT ( 'NONE', #185 ) ;
#289 = VECTOR ( 'NONE', #241, 39.37007874015748143 ) ;
#290 = VERTEX_POINT ( 'NONE', #7 ) ;
#291 = FACE_OUTER_BOUND ( 'NONE', #101, .T. ) ;
#292 = DIRECTION ( 'NONE',  ( 0.0000000000000000000, 0.0000000000000000000, 1.000000000000000000 ) ) ;
#293 = VECTOR ( 'NONE', #173, 39.37007874015748143 ) ;
#294 = DIRECTION ( 'NONE',  ( 0.0000000000000000000, 0.0000000000000000000, -1.000000000000000000 ) ) ;
#295 = EDGE_CURVE ( 'NONE', #287, #290, #102, .T. ) ;
#296 = LINE ( 'NONE', #205, #293 ) ;
#297 = CARTESIAN_POINT ( 'NONE',  ( 0.0000000000000000000, 0.0000000000000000000, 0.0000000000000000000 ) ) ;
#298 = AXIS2_PLACEMENT_3D ( 'NONE', #88, #155, #200 ) ;
#299 = CARTESIAN_POINT ( 'NONE',  ( 0.1573230194999999665, 1.926651322628715702E-17, -1.926651322628715702E-17 ) ) ;
ENDSEC;
END-ISO-10303-21;
