ISO-10303-21;
HEADER;
FILE_DESCRIPTION (( 'STEP AP214' ),
    '1' );
FILE_NAME ('81359.STEP',
    '2023-06-23T00:31:34',
    ( '' ),
    ( '' ),
    'SwSTEP 2.0',
    'SolidWorks 2023',
    '' );
FILE_SCHEMA (( 'AUTOMOTIVE_DESIGN' ));
ENDSEC;

DATA;
#1 = PRESENTATION_STYLE_ASSIGNMENT (( #146 ) ) ;
#2 = EDGE_CURVE ( 'NONE', #207, #191, #129, .T. ) ;
#3 = COLOUR_RGB ( '',1.000000000000000000, 0.000000000000000000, 0.000000000000000000 ) ;
#4 = VERTEX_POINT ( 'NONE', #81 ) ;
#5 = DIRECTION ( 'NONE',  ( 1.000000000000000000, 0.000000000000000000, 0.000000000000000000 ) ) ;
#6 = DIRECTION ( 'NONE',  ( 0.000000000000000000, 0.000000000000000000, -1.000000000000000000 ) ) ;
#7 =( LENGTH_UNIT ( ) NAMED_UNIT ( * ) SI_UNIT ( $, .METRE. ) );
#8 = CIRCLE ( 'NONE', #252, 0.06250000000000001388 ) ;
#9 = EDGE_CURVE ( 'NONE', #247, #218, #294, .T. ) ;
#10 =( NAMED_UNIT ( * ) SI_UNIT ( $, .STERADIAN. ) SOLID_ANGLE_UNIT ( ) );
#11 = ORIENTED_EDGE ( 'NONE', *, *, #248, .F. ) ;
#12 = DIRECTION ( 'NONE',  ( 1.632862398863137527E-16, 1.000000000000000000, -0.000000000000000000 ) ) ;
#13 = STYLED_ITEM ( 'NONE', ( #68 ), #43 ) ;
#14 = FILL_AREA_STYLE_COLOUR ( '', #40 ) ;
#15 = EDGE_CURVE ( 'NONE', #128, #4, #268, .T. ) ;
#16 = PLANE ( 'NONE',  #259 ) ;
#17 = CYLINDRICAL_SURFACE ( 'NONE', #133, 0.06249999999999986122 ) ;
#18 = SURFACE_STYLE_USAGE ( .BOTH. , #73 ) ;
#19 =( GEOMETRIC_REPRESENTATION_CONTEXT ( 3 ) GLOBAL_UNCERTAINTY_ASSIGNED_CONTEXT ( ( #246 ) ) GLOBAL_UNIT_ASSIGNED_CONTEXT ( ( #283, #111, #254 ) ) REPRESENTATION_CONTEXT ( 'NONE', 'WORKASPACE' ) );
#20 = CARTESIAN_POINT ( 'NONE',  ( 0.000000000000000000, 0.6250000000000000000, -0.06250000000000001388 ) ) ;
#21 = LENGTH_MEASURE_WITH_UNIT ( LENGTH_MEASURE( 0.02539999999999999897 ), #285 );
#22 = CARTESIAN_POINT ( 'NONE',  ( 0.000000000000000000, 0.000000000000000000, -0.06250000000000001388 ) ) ;
#23 = FILL_AREA_STYLE_COLOUR ( '', #3 ) ;
#24 = AXIS2_PLACEMENT_3D ( 'NONE', #276, #226, #156 ) ;
#25 =( LENGTH_UNIT ( ) NAMED_UNIT ( * ) SI_UNIT ( $, .METRE. ) );
#26 = ADVANCED_FACE ( 'NONE', ( #57 ), #119, .T. ) ;
#27 = ORIENTED_EDGE ( 'NONE', *, *, #62, .T. ) ;
#28 =( NAMED_UNIT ( * ) SI_UNIT ( $, .STERADIAN. ) SOLID_ANGLE_UNIT ( ) );
#29 = CARTESIAN_POINT ( 'NONE',  ( 0.000000000000000000, 0.6250000000000000000, 0.000000000000000000 ) ) ;
#30 = COLOUR_RGB ( '',0.7921568627450980005, 0.8196078431372548767, 0.9333333333333333481 ) ;
#31 = ORIENTED_EDGE ( 'NONE', *, *, #80, .F. ) ;
#32 = FACE_OUTER_BOUND ( 'NONE', #131, .T. ) ;
#33 = DIRECTION ( 'NONE',  ( -0.000000000000000000, -1.000000000000000000, -0.000000000000000000 ) ) ;
#34 = ADVANCED_FACE ( 'NONE', ( #63 ), #173, .F. ) ;
#35 = ORIENTED_EDGE ( 'NONE', *, *, #69, .F. ) ;
#36 = VECTOR ( 'NONE', #245, 39.37007874015748143 ) ;
#37 = EDGE_LOOP ( 'NONE', ( #228, #124 ) ) ;
#38 = DIRECTION ( 'NONE',  ( -1.000000000000000000, 1.632862398863137527E-16, 0.000000000000000000 ) ) ;
#39 = ORIENTED_EDGE ( 'NONE', *, *, #93, .T. ) ;
#40 = COLOUR_RGB ( '',1.000000000000000000, 0.000000000000000000, 0.000000000000000000 ) ;
#41 = STYLED_ITEM ( 'NONE', ( #71 ), #181 ) ;
#42 = FACE_OUTER_BOUND ( 'NONE', #37, .T. ) ;
#43 = ADVANCED_FACE ( 'NONE', ( #42 ), #70, .T. ) ;
#44 = SURFACE_STYLE_FILL_AREA ( #201 ) ;
#45 = ORIENTED_EDGE ( 'NONE', *, *, #2, .F. ) ;
#46 = PLANE ( 'NONE',  #160 ) ;
#47 = CIRCLE ( 'NONE', #295, 0.06249999999999970857 ) ;
#48 = DIRECTION ( 'NONE',  ( -1.632862398863137527E-16, -1.000000000000000000, 0.000000000000000000 ) ) ;
#49 = PRESENTATION_STYLE_ASSIGNMENT (( #277 ) ) ;
#50 = FACE_OUTER_BOUND ( 'NONE', #64, .T. ) ;
#51 = CARTESIAN_POINT ( 'NONE',  ( -0.06249999999999940326, 2.500000000000000000, 0.000000000000000000 ) ) ;
#52 = CARTESIAN_POINT ( 'NONE',  ( 3.061616997868383141E-16, 2.500000000000000000, 0.000000000000000000 ) ) ;
#53 = AXIS2_PLACEMENT_3D ( 'NONE', #29, #33, #175 ) ;
#54 = FILL_AREA_STYLE_COLOUR ( '', #297 ) ;
#55 =( NAMED_UNIT ( * ) SI_UNIT ( $, .STERADIAN. ) SOLID_ANGLE_UNIT ( ) );
#56 = PRODUCT_DEFINITION_CONTEXT ( 'detailed design', #89, 'design' ) ;
#57 = FACE_OUTER_BOUND ( 'NONE', #100, .T. ) ;
#58 =( NAMED_UNIT ( * ) PLANE_ANGLE_UNIT ( ) SI_UNIT ( $, .RADIAN. ) );
#59 = CARTESIAN_POINT ( 'NONE',  ( 0.06250000000000016653, 2.500000000000000000, 7.654042494670940597E-18 ) ) ;
#60 = PRESENTATION_LAYER_ASSIGNMENT (  '', '', ( #41 ) ) ;
#61 = FACE_OUTER_BOUND ( 'NONE', #120, .T. ) ;
#62 = EDGE_CURVE ( 'NONE', #139, #128, #141, .T. ) ;
#63 = FACE_OUTER_BOUND ( 'NONE', #212, .T. ) ;
#64 = EDGE_LOOP ( 'NONE', ( #149, #158 ) ) ;
#65 = DIRECTION ( 'NONE',  ( 0.000000000000000000, -0.000000000000000000, 1.000000000000000000 ) ) ;
#66 = ORIENTED_EDGE ( 'NONE', *, *, #62, .F. ) ;
#67 = DIRECTION ( 'NONE',  ( -1.000000000000000000, 0.000000000000000000, 0.000000000000000000 ) ) ;
#68 = PRESENTATION_STYLE_ASSIGNMENT (( #250 ) ) ;
#69 = EDGE_CURVE ( 'NONE', #4, #308, #97, .T. ) ;
#70 = PLANE ( 'NONE',  #258 ) ;
#71 = PRESENTATION_STYLE_ASSIGNMENT (( #164 ) ) ;
#72 = CARTESIAN_POINT ( 'NONE',  ( 0.000000000000000000, 0.000000000000000000, -0.06250000000000001388 ) ) ;
#73 = SURFACE_SIDE_STYLE ('',( #302 ) ) ;
#74 = ORIENTED_EDGE ( 'NONE', *, *, #266, .T. ) ;
#75 = SURFACE_SIDE_STYLE ('',( #279 ) ) ;
#76 = DIRECTION ( 'NONE',  ( -1.000000000000000000, 0.000000000000000000, 0.000000000000000000 ) ) ;
#77 = MANIFOLD_SOLID_BREP ( 'Revolve - Tool Body (Straight Shanked)', #216 ) ;
#78 = LINE ( 'NONE', #22, #199 ) ;
#79 = DIMENSIONAL_EXPONENTS ( 1.000000000000000000, 0.000000000000000000, 0.000000000000000000, 0.000000000000000000, 0.000000000000000000, 0.000000000000000000, 0.000000000000000000 ) ;
#80 = EDGE_CURVE ( 'NONE', #128, #139, #121, .T. ) ;
#81 = CARTESIAN_POINT ( 'NONE',  ( 0.06250000000000002776, 2.500000000000000000, 7.654042494670951382E-18 ) ) ;
#82 = CARTESIAN_POINT ( 'NONE',  ( 0.000000000000000000, 0.000000000000000000, 0.000000000000000000 ) ) ;
#83 = ORIENTED_EDGE ( 'NONE', *, *, #15, .T. ) ;
#84 = DIRECTION ( 'NONE',  ( 1.632862398863137527E-16, 1.000000000000000000, -0.000000000000000000 ) ) ;
#85 = ORIENTED_EDGE ( 'NONE', *, *, #145, .T. ) ;
#86 = UNCERTAINTY_MEASURE_WITH_UNIT (LENGTH_MEASURE( 1.000000000000000082E-05 ), #98, 'distance_accuracy_value', 'NONE');
#87 = UNCERTAINTY_MEASURE_WITH_UNIT (LENGTH_MEASURE( 1.000000000000000082E-05 ), #153, 'distance_accuracy_value', 'NONE');
#88 = STYLED_ITEM ( 'NONE', ( #1 ), #26 ) ;
#89 = APPLICATION_CONTEXT ( 'automotive_design' ) ;
#90 = CARTESIAN_POINT ( 'NONE',  ( 0.000000000000000000, 0.6250000000000000000, 0.000000000000000000 ) ) ;
#91 = PRESENTATION_LAYER_ASSIGNMENT (  '', '', ( #177 ) ) ;
#92 = FILL_AREA_STYLE_COLOUR ( '', #30 ) ;
#93 = EDGE_CURVE ( 'NONE', #218, #207, #78, .T. ) ;
#94 =( CONVERSION_BASED_UNIT ( 'INCH', #166 ) LENGTH_UNIT ( ) NAMED_UNIT ( #79 ) );
#95 = FILL_AREA_STYLE ('',( #23 ) ) ;
#96 = AXIS2_PLACEMENT_3D ( 'NONE', #194, #151, #152 ) ;
#97 = CIRCLE ( 'NONE', #209, 0.06249999999999970857 ) ;
#98 =( CONVERSION_BASED_UNIT ( 'INCH', #186 ) LENGTH_UNIT ( ) NAMED_UNIT ( #167 ) );
#99 = PRESENTATION_STYLE_ASSIGNMENT (( #309 ) ) ;
#100 = EDGE_LOOP ( 'NONE', ( #101, #178, #45, #275 ) ) ;
#101 = ORIENTED_EDGE ( 'NONE', *, *, #251, .T. ) ;
#102 = PRODUCT_CONTEXT ( 'NONE', #304, 'mechanical' ) ;
#103 = ORIENTED_EDGE ( 'NONE', *, *, #266, .F. ) ;
#104 = STYLED_ITEM ( 'NONE', ( #99 ), #286 ) ;
#105 = DIRECTION ( 'NONE',  ( 0.000000000000000000, 1.000000000000000000, 0.000000000000000000 ) ) ;
#106 = EDGE_LOOP ( 'NONE', ( #27, #83, #150, #103 ) ) ;
#107 =( CONVERSION_BASED_UNIT ( 'INCH', #272 ) LENGTH_UNIT ( ) NAMED_UNIT ( #198 ) );
#108 =( GEOMETRIC_REPRESENTATION_CONTEXT ( 3 ) GLOBAL_UNCERTAINTY_ASSIGNED_CONTEXT ( ( #305 ) ) GLOBAL_UNIT_ASSIGNED_CONTEXT ( ( #236, #58, #55 ) ) REPRESENTATION_CONTEXT ( 'NONE', 'WORKASPACE' ) );
#109 =( NAMED_UNIT ( * ) SI_UNIT ( $, .STERADIAN. ) SOLID_ANGLE_UNIT ( ) );
#110 = CARTESIAN_POINT ( 'NONE',  ( 3.061616997868383141E-16, 2.500000000000000000, 0.000000000000000000 ) ) ;
#111 =( NAMED_UNIT ( * ) PLANE_ANGLE_UNIT ( ) SI_UNIT ( $, .RADIAN. ) );
#112 =( NAMED_UNIT ( * ) PLANE_ANGLE_UNIT ( ) SI_UNIT ( $, .RADIAN. ) );
#113 = DIRECTION ( 'NONE',  ( 0.000000000000000000, 0.000000000000000000, -1.000000000000000000 ) ) ;
#114 = DIRECTION ( 'NONE',  ( -0.000000000000000000, -1.000000000000000000, -0.000000000000000000 ) ) ;
#115 = AXIS2_PLACEMENT_3D ( 'NONE', #208, #290, #123 ) ;
#116 = PRESENTATION_STYLE_ASSIGNMENT (( #18 ) ) ;
#117 = LENGTH_MEASURE_WITH_UNIT ( LENGTH_MEASURE( 0.02539999999999999897 ), #25 );
#118 = DIMENSIONAL_EXPONENTS ( 1.000000000000000000, 0.000000000000000000, 0.000000000000000000, 0.000000000000000000, 0.000000000000000000, 0.000000000000000000, 0.000000000000000000 ) ;
#119 = CYLINDRICAL_SURFACE ( 'NONE', #147, 0.06250000000000001388 ) ;
#120 = EDGE_LOOP ( 'NONE', ( #184, #265, #74, #35 ) ) ;
#121 = CIRCLE ( 'NONE', #232, 0.06250000000000001388 ) ;
#122 = DIRECTION ( 'NONE',  ( 0.000000000000000000, 0.000000000000000000, 1.000000000000000000 ) ) ;
#123 = DIRECTION ( 'NONE',  ( 0.000000000000000000, 0.000000000000000000, -1.000000000000000000 ) ) ;
#124 = ORIENTED_EDGE ( 'NONE', *, *, #9, .F. ) ;
#125 = CYLINDRICAL_SURFACE ( 'NONE', #273, 0.06249999999999986122 ) ;
#126 = CARTESIAN_POINT ( 'NONE',  ( 0.000000000000000000, 0.000000000000000000, 0.000000000000000000 ) ) ;
#127 = LENGTH_MEASURE_WITH_UNIT ( LENGTH_MEASURE( 0.02539999999999999897 ), #263 );
#128 = VERTEX_POINT ( 'NONE', #185 ) ;
#129 = CIRCLE ( 'NONE', #96, 0.06250000000000001388 ) ;
#130 = PRESENTATION_LAYER_ASSIGNMENT (  '', '', ( #155 ) ) ;
#131 = EDGE_LOOP ( 'NONE', ( #11, #270, #39, #225 ) ) ;
#132 = AXIS2_PLACEMENT_3D ( 'NONE', #267, #180, #38 ) ;
#133 = AXIS2_PLACEMENT_3D ( 'NONE', #110, #255, #176 ) ;
#134 =( NAMED_UNIT ( * ) PLANE_ANGLE_UNIT ( ) SI_UNIT ( $, .RADIAN. ) );
#135 = PRESENTATION_LAYER_ASSIGNMENT (  '', '', ( #13 ) ) ;
#136 = MECHANICAL_DESIGN_GEOMETRIC_PRESENTATION_REPRESENTATION (  '', ( #177 ), #239 ) ;
#137 = CARTESIAN_POINT ( 'NONE',  ( 3.061616997868383141E-16, 2.500000000000000000, 0.000000000000000000 ) ) ;
#138 = CARTESIAN_POINT ( 'NONE',  ( 7.654042494670959086E-18, 0.6250000000000000000, 0.06250000000000001388 ) ) ;
#139 = VERTEX_POINT ( 'NONE', #280 ) ;
#140 = FACE_OUTER_BOUND ( 'NONE', #193, .T. ) ;
#141 = CIRCLE ( 'NONE', #24, 0.06250000000000001388 ) ;
#142 = SURFACE_SIDE_STYLE ('',( #307 ) ) ;
#143 = LENGTH_MEASURE_WITH_UNIT ( LENGTH_MEASURE( 0.02539999999999999897 ), #7 );
#144 = PRODUCT ( '81359', '81359', '', ( #102 ) ) ;
#145 = EDGE_CURVE ( 'NONE', #191, #207, #8, .T. ) ;
#146 = SURFACE_STYLE_USAGE ( .BOTH. , #172 ) ;
#147 = AXIS2_PLACEMENT_3D ( 'NONE', #126, #271, #214 ) ;
#148 = AXIS2_PLACEMENT_3D ( 'NONE', #82, #174, #6 ) ;
#149 = ORIENTED_EDGE ( 'NONE', *, *, #224, .T. ) ;
#150 = ORIENTED_EDGE ( 'NONE', *, *, #224, .F. ) ;
#151 = DIRECTION ( 'NONE',  ( -0.000000000000000000, -1.000000000000000000, -0.000000000000000000 ) ) ;
#152 = DIRECTION ( 'NONE',  ( 0.000000000000000000, 0.000000000000000000, -1.000000000000000000 ) ) ;
#153 =( CONVERSION_BASED_UNIT ( 'INCH', #127 ) LENGTH_UNIT ( ) NAMED_UNIT ( #118 ) );
#154 = FILL_AREA_STYLE ('',( #229 ) ) ;
#155 = STYLED_ITEM ( 'NONE', ( #49 ), #77 ) ;
#156 = DIRECTION ( 'NONE',  ( -1.000000000000000000, 0.000000000000000000, 0.000000000000000000 ) ) ;
#157 = UNCERTAINTY_MEASURE_WITH_UNIT (LENGTH_MEASURE( 1.000000000000000082E-05 ), #94, 'distance_accuracy_value', 'NONE');
#158 = ORIENTED_EDGE ( 'NONE', *, *, #69, .T. ) ;
#159 = CARTESIAN_POINT ( 'NONE',  ( 0.000000000000000000, 0.6250000000000000000, 0.000000000000000000 ) ) ;
#160 = AXIS2_PLACEMENT_3D ( 'NONE', #189, #256, #303 ) ;
#161 = CARTESIAN_POINT ( 'NONE',  ( 3.061616997868383141E-16, 2.500000000000000000, 0.000000000000000000 ) ) ;
#162 = CARTESIAN_POINT ( 'NONE',  ( 0.000000000000000000, 0.000000000000000000, 0.000000000000000000 ) ) ;
#163 = VECTOR ( 'NONE', #114, 39.37007874015748143 ) ;
#164 = SURFACE_STYLE_USAGE ( .BOTH. , #75 ) ;
#165 = DIRECTION ( 'NONE',  ( 1.632862398863137527E-16, 1.000000000000000000, -0.000000000000000000 ) ) ;
#166 = LENGTH_MEASURE_WITH_UNIT ( LENGTH_MEASURE( 0.02539999999999999897 ), #237 );
#167 = DIMENSIONAL_EXPONENTS ( 1.000000000000000000, 0.000000000000000000, 0.000000000000000000, 0.000000000000000000, 0.000000000000000000, 0.000000000000000000, 0.000000000000000000 ) ;
#168 = CARTESIAN_POINT ( 'NONE',  ( 0.000000000000000000, 0.000000000000000000, 0.000000000000000000 ) ) ;
#169 = ADVANCED_FACE ( 'NONE', ( #140 ), #46, .T. ) ;
#170 = APPLICATION_PROTOCOL_DEFINITION ( 'draft international standard', 'automotive_design', 1998, #89 ) ;
#171 = PRESENTATION_LAYER_ASSIGNMENT (  '', '', ( #88 ) ) ;
#172 = SURFACE_SIDE_STYLE ('',( #219 ) ) ;
#173 = PLANE ( 'NONE',  #132 ) ;
#174 = DIRECTION ( 'NONE',  ( -0.000000000000000000, -1.000000000000000000, -0.000000000000000000 ) ) ;
#175 = DIRECTION ( 'NONE',  ( 0.000000000000000000, 0.000000000000000000, -1.000000000000000000 ) ) ;
#176 = DIRECTION ( 'NONE',  ( -1.000000000000000000, 0.000000000000000000, 0.000000000000000000 ) ) ;
#177 = STYLED_ITEM ( 'NONE', ( #116 ), #169 ) ;
#178 = ORIENTED_EDGE ( 'NONE', *, *, #248, .T. ) ;
#179 = UNCERTAINTY_MEASURE_WITH_UNIT (LENGTH_MEASURE( 1.000000000000000082E-05 ), #107, 'distance_accuracy_value', 'NONE');
#180 = DIRECTION ( 'NONE',  ( 1.632862398863137527E-16, 1.000000000000000000, -0.000000000000000000 ) ) ;
#181 = MANIFOLD_SOLID_BREP ( 'Revolve - Cutting Edge', #202 ) ;
#182 = SURFACE_SIDE_STYLE ('',( #296 ) ) ;
#183 = MECHANICAL_DESIGN_GEOMETRIC_PRESENTATION_REPRESENTATION (  '', ( #41 ), #287 ) ;
#184 = ORIENTED_EDGE ( 'NONE', *, *, #15, .F. ) ;
#185 = CARTESIAN_POINT ( 'NONE',  ( 0.06250000000000002776, 0.6250000000000000000, 7.654042494670951382E-18 ) ) ;
#186 = LENGTH_MEASURE_WITH_UNIT ( LENGTH_MEASURE( 0.02539999999999999897 ), #211 );
#187 = MECHANICAL_DESIGN_GEOMETRIC_PRESENTATION_REPRESENTATION (  '', ( #13 ), #278 ) ;
#188 = PRODUCT_DEFINITION_FORMATION_WITH_SPECIFIED_SOURCE ( 'ANY', '', #144, .NOT_KNOWN. ) ;
#189 = CARTESIAN_POINT ( 'NONE',  ( 0.000000000000000000, 0.000000000000000000, 0.000000000000000000 ) ) ;
#190 = PRODUCT_DEFINITION_SHAPE ( 'NONE', 'NONE',  #243 ) ;
#191 = VERTEX_POINT ( 'NONE', #257 ) ;
#192 =( GEOMETRIC_REPRESENTATION_CONTEXT ( 3 ) GLOBAL_UNCERTAINTY_ASSIGNED_CONTEXT ( ( #157 ) ) GLOBAL_UNIT_ASSIGNED_CONTEXT ( ( #94, #112, #288 ) ) REPRESENTATION_CONTEXT ( 'NONE', 'WORKASPACE' ) );
#193 = EDGE_LOOP ( 'NONE', ( #221, #85 ) ) ;
#194 = CARTESIAN_POINT ( 'NONE',  ( 0.000000000000000000, 0.000000000000000000, 0.000000000000000000 ) ) ;
#195 = DIMENSIONAL_EXPONENTS ( 1.000000000000000000, 0.000000000000000000, 0.000000000000000000, 0.000000000000000000, 0.000000000000000000, 0.000000000000000000, 0.000000000000000000 ) ;
#196 = SHAPE_DEFINITION_REPRESENTATION ( #190, #210 ) ;
#197 = LINE ( 'NONE', #291, #299 ) ;
#198 = DIMENSIONAL_EXPONENTS ( 1.000000000000000000, 0.000000000000000000, 0.000000000000000000, 0.000000000000000000, 0.000000000000000000, 0.000000000000000000, 0.000000000000000000 ) ;
#199 = VECTOR ( 'NONE', #230, 39.37007874015748143 ) ;
#200 = CYLINDRICAL_SURFACE ( 'NONE', #148, 0.06250000000000001388 ) ;
#201 = FILL_AREA_STYLE ('',( #14 ) ) ;
#202 = CLOSED_SHELL ( 'NONE', ( #26, #43, #286, #169 ) ) ;
#203 = FACE_OUTER_BOUND ( 'NONE', #106, .T. ) ;
#204 = MECHANICAL_DESIGN_GEOMETRIC_PRESENTATION_REPRESENTATION (  '', ( #88 ), #231 ) ;
#205 = MECHANICAL_DESIGN_GEOMETRIC_PRESENTATION_REPRESENTATION (  '', ( #104 ), #192 ) ;
#206 = ADVANCED_FACE ( 'NONE', ( #50 ), #16, .F. ) ;
#207 = VERTEX_POINT ( 'NONE', #72 ) ;
#208 = CARTESIAN_POINT ( 'NONE',  ( 0.000000000000000000, 0.6250000000000000000, 0.000000000000000000 ) ) ;
#209 = AXIS2_PLACEMENT_3D ( 'NONE', #161, #12, #67 ) ;
#210 = ADVANCED_BREP_SHAPE_REPRESENTATION ( '81359', ( #181, #77, #227 ), #108 ) ;
#211 =( LENGTH_UNIT ( ) NAMED_UNIT ( * ) SI_UNIT ( $, .METRE. ) );
#212 = EDGE_LOOP ( 'NONE', ( #66, #31 ) ) ;
#213 = FILL_AREA_STYLE_COLOUR ( '', #264 ) ;
#214 = DIRECTION ( 'NONE',  ( 0.000000000000000000, 0.000000000000000000, -1.000000000000000000 ) ) ;
#215 = DIMENSIONAL_EXPONENTS ( 1.000000000000000000, 0.000000000000000000, 0.000000000000000000, 0.000000000000000000, 0.000000000000000000, 0.000000000000000000, 0.000000000000000000 ) ;
#216 = CLOSED_SHELL ( 'NONE', ( #293, #34, #289, #206 ) ) ;
#217 = PRESENTATION_LAYER_ASSIGNMENT (  '', '', ( #104 ) ) ;
#218 = VERTEX_POINT ( 'NONE', #20 ) ;
#219 = SURFACE_STYLE_FILL_AREA ( #244 ) ;
#220 =( NAMED_UNIT ( * ) SI_UNIT ( $, .STERADIAN. ) SOLID_ANGLE_UNIT ( ) );
#221 = ORIENTED_EDGE ( 'NONE', *, *, #2, .T. ) ;
#222 =( LENGTH_UNIT ( ) NAMED_UNIT ( * ) SI_UNIT ( $, .METRE. ) );
#223 = SURFACE_SIDE_STYLE ('',( #44 ) ) ;
#224 = EDGE_CURVE ( 'NONE', #308, #4, #47, .T. ) ;
#225 = ORIENTED_EDGE ( 'NONE', *, *, #145, .F. ) ;
#226 = DIRECTION ( 'NONE',  ( 1.632862398863137527E-16, 1.000000000000000000, -0.000000000000000000 ) ) ;
#227 = AXIS2_PLACEMENT_3D ( 'NONE', #168, #122, #5 ) ;
#228 = ORIENTED_EDGE ( 'NONE', *, *, #251, .F. ) ;
#229 = FILL_AREA_STYLE_COLOUR ( '', #249 ) ;
#230 = DIRECTION ( 'NONE',  ( -0.000000000000000000, -1.000000000000000000, -0.000000000000000000 ) ) ;
#231 =( GEOMETRIC_REPRESENTATION_CONTEXT ( 3 ) GLOBAL_UNCERTAINTY_ASSIGNED_CONTEXT ( ( #234 ) ) GLOBAL_UNIT_ASSIGNED_CONTEXT ( ( #241, #242, #28 ) ) REPRESENTATION_CONTEXT ( 'NONE', 'WORKASPACE' ) );
#232 = AXIS2_PLACEMENT_3D ( 'NONE', #159, #260, #298 ) ;
#233 = PRODUCT_RELATED_PRODUCT_CATEGORY ( 'part', '', ( #144 ) ) ;
#234 = UNCERTAINTY_MEASURE_WITH_UNIT (LENGTH_MEASURE( 1.000000000000000082E-05 ), #241, 'distance_accuracy_value', 'NONE');
#235 = LINE ( 'NONE', #261, #163 ) ;
#236 =( CONVERSION_BASED_UNIT ( 'INCH', #117 ) LENGTH_UNIT ( ) NAMED_UNIT ( #215 ) );
#237 =( LENGTH_UNIT ( ) NAMED_UNIT ( * ) SI_UNIT ( $, .METRE. ) );
#238 = DIRECTION ( 'NONE',  ( -0.000000000000000000, -1.000000000000000000, -0.000000000000000000 ) ) ;
#239 =( GEOMETRIC_REPRESENTATION_CONTEXT ( 3 ) GLOBAL_UNCERTAINTY_ASSIGNED_CONTEXT ( ( #86 ) ) GLOBAL_UNIT_ASSIGNED_CONTEXT ( ( #98, #306, #109 ) ) REPRESENTATION_CONTEXT ( 'NONE', 'WORKASPACE' ) );
#240 = FILL_AREA_STYLE ('',( #213 ) ) ;
#241 =( CONVERSION_BASED_UNIT ( 'INCH', #143 ) LENGTH_UNIT ( ) NAMED_UNIT ( #195 ) );
#242 =( NAMED_UNIT ( * ) PLANE_ANGLE_UNIT ( ) SI_UNIT ( $, .RADIAN. ) );
#243 = PRODUCT_DEFINITION ( 'UNKNOWN', '', #188, #56 ) ;
#244 = FILL_AREA_STYLE ('',( #54 ) ) ;
#245 = DIRECTION ( 'NONE',  ( 1.632862398863137527E-16, 1.000000000000000000, -0.000000000000000000 ) ) ;
#246 = UNCERTAINTY_MEASURE_WITH_UNIT (LENGTH_MEASURE( 1.000000000000000082E-05 ), #283, 'distance_accuracy_value', 'NONE');
#247 = VERTEX_POINT ( 'NONE', #138 ) ;
#248 = EDGE_CURVE ( 'NONE', #247, #191, #235, .T. ) ;
#249 = COLOUR_RGB ( '',0.7921568627450980005, 0.8196078431372548767, 0.9333333333333333481 ) ;
#250 = SURFACE_STYLE_USAGE ( .BOTH. , #223 ) ;
#251 = EDGE_CURVE ( 'NONE', #218, #247, #292, .T. ) ;
#252 = AXIS2_PLACEMENT_3D ( 'NONE', #162, #238, #113 ) ;
#253 = DIRECTION ( 'NONE',  ( -1.000000000000000000, 0.000000000000000000, 0.000000000000000000 ) ) ;
#254 =( NAMED_UNIT ( * ) SI_UNIT ( $, .STERADIAN. ) SOLID_ANGLE_UNIT ( ) );
#255 = DIRECTION ( 'NONE',  ( 1.632862398863137527E-16, 1.000000000000000000, -0.000000000000000000 ) ) ;
#256 = DIRECTION ( 'NONE',  ( 0.000000000000000000, -1.000000000000000000, -0.000000000000000000 ) ) ;
#257 = CARTESIAN_POINT ( 'NONE',  ( 7.654042494670959086E-18, 0.000000000000000000, 0.06250000000000001388 ) ) ;
#258 = AXIS2_PLACEMENT_3D ( 'NONE', #90, #105, #65 ) ;
#259 = AXIS2_PLACEMENT_3D ( 'NONE', #300, #48, #284 ) ;
#260 = DIRECTION ( 'NONE',  ( 1.632862398863137527E-16, 1.000000000000000000, -0.000000000000000000 ) ) ;
#261 = CARTESIAN_POINT ( 'NONE',  ( 7.654042494670959086E-18, 0.000000000000000000, 0.06250000000000001388 ) ) ;
#262 = APPLICATION_PROTOCOL_DEFINITION ( 'draft international standard', 'automotive_design', 1998, #304 ) ;
#263 =( LENGTH_UNIT ( ) NAMED_UNIT ( * ) SI_UNIT ( $, .METRE. ) );
#264 = COLOUR_RGB ( '',1.000000000000000000, 0.000000000000000000, 0.000000000000000000 ) ;
#265 = ORIENTED_EDGE ( 'NONE', *, *, #80, .T. ) ;
#266 = EDGE_CURVE ( 'NONE', #139, #308, #197, .T. ) ;
#267 = CARTESIAN_POINT ( 'NONE',  ( 8.331998792565876739E-34, 0.6250000000000000000, 0.000000000000000000 ) ) ;
#268 = LINE ( 'NONE', #59, #36 ) ;
#269 = MECHANICAL_DESIGN_GEOMETRIC_PRESENTATION_REPRESENTATION (  '', ( #155 ), #19 ) ;
#270 = ORIENTED_EDGE ( 'NONE', *, *, #9, .T. ) ;
#271 = DIRECTION ( 'NONE',  ( -0.000000000000000000, -1.000000000000000000, -0.000000000000000000 ) ) ;
#272 = LENGTH_MEASURE_WITH_UNIT ( LENGTH_MEASURE( 0.02539999999999999897 ), #222 );
#273 = AXIS2_PLACEMENT_3D ( 'NONE', #52, #301, #253 ) ;
#274 =( NAMED_UNIT ( * ) PLANE_ANGLE_UNIT ( ) SI_UNIT ( $, .RADIAN. ) );
#275 = ORIENTED_EDGE ( 'NONE', *, *, #93, .F. ) ;
#276 = CARTESIAN_POINT ( 'NONE',  ( 0.000000000000000000, 0.6250000000000000000, 0.000000000000000000 ) ) ;
#277 = SURFACE_STYLE_USAGE ( .BOTH. , #182 ) ;
#278 =( GEOMETRIC_REPRESENTATION_CONTEXT ( 3 ) GLOBAL_UNCERTAINTY_ASSIGNED_CONTEXT ( ( #179 ) ) GLOBAL_UNIT_ASSIGNED_CONTEXT ( ( #107, #274, #10 ) ) REPRESENTATION_CONTEXT ( 'NONE', 'WORKASPACE' ) );
#279 = SURFACE_STYLE_FILL_AREA ( #281 ) ;
#280 = CARTESIAN_POINT ( 'NONE',  ( -0.06250000000000001388, 0.6250000000000000000, 0.000000000000000000 ) ) ;
#281 = FILL_AREA_STYLE ('',( #92 ) ) ;
#282 = DIMENSIONAL_EXPONENTS ( 1.000000000000000000, 0.000000000000000000, 0.000000000000000000, 0.000000000000000000, 0.000000000000000000, 0.000000000000000000, 0.000000000000000000 ) ;
#283 =( CONVERSION_BASED_UNIT ( 'INCH', #21 ) LENGTH_UNIT ( ) NAMED_UNIT ( #282 ) );
#284 = DIRECTION ( 'NONE',  ( 1.000000000000000000, -1.632862398863137527E-16, 0.000000000000000000 ) ) ;
#285 =( LENGTH_UNIT ( ) NAMED_UNIT ( * ) SI_UNIT ( $, .METRE. ) );
#286 = ADVANCED_FACE ( 'NONE', ( #32 ), #200, .T. ) ;
#287 =( GEOMETRIC_REPRESENTATION_CONTEXT ( 3 ) GLOBAL_UNCERTAINTY_ASSIGNED_CONTEXT ( ( #87 ) ) GLOBAL_UNIT_ASSIGNED_CONTEXT ( ( #153, #134, #220 ) ) REPRESENTATION_CONTEXT ( 'NONE', 'WORKASPACE' ) );
#288 =( NAMED_UNIT ( * ) SI_UNIT ( $, .STERADIAN. ) SOLID_ANGLE_UNIT ( ) );
#289 = ADVANCED_FACE ( 'NONE', ( #61 ), #125, .T. ) ;
#290 = DIRECTION ( 'NONE',  ( -0.000000000000000000, -1.000000000000000000, -0.000000000000000000 ) ) ;
#291 = CARTESIAN_POINT ( 'NONE',  ( -0.06249999999999955591, 2.500000000000000000, 0.000000000000000000 ) ) ;
#292 = CIRCLE ( 'NONE', #115, 0.06250000000000001388 ) ;
#293 = ADVANCED_FACE ( 'NONE', ( #203 ), #17, .T. ) ;
#294 = CIRCLE ( 'NONE', #53, 0.06250000000000001388 ) ;
#295 = AXIS2_PLACEMENT_3D ( 'NONE', #137, #165, #76 ) ;
#296 = SURFACE_STYLE_FILL_AREA ( #154 ) ;
#297 = COLOUR_RGB ( '',1.000000000000000000, 0.000000000000000000, 0.000000000000000000 ) ;
#298 = DIRECTION ( 'NONE',  ( -1.000000000000000000, 0.000000000000000000, 0.000000000000000000 ) ) ;
#299 = VECTOR ( 'NONE', #84, 39.37007874015748143 ) ;
#300 = CARTESIAN_POINT ( 'NONE',  ( 0.06250000000000001388, 2.500000000000000000, 0.000000000000000000 ) ) ;
#301 = DIRECTION ( 'NONE',  ( 1.632862398863137527E-16, 1.000000000000000000, -0.000000000000000000 ) ) ;
#302 = SURFACE_STYLE_FILL_AREA ( #95 ) ;
#303 = DIRECTION ( 'NONE',  ( 0.000000000000000000, 0.000000000000000000, -1.000000000000000000 ) ) ;
#304 = APPLICATION_CONTEXT ( 'automotive_design' ) ;
#305 = UNCERTAINTY_MEASURE_WITH_UNIT (LENGTH_MEASURE( 1.000000000000000082E-05 ), #236, 'distance_accuracy_value', 'NONE');
#306 =( NAMED_UNIT ( * ) PLANE_ANGLE_UNIT ( ) SI_UNIT ( $, .RADIAN. ) );
#307 = SURFACE_STYLE_FILL_AREA ( #240 ) ;
#308 = VERTEX_POINT ( 'NONE', #51 ) ;
#309 = SURFACE_STYLE_USAGE ( .BOTH. , #142 ) ;
ENDSEC;
END-ISO-10303-21;
