ISO-10303-21;
HEADER;
FILE_DESCRIPTION (( 'STEP AP214' ),
    '1' );
FILE_NAME ('Micro_BEMM-040-3X.STEP',
    '2021-09-03T13:24:45',
    ( '' ),
    ( '' ),
    'SwSTEP 2.0',
    'SolidWorks 2020',
    '' );
FILE_SCHEMA (( 'AUTOMOTIVE_DESIGN' ));
ENDSEC;

DATA;
#1 = LINE ( 'NONE', #191, #74 ) ;
#2 =( CONVERSION_BASED_UNIT ( 'INCH', #7 ) LENGTH_UNIT ( ) NAMED_UNIT ( #228 ) );
#3 = CIRCLE ( 'NONE', #157, 0.07874000000000000443 ) ;
#4 = CARTESIAN_POINT ( 'NONE',  ( 8.678594253305624695E-17, 0.0000000000000000000, 0.7086609999999999854 ) ) ;
#5 = ORIENTED_EDGE ( 'NONE', *, *, #325, .T. ) ;
#6 = EDGE_LOOP ( 'NONE', ( #28, #146, #283, #33 ) ) ;
#7 = LENGTH_MEASURE_WITH_UNIT ( LENGTH_MEASURE( 0.02539999999999999897 ), #229 );
#8 = VERTEX_POINT ( 'NONE', #132 ) ;
#9 = CARTESIAN_POINT ( 'NONE',  ( 9.633226027589770864E-18, 0.0000000000000000000, 0.07866125999999999674 ) ) ;
#10 = EDGE_LOOP ( 'NONE', ( #306, #282 ) ) ;
#11 = CARTESIAN_POINT ( 'NONE',  ( -0.07866125999999989959, 9.633226027589770864E-18, 0.7086609999999999854 ) ) ;
#12 = CARTESIAN_POINT ( 'NONE',  ( 8.678594253305624695E-17, 0.0000000000000000000, 0.7086609999999999854 ) ) ;
#13 = CARTESIAN_POINT ( 'NONE',  ( 0.07874000000000000443, 9.642868896486258509E-18, 1.953504000000000129 ) ) ;
#14 = CARTESIAN_POINT ( 'NONE',  ( 0.06374000000000018540, 7.805898697765251255E-18, 1.968503999999999809 ) ) ;
#15 = DIRECTION ( 'NONE',  ( -1.000000000000000000, 0.0000000000000000000, 1.224646799147352961E-16 ) ) ;
#16 = PRODUCT_DEFINITION ( 'UNKNOWN', '', #64, #32 ) ;
#17 = STYLED_ITEM ( 'NONE', ( #273 ), #181 ) ;
#18 = CARTESIAN_POINT ( 'NONE',  ( 0.07874000000000008770, 9.642868896486269294E-18, 0.7091075567304767624 ) ) ;
#19 = DIRECTION ( 'NONE',  ( 1.000000000000000000, 0.0000000000000000000, 0.0000000000000000000 ) ) ;
#20 = ADVANCED_FACE ( 'NONE', ( #56 ), #162, .T. ) ;
#21 = CARTESIAN_POINT ( 'NONE',  ( 0.0000000000000000000, 0.0000000000000000000, 1.968503999999999809 ) ) ;
#22 = FACE_OUTER_BOUND ( 'NONE', #29, .T. ) ;
#23 = DIMENSIONAL_EXPONENTS ( 1.000000000000000000, 0.0000000000000000000, 0.0000000000000000000, 0.0000000000000000000, 0.0000000000000000000, 0.0000000000000000000, 0.0000000000000000000 ) ;
#24 = FACE_OUTER_BOUND ( 'NONE', #150, .T. ) ;
#25 = AXIS2_PLACEMENT_3D ( 'NONE', #315, #158, #83 ) ;
#26 = AXIS2_PLACEMENT_3D ( 'NONE', #168, #174, #250 ) ;
#27 = ORIENTED_EDGE ( 'NONE', *, *, #223, .F. ) ;
#28 = ORIENTED_EDGE ( 'NONE', *, *, #51, .F. ) ;
#29 = EDGE_LOOP ( 'NONE', ( #178, #175, #121, #210 ) ) ;
#30 = SURFACE_SIDE_STYLE ('',( #249 ) ) ;
#31 =( GEOMETRIC_REPRESENTATION_CONTEXT ( 3 ) GLOBAL_UNCERTAINTY_ASSIGNED_CONTEXT ( ( #285 ) ) GLOBAL_UNIT_ASSIGNED_CONTEXT ( ( #241, #196, #300 ) ) REPRESENTATION_CONTEXT ( 'NONE', 'WORKASPACE' ) );
#32 = PRODUCT_DEFINITION_CONTEXT ( 'detailed design', #305, 'design' ) ;
#33 = ORIENTED_EDGE ( 'NONE', *, *, #96, .F. ) ;
#34 = DIRECTION ( 'NONE',  ( 0.0000000000000000000, 0.0000000000000000000, 1.000000000000000000 ) ) ;
#35 = EDGE_CURVE ( 'NONE', #102, #180, #307, .T. ) ;
#36 = DIRECTION ( 'NONE',  ( -0.0000000000000000000, -0.0000000000000000000, -1.000000000000000000 ) ) ;
#37 = FACE_OUTER_BOUND ( 'NONE', #6, .T. ) ;
#38 = CARTESIAN_POINT ( 'NONE',  ( 0.0000000000000000000, 0.0000000000000000000, 1.953504000000000129 ) ) ;
#39 = CARTESIAN_POINT ( 'NONE',  ( 0.0000000000000000000, 0.0000000000000000000, 1.968503999999999809 ) ) ;
#40 = CONICAL_SURFACE ( 'NONE', #270, 0.06374000000000018540, 0.7853981633974522758 ) ;
#41 = LINE ( 'NONE', #272, #323 ) ;
#42 = SURFACE_STYLE_USAGE ( .BOTH. , #271 ) ;
#43 = DIRECTION ( 'NONE',  ( -1.000000000000000000, 0.0000000000000000000, 2.170579261049422102E-16 ) ) ;
#44 = SPHERICAL_SURFACE ( 'NONE', #231, 0.07866125999999999674 ) ;
#45 = ADVANCED_FACE ( 'NONE', ( #37 ), #57, .T. ) ;
#46 = DIRECTION ( 'NONE',  ( -1.000000000000000000, 1.224646799147352961E-16, 0.0000000000000000000 ) ) ;
#47 = ORIENTED_EDGE ( 'NONE', *, *, #170, .F. ) ;
#48 = AXIS2_PLACEMENT_3D ( 'NONE', #199, #308, #232 ) ;
#49 = CARTESIAN_POINT ( 'NONE',  ( 9.633226027589770864E-18, 0.0000000000000000000, 0.07866125999999999674 ) ) ;
#50 = ORIENTED_EDGE ( 'NONE', *, *, #142, .F. ) ;
#51 = EDGE_CURVE ( 'NONE', #124, #234, #236, .T. ) ;
#52 = ORIENTED_EDGE ( 'NONE', *, *, #226, .T. ) ;
#53 =( LENGTH_UNIT ( ) NAMED_UNIT ( * ) SI_UNIT ( $, .METRE. ) );
#54 = ORIENTED_EDGE ( 'NONE', *, *, #176, .T. ) ;
#55 = EDGE_LOOP ( 'NONE', ( #277, #251, #52, #255 ) ) ;
#56 = FACE_OUTER_BOUND ( 'NONE', #55, .T. ) ;
#57 = CYLINDRICAL_SURFACE ( 'NONE', #182, 0.07874000000000000443 ) ;
#58 = DIRECTION ( 'NONE',  ( -1.224646799147353207E-16, -0.0000000000000000000, -1.000000000000000000 ) ) ;
#59 = CIRCLE ( 'NONE', #120, 0.06374000000000018540 ) ;
#60 = CARTESIAN_POINT ( 'NONE',  ( 1.444983904138465630E-17, 0.0000000000000000000, 0.0000000000000000000 ) ) ;
#61 = CARTESIAN_POINT ( 'NONE',  ( 0.07866126000000008001, 0.0000000000000000000, 0.7086609999999999854 ) ) ;
#62 = CARTESIAN_POINT ( 'NONE',  ( 0.07866126000000008001, 0.0000000000000000000, 0.7086609999999999854 ) ) ;
#63 = AXIS2_PLACEMENT_3D ( 'NONE', #140, #167, #43 ) ;
#64 = PRODUCT_DEFINITION_FORMATION_WITH_SPECIFIED_SOURCE ( 'ANY', '', #90, .NOT_KNOWN. ) ;
#65 = DIRECTION ( 'NONE',  ( 0.1736481776669313581, 0.0000000000000000000, 0.9848077530122077983 ) ) ;
#66 = COLOUR_RGB ( '',0.7921568627450980005, 0.8196078431372548767, 0.9333333333333333481 ) ;
#67 = DIRECTION ( 'NONE',  ( 0.0000000000000000000, 0.0000000000000000000, 1.000000000000000000 ) ) ;
#68 = EDGE_CURVE ( 'NONE', #106, #8, #208, .T. ) ;
#69 =( NAMED_UNIT ( * ) SI_UNIT ( $, .STERADIAN. ) SOLID_ANGLE_UNIT ( ) );
#70 = ORIENTED_EDGE ( 'NONE', *, *, #188, .T. ) ;
#71 =( NAMED_UNIT ( * ) PLANE_ANGLE_UNIT ( ) SI_UNIT ( $, .RADIAN. ) );
#72 = EDGE_LOOP ( 'NONE', ( #304, #260, #172, #258 ) ) ;
#73 = EDGE_CURVE ( 'NONE', #8, #124, #239, .T. ) ;
#74 = VECTOR ( 'NONE', #324, 39.37007874015748143 ) ;
#75 = CYLINDRICAL_SURFACE ( 'NONE', #48, 0.07866125999999999674 ) ;
#76 = MECHANICAL_DESIGN_GEOMETRIC_PRESENTATION_REPRESENTATION (  '', ( #111 ), #247 ) ;
#77 = VERTEX_POINT ( 'NONE', #238 ) ;
#78 = DIRECTION ( 'NONE',  ( 1.000000000000000000, 0.0000000000000000000, 0.0000000000000000000 ) ) ;
#79 = ORIENTED_EDGE ( 'NONE', *, *, #35, .F. ) ;
#80 = LENGTH_MEASURE_WITH_UNIT ( LENGTH_MEASURE( 0.02539999999999999897 ), #53 );
#81 = FACE_OUTER_BOUND ( 'NONE', #72, .T. ) ;
#82 = APPLICATION_CONTEXT ( 'automotive_design' ) ;
#83 = DIRECTION ( 'NONE',  ( -1.000000000000000000, 0.0000000000000000000, 2.170579261049422102E-16 ) ) ;
#84 = CARTESIAN_POINT ( 'NONE',  ( 0.0000000000000000000, 0.0000000000000000000, 0.0000000000000000000 ) ) ;
#85 = CARTESIAN_POINT ( 'NONE',  ( -0.07873999999999992117, 0.0000000000000000000, 0.7091075567304767624 ) ) ;
#86 = SHAPE_DEFINITION_REPRESENTATION ( #138, #284 ) ;
#87 = LINE ( 'NONE', #207, #259 ) ;
#88 = CIRCLE ( 'NONE', #246, 0.07866125999999999674 ) ;
#89 = APPLICATION_PROTOCOL_DEFINITION ( 'draft international standard', 'automotive_design', 1998, #305 ) ;
#90 = PRODUCT ( 'Micro_BEMM-040-3X', 'Micro_BEMM-040-3X', '', ( #263 ) ) ;
#91 = VERTEX_POINT ( 'NONE', #269 ) ;
#92 = LENGTH_MEASURE_WITH_UNIT ( LENGTH_MEASURE( 0.02539999999999999897 ), #117 );
#93 = CARTESIAN_POINT ( 'NONE',  ( 8.684062996011784961E-17, 0.0000000000000000000, 0.7091075567304767624 ) ) ;
#94 = AXIS2_PLACEMENT_3D ( 'NONE', #4, #225, #147 ) ;
#95 = FACE_OUTER_BOUND ( 'NONE', #10, .T. ) ;
#96 = EDGE_CURVE ( 'NONE', #234, #100, #166, .T. ) ;
#97 = LINE ( 'NONE', #62, #98 ) ;
#98 = VECTOR ( 'NONE', #65, 39.37007874015748143 ) ;
#99 =( NAMED_UNIT ( * ) PLANE_ANGLE_UNIT ( ) SI_UNIT ( $, .RADIAN. ) );
#100 = VERTEX_POINT ( 'NONE', #85 ) ;
#101 = APPLICATION_PROTOCOL_DEFINITION ( 'draft international standard', 'automotive_design', 1998, #82 ) ;
#102 = VERTEX_POINT ( 'NONE', #61 ) ;
#103 = PRESENTATION_LAYER_ASSIGNMENT (  '', '', ( #17 ) ) ;
#104 =( NAMED_UNIT ( * ) SI_UNIT ( $, .STERADIAN. ) SOLID_ANGLE_UNIT ( ) );
#105 = ORIENTED_EDGE ( 'NONE', *, *, #128, .F. ) ;
#106 = VERTEX_POINT ( 'NONE', #136 ) ;
#107 = ADVANCED_FACE ( 'NONE', ( #212 ), #292, .T. ) ;
#108 = DIRECTION ( 'NONE',  ( -0.1736481776669311639, 2.126576849575783008E-17, 0.9848077530122080203 ) ) ;
#109 = AXIS2_PLACEMENT_3D ( 'NONE', #254, #126, #177 ) ;
#110 = CARTESIAN_POINT ( 'NONE',  ( 8.678594253305624695E-17, 0.0000000000000000000, 0.7086609999999999854 ) ) ;
#111 = STYLED_ITEM ( 'NONE', ( #281 ), #284 ) ;
#112 = DIRECTION ( 'NONE',  ( -1.224646799147353207E-16, -0.0000000000000000000, -1.000000000000000000 ) ) ;
#113 = DIRECTION ( 'NONE',  ( -1.224646799147353207E-16, -0.0000000000000000000, -1.000000000000000000 ) ) ;
#114 = DIRECTION ( 'NONE',  ( -1.000000000000000000, 0.0000000000000000000, 0.0000000000000000000 ) ) ;
#115 =( GEOMETRIC_REPRESENTATION_CONTEXT ( 3 ) GLOBAL_UNCERTAINTY_ASSIGNED_CONTEXT ( ( #317 ) ) GLOBAL_UNIT_ASSIGNED_CONTEXT ( ( #145, #99, #104 ) ) REPRESENTATION_CONTEXT ( 'NONE', 'WORKASPACE' ) );
#116 = DIRECTION ( 'NONE',  ( 0.0000000000000000000, 0.0000000000000000000, -1.000000000000000000 ) ) ;
#117 =( LENGTH_UNIT ( ) NAMED_UNIT ( * ) SI_UNIT ( $, .METRE. ) );
#118 = PLANE ( 'NONE',  #214 ) ;
#119 = DIRECTION ( 'NONE',  ( 0.0000000000000000000, 0.0000000000000000000, -1.000000000000000000 ) ) ;
#120 = AXIS2_PLACEMENT_3D ( 'NONE', #321, #221, #19 ) ;
#121 = ORIENTED_EDGE ( 'NONE', *, *, #130, .T. ) ;
#122 = EDGE_LOOP ( 'NONE', ( #154, #287, #203, #227 ) ) ;
#123 = SPHERICAL_SURFACE ( 'NONE', #293, 0.07866125999999999674 ) ;
#124 = VERTEX_POINT ( 'NONE', #13 ) ;
#125 = VECTOR ( 'NONE', #262, 39.37007874015748143 ) ;
#126 = DIRECTION ( 'NONE',  ( 0.0000000000000000000, -1.000000000000000000, 0.0000000000000000000 ) ) ;
#127 = VERTEX_POINT ( 'NONE', #184 ) ;
#128 = EDGE_CURVE ( 'NONE', #180, #100, #316, .T. ) ;
#129 = CARTESIAN_POINT ( 'NONE',  ( 0.0000000000000000000, 0.0000000000000000000, 1.968503999999999809 ) ) ;
#130 = EDGE_CURVE ( 'NONE', #180, #127, #87, .T. ) ;
#131 = CIRCLE ( 'NONE', #204, 0.07874000000000000443 ) ;
#132 = CARTESIAN_POINT ( 'NONE',  ( 0.06374000000000018540, 8.724383797125754882E-18, 1.968503999999999809 ) ) ;
#133 = DIRECTION ( 'NONE',  ( 1.000000000000000000, 0.0000000000000000000, 0.0000000000000000000 ) ) ;
#134 = CLOSED_SHELL ( 'NONE', ( #213, #107, #20, #310, #161, #45, #217, #253, #320, #278, #297 ) ) ;
#135 = DIRECTION ( 'NONE',  ( 0.0000000000000000000, 0.0000000000000000000, -1.000000000000000000 ) ) ;
#136 = CARTESIAN_POINT ( 'NONE',  ( -0.06374000000000018540, 0.0000000000000000000, 1.968503999999999809 ) ) ;
#137 = VECTOR ( 'NONE', #108, 39.37007874015747433 ) ;
#138 = PRODUCT_DEFINITION_SHAPE ( 'NONE', 'NONE',  #16 ) ;
#139 = DIRECTION ( 'NONE',  ( -1.224646799147353207E-16, -0.0000000000000000000, -1.000000000000000000 ) ) ;
#140 = CARTESIAN_POINT ( 'NONE',  ( 9.633226027589770864E-18, 0.0000000000000000000, 0.07866125999999999674 ) ) ;
#141 = DIRECTION ( 'NONE',  ( 1.000000000000000000, 0.0000000000000000000, 0.0000000000000000000 ) ) ;
#142 = EDGE_CURVE ( 'NONE', #91, #127, #313, .T. ) ;
#143 = COLOUR_RGB ( '',0.7921568627450980005, 0.8196078431372548767, 0.9333333333333333481 ) ;
#144 = DIRECTION ( 'NONE',  ( 1.000000000000000000, 0.0000000000000000000, -0.0000000000000000000 ) ) ;
#145 =( CONVERSION_BASED_UNIT ( 'INCH', #80 ) LENGTH_UNIT ( ) NAMED_UNIT ( #23 ) );
#146 = ORIENTED_EDGE ( 'NONE', *, *, #235, .T. ) ;
#147 = DIRECTION ( 'NONE',  ( 1.000000000000000000, 0.0000000000000000000, 0.0000000000000000000 ) ) ;
#148 = ORIENTED_EDGE ( 'NONE', *, *, #194, .T. ) ;
#149 = VERTEX_POINT ( 'NONE', #60 ) ;
#150 = EDGE_LOOP ( 'NONE', ( #309, #5, #27 ) ) ;
#151 = UNCERTAINTY_MEASURE_WITH_UNIT (LENGTH_MEASURE( 1.000000000000000082E-05 ), #2, 'distance_accuracy_value', 'NONE');
#152 = AXIS2_PLACEMENT_3D ( 'NONE', #211, #113, #314 ) ;
#153 = DIRECTION ( 'NONE',  ( 1.000000000000000000, 0.0000000000000000000, 0.0000000000000000000 ) ) ;
#154 = ORIENTED_EDGE ( 'NONE', *, *, #73, .F. ) ;
#155 = DIRECTION ( 'NONE',  ( 1.224646799147353207E-16, 0.0000000000000000000, 1.000000000000000000 ) ) ;
#156 = CARTESIAN_POINT ( 'NONE',  ( 0.0000000000000000000, 0.0000000000000000000, 1.968503999999999809 ) ) ;
#157 = AXIS2_PLACEMENT_3D ( 'NONE', #245, #116, #216 ) ;
#158 = DIRECTION ( 'NONE',  ( 1.224646799147353207E-16, 0.0000000000000000000, 1.000000000000000000 ) ) ;
#159 = DIRECTION ( 'NONE',  ( -0.0000000000000000000, -0.0000000000000000000, -1.000000000000000000 ) ) ;
#160 = ORIENTED_EDGE ( 'NONE', *, *, #286, .T. ) ;
#161 = ADVANCED_FACE ( 'NONE', ( #81 ), #291, .T. ) ;
#162 = CONICAL_SURFACE ( 'NONE', #192, 0.07866125999999999674, 0.1745329251994338637 ) ;
#163 = VECTOR ( 'NONE', #248, 39.37007874015748854 ) ;
#164 = FILL_AREA_STYLE ('',( #195 ) ) ;
#165 = DIRECTION ( 'NONE',  ( -0.0000000000000000000, -0.0000000000000000000, -1.000000000000000000 ) ) ;
#166 = CIRCLE ( 'NONE', #152, 0.07874000000000000443 ) ;
#167 = DIRECTION ( 'NONE',  ( 1.224646799147353207E-16, 0.0000000000000000000, 1.000000000000000000 ) ) ;
#168 = CARTESIAN_POINT ( 'NONE',  ( 0.0000000000000000000, 0.0000000000000000000, 1.968503999999999809 ) ) ;
#169 = ORIENTED_EDGE ( 'NONE', *, *, #130, .F. ) ;
#170 = EDGE_CURVE ( 'NONE', #77, #124, #265, .T. ) ;
#171 = FILL_AREA_STYLE_COLOUR ( '', #143 ) ;
#172 = ORIENTED_EDGE ( 'NONE', *, *, #226, .F. ) ;
#173 = AXIS2_PLACEMENT_3D ( 'NONE', #12, #112, #114 ) ;
#174 = DIRECTION ( 'NONE',  ( 0.0000000000000000000, 0.0000000000000000000, -1.000000000000000000 ) ) ;
#175 = ORIENTED_EDGE ( 'NONE', *, *, #35, .T. ) ;
#176 = EDGE_CURVE ( 'NONE', #180, #102, #298, .T. ) ;
#177 = DIRECTION ( 'NONE',  ( 0.0000000000000000000, 0.0000000000000000000, -1.000000000000000000 ) ) ;
#178 = ORIENTED_EDGE ( 'NONE', *, *, #188, .F. ) ;
#179 = SURFACE_STYLE_USAGE ( .BOTH. , #30 ) ;
#180 = VERTEX_POINT ( 'NONE', #222 ) ;
#181 = MANIFOLD_SOLID_BREP ( 'Fillet1', #134 ) ;
#182 = AXIS2_PLACEMENT_3D ( 'NONE', #39, #36, #215 ) ;
#183 = CARTESIAN_POINT ( 'NONE',  ( 0.0000000000000000000, 0.0000000000000000000, 0.0000000000000000000 ) ) ;
#184 = CARTESIAN_POINT ( 'NONE',  ( -0.07866125999999996898, 0.0000000000000000000, 0.07866126000000001062 ) ) ;
#185 = EDGE_LOOP ( 'NONE', ( #105, #79, #148, #319 ) ) ;
#186 = AXIS2_PLACEMENT_3D ( 'NONE', #183, #58, #15 ) ;
#187 = DIRECTION ( 'NONE',  ( -1.224646799147353207E-16, -0.0000000000000000000, -1.000000000000000000 ) ) ;
#188 = EDGE_CURVE ( 'NONE', #102, #91, #1, .T. ) ;
#189 = CARTESIAN_POINT ( 'NONE',  ( 8.678594253305624695E-17, 0.0000000000000000000, 0.7086609999999999854 ) ) ;
#190 = DIRECTION ( 'NONE',  ( 1.000000000000000000, 0.0000000000000000000, 0.0000000000000000000 ) ) ;
#191 = CARTESIAN_POINT ( 'NONE',  ( 0.07866125999999999674, 9.633226027589770864E-18, -9.633226027589770864E-18 ) ) ;
#192 = AXIS2_PLACEMENT_3D ( 'NONE', #189, #155, #294 ) ;
#193 = AXIS2_PLACEMENT_3D ( 'NONE', #84, #290, #153 ) ;
#194 = EDGE_CURVE ( 'NONE', #102, #234, #97, .T. ) ;
#195 = FILL_AREA_STYLE_COLOUR ( '', #66 ) ;
#196 =( NAMED_UNIT ( * ) PLANE_ANGLE_UNIT ( ) SI_UNIT ( $, .RADIAN. ) );
#197 = DIRECTION ( 'NONE',  ( 0.0000000000000000000, 1.000000000000000000, 0.0000000000000000000 ) ) ;
#198 = AXIS2_PLACEMENT_3D ( 'NONE', #156, #34, #133 ) ;
#199 = CARTESIAN_POINT ( 'NONE',  ( 0.0000000000000000000, 0.0000000000000000000, 0.0000000000000000000 ) ) ;
#200 = EDGE_CURVE ( 'NONE', #77, #100, #41, .T. ) ;
#201 = EDGE_LOOP ( 'NONE', ( #54, #70, #202, #169 ) ) ;
#202 = ORIENTED_EDGE ( 'NONE', *, *, #142, .T. ) ;
#203 = ORIENTED_EDGE ( 'NONE', *, *, #274, .T. ) ;
#204 = AXIS2_PLACEMENT_3D ( 'NONE', #93, #139, #141 ) ;
#205 = DIRECTION ( 'NONE',  ( 0.0000000000000000000, 1.000000000000000000, 0.0000000000000000000 ) ) ;
#206 = EDGE_LOOP ( 'NONE', ( #230, #160, #50 ) ) ;
#207 = CARTESIAN_POINT ( 'NONE',  ( -0.07866125999999999674, 0.0000000000000000000, 9.633226027589770864E-18 ) ) ;
#208 = CIRCLE ( 'NONE', #198, 0.06374000000000018540 ) ;
#209 = CIRCLE ( 'NONE', #109, 0.07866125999999999674 ) ;
#210 = ORIENTED_EDGE ( 'NONE', *, *, #223, .T. ) ;
#211 = CARTESIAN_POINT ( 'NONE',  ( 8.684062996011784961E-17, 0.0000000000000000000, 0.7091075567304767624 ) ) ;
#212 = FACE_OUTER_BOUND ( 'NONE', #201, .T. ) ;
#213 = ADVANCED_FACE ( 'NONE', ( #302 ), #44, .T. ) ;
#214 = AXIS2_PLACEMENT_3D ( 'NONE', #218, #67, #144 ) ;
#215 = DIRECTION ( 'NONE',  ( -1.000000000000000000, 0.0000000000000000000, 0.0000000000000000000 ) ) ;
#216 = DIRECTION ( 'NONE',  ( 1.000000000000000000, 0.0000000000000000000, 0.0000000000000000000 ) ) ;
#217 = ADVANCED_FACE ( 'NONE', ( #95 ), #118, .T. ) ;
#218 = CARTESIAN_POINT ( 'NONE',  ( 0.0000000000000000000, 0.0000000000000000000, 1.968503999999999809 ) ) ;
#219 = CONICAL_SURFACE ( 'NONE', #26, 0.06374000000000018540, 0.7853981633974522758 ) ;
#220 = DIMENSIONAL_EXPONENTS ( 1.000000000000000000, 0.0000000000000000000, 0.0000000000000000000, 0.0000000000000000000, 0.0000000000000000000, 0.0000000000000000000, 0.0000000000000000000 ) ;
#221 = DIRECTION ( 'NONE',  ( 0.0000000000000000000, 0.0000000000000000000, 1.000000000000000000 ) ) ;
#222 = CARTESIAN_POINT ( 'NONE',  ( -0.07866125999999989959, 9.638047462038014686E-18, 0.7086609999999999854 ) ) ;
#223 = EDGE_CURVE ( 'NONE', #127, #91, #288, .T. ) ;
#224 = AXIS2_PLACEMENT_3D ( 'NONE', #110, #267, #295 ) ;
#225 = DIRECTION ( 'NONE',  ( 1.224646799147353207E-16, 0.0000000000000000000, 1.000000000000000000 ) ) ;
#226 = EDGE_CURVE ( 'NONE', #100, #234, #131, .T. ) ;
#227 = ORIENTED_EDGE ( 'NONE', *, *, #235, .F. ) ;
#228 = DIMENSIONAL_EXPONENTS ( 1.000000000000000000, 0.0000000000000000000, 0.0000000000000000000, 0.0000000000000000000, 0.0000000000000000000, 0.0000000000000000000, 0.0000000000000000000 ) ;
#229 =( LENGTH_UNIT ( ) NAMED_UNIT ( * ) SI_UNIT ( $, .METRE. ) );
#230 = ORIENTED_EDGE ( 'NONE', *, *, #325, .F. ) ;
#231 = AXIS2_PLACEMENT_3D ( 'NONE', #244, #197, #190 ) ;
#232 = DIRECTION ( 'NONE',  ( -1.000000000000000000, 0.0000000000000000000, 1.224646799147352961E-16 ) ) ;
#233 = ORIENTED_EDGE ( 'NONE', *, *, #266, .F. ) ;
#234 = VERTEX_POINT ( 'NONE', #18 ) ;
#235 = EDGE_CURVE ( 'NONE', #124, #77, #3, .T. ) ;
#236 = LINE ( 'NONE', #312, #125 ) ;
#237 = AXIS2_PLACEMENT_3D ( 'NONE', #38, #135, #240 ) ;
#238 = CARTESIAN_POINT ( 'NONE',  ( -0.07874000000000000443, 0.0000000000000000000, 1.953504000000000129 ) ) ;
#239 = LINE ( 'NONE', #14, #303 ) ;
#240 = DIRECTION ( 'NONE',  ( 1.000000000000000000, 0.0000000000000000000, 0.0000000000000000000 ) ) ;
#241 =( CONVERSION_BASED_UNIT ( 'INCH', #92 ) LENGTH_UNIT ( ) NAMED_UNIT ( #220 ) );
#242 = PRESENTATION_LAYER_ASSIGNMENT (  '', '', ( #111 ) ) ;
#243 = FACE_OUTER_BOUND ( 'NONE', #122, .T. ) ;
#244 = CARTESIAN_POINT ( 'NONE',  ( 9.633226027589770864E-18, 0.0000000000000000000, 0.07866125999999999674 ) ) ;
#245 = CARTESIAN_POINT ( 'NONE',  ( 0.0000000000000000000, 0.0000000000000000000, 1.953504000000000129 ) ) ;
#246 = AXIS2_PLACEMENT_3D ( 'NONE', #49, #256, #46 ) ;
#247 =( GEOMETRIC_REPRESENTATION_CONTEXT ( 3 ) GLOBAL_UNCERTAINTY_ASSIGNED_CONTEXT ( ( #151 ) ) GLOBAL_UNIT_ASSIGNED_CONTEXT ( ( #2, #71, #69 ) ) REPRESENTATION_CONTEXT ( 'NONE', 'WORKASPACE' ) );
#248 = DIRECTION ( 'NONE',  ( -0.7071067811865502373, 0.0000000000000000000, -0.7071067811865446862 ) ) ;
#249 = SURFACE_STYLE_FILL_AREA ( #257 ) ;
#250 = DIRECTION ( 'NONE',  ( -1.000000000000000000, 0.0000000000000000000, 0.0000000000000000000 ) ) ;
#251 = ORIENTED_EDGE ( 'NONE', *, *, #128, .T. ) ;
#252 = CONICAL_SURFACE ( 'NONE', #94, 0.07866125999999999674, 0.1745329251994338637 ) ;
#253 = ADVANCED_FACE ( 'NONE', ( #243 ), #40, .T. ) ;
#254 = CARTESIAN_POINT ( 'NONE',  ( 9.633226027589770864E-18, 0.0000000000000000000, 0.07866125999999999674 ) ) ;
#255 = ORIENTED_EDGE ( 'NONE', *, *, #194, .F. ) ;
#256 = DIRECTION ( 'NONE',  ( 1.224646799147353207E-16, 1.000000000000000000, -0.0000000000000000000 ) ) ;
#257 = FILL_AREA_STYLE ('',( #171 ) ) ;
#258 = ORIENTED_EDGE ( 'NONE', *, *, #200, .F. ) ;
#259 = VECTOR ( 'NONE', #187, 39.37007874015748143 ) ;
#260 = ORIENTED_EDGE ( 'NONE', *, *, #51, .T. ) ;
#261 = PRODUCT_RELATED_PRODUCT_CATEGORY ( 'part', '', ( #90 ) ) ;
#262 = DIRECTION ( 'NONE',  ( -0.0000000000000000000, -0.0000000000000000000, -1.000000000000000000 ) ) ;
#263 = PRODUCT_CONTEXT ( 'NONE', #82, 'mechanical' ) ;
#264 = DIRECTION ( 'NONE',  ( 0.7071067811865502373, 8.659560562354966138E-17, -0.7071067811865446862 ) ) ;
#265 = CIRCLE ( 'NONE', #237, 0.07874000000000000443 ) ;
#266 = EDGE_CURVE ( 'NONE', #8, #106, #59, .T. ) ;
#267 = DIRECTION ( 'NONE',  ( -1.224646799147353207E-16, -0.0000000000000000000, -1.000000000000000000 ) ) ;
#268 = DIRECTION ( 'NONE',  ( -1.000000000000000000, 0.0000000000000000000, 0.0000000000000000000 ) ) ;
#269 = CARTESIAN_POINT ( 'NONE',  ( 0.07866126000000001062, 9.633226027589770864E-18, 0.07866125999999996898 ) ) ;
#270 = AXIS2_PLACEMENT_3D ( 'NONE', #21, #119, #296 ) ;
#271 = SURFACE_SIDE_STYLE ('',( #301 ) ) ;
#272 = CARTESIAN_POINT ( 'NONE',  ( -0.07874000000000000443, 0.0000000000000000000, 1.968503999999999809 ) ) ;
#273 = PRESENTATION_STYLE_ASSIGNMENT (( #42 ) ) ;
#274 = EDGE_CURVE ( 'NONE', #106, #77, #322, .T. ) ;
#275 = MECHANICAL_DESIGN_GEOMETRIC_PRESENTATION_REPRESENTATION (  '', ( #17 ), #31 ) ;
#276 = FACE_OUTER_BOUND ( 'NONE', #185, .T. ) ;
#277 = ORIENTED_EDGE ( 'NONE', *, *, #176, .F. ) ;
#278 = ADVANCED_FACE ( 'NONE', ( #22 ), #75, .T. ) ;
#279 = FACE_OUTER_BOUND ( 'NONE', #311, .T. ) ;
#280 = ORIENTED_EDGE ( 'NONE', *, *, #73, .T. ) ;
#281 = PRESENTATION_STYLE_ASSIGNMENT (( #179 ) ) ;
#282 = ORIENTED_EDGE ( 'NONE', *, *, #266, .T. ) ;
#283 = ORIENTED_EDGE ( 'NONE', *, *, #200, .T. ) ;
#284 = ADVANCED_BREP_SHAPE_REPRESENTATION ( 'Micro_BEMM-040-3X', ( #181, #193 ), #115 ) ;
#285 = UNCERTAINTY_MEASURE_WITH_UNIT (LENGTH_MEASURE( 1.000000000000000082E-05 ), #241, 'distance_accuracy_value', 'NONE');
#286 = EDGE_CURVE ( 'NONE', #149, #127, #88, .T. ) ;
#287 = ORIENTED_EDGE ( 'NONE', *, *, #68, .F. ) ;
#288 = CIRCLE ( 'NONE', #63, 0.07866125999999999674 ) ;
#289 = ORIENTED_EDGE ( 'NONE', *, *, #274, .F. ) ;
#290 = DIRECTION ( 'NONE',  ( 0.0000000000000000000, 0.0000000000000000000, 1.000000000000000000 ) ) ;
#291 = CYLINDRICAL_SURFACE ( 'NONE', #318, 0.07874000000000000443 ) ;
#292 = CYLINDRICAL_SURFACE ( 'NONE', #186, 0.07866125999999999674 ) ;
#293 = AXIS2_PLACEMENT_3D ( 'NONE', #9, #205, #78 ) ;
#294 = DIRECTION ( 'NONE',  ( 1.000000000000000000, 0.0000000000000000000, 0.0000000000000000000 ) ) ;
#295 = DIRECTION ( 'NONE',  ( -1.000000000000000000, 0.0000000000000000000, 0.0000000000000000000 ) ) ;
#296 = DIRECTION ( 'NONE',  ( -1.000000000000000000, 0.0000000000000000000, 0.0000000000000000000 ) ) ;
#297 = ADVANCED_FACE ( 'NONE', ( #24 ), #123, .T. ) ;
#298 = CIRCLE ( 'NONE', #173, 0.07866125999999999674 ) ;
#299 = CARTESIAN_POINT ( 'NONE',  ( -0.06374000000000018540, 0.0000000000000000000, 1.968503999999999809 ) ) ;
#300 =( NAMED_UNIT ( * ) SI_UNIT ( $, .STERADIAN. ) SOLID_ANGLE_UNIT ( ) );
#301 = SURFACE_STYLE_FILL_AREA ( #164 ) ;
#302 = FACE_OUTER_BOUND ( 'NONE', #206, .T. ) ;
#303 = VECTOR ( 'NONE', #264, 39.37007874015748854 ) ;
#304 = ORIENTED_EDGE ( 'NONE', *, *, #170, .T. ) ;
#305 = APPLICATION_CONTEXT ( 'automotive_design' ) ;
#306 = ORIENTED_EDGE ( 'NONE', *, *, #68, .T. ) ;
#307 = CIRCLE ( 'NONE', #224, 0.07866125999999999674 ) ;
#308 = DIRECTION ( 'NONE',  ( -1.224646799147353207E-16, -0.0000000000000000000, -1.000000000000000000 ) ) ;
#309 = ORIENTED_EDGE ( 'NONE', *, *, #286, .F. ) ;
#310 = ADVANCED_FACE ( 'NONE', ( #279 ), #219, .T. ) ;
#311 = EDGE_LOOP ( 'NONE', ( #233, #280, #47, #289 ) ) ;
#312 = CARTESIAN_POINT ( 'NONE',  ( 0.07874000000000000443, 9.642868896486258509E-18, 1.968503999999999809 ) ) ;
#313 = CIRCLE ( 'NONE', #25, 0.07866125999999999674 ) ;
#314 = DIRECTION ( 'NONE',  ( 1.000000000000000000, 0.0000000000000000000, 0.0000000000000000000 ) ) ;
#315 = CARTESIAN_POINT ( 'NONE',  ( 9.633226027589770864E-18, 0.0000000000000000000, 0.07866125999999999674 ) ) ;
#316 = LINE ( 'NONE', #11, #137 ) ;
#317 = UNCERTAINTY_MEASURE_WITH_UNIT (LENGTH_MEASURE( 1.000000000000000082E-05 ), #145, 'distance_accuracy_value', 'NONE');
#318 = AXIS2_PLACEMENT_3D ( 'NONE', #129, #159, #268 ) ;
#319 = ORIENTED_EDGE ( 'NONE', *, *, #96, .T. ) ;
#320 = ADVANCED_FACE ( 'NONE', ( #276 ), #252, .T. ) ;
#321 = CARTESIAN_POINT ( 'NONE',  ( 0.0000000000000000000, 0.0000000000000000000, 1.968503999999999809 ) ) ;
#322 = LINE ( 'NONE', #299, #163 ) ;
#323 = VECTOR ( 'NONE', #165, 39.37007874015748143 ) ;
#324 = DIRECTION ( 'NONE',  ( -1.224646799147353207E-16, -0.0000000000000000000, -1.000000000000000000 ) ) ;
#325 = EDGE_CURVE ( 'NONE', #149, #91, #209, .T. ) ;
ENDSEC;
END-ISO-10303-21;
