ISO-10303-21;
HEADER;
FILE_DESCRIPTION (( 'STEP AP214' ),
    '1' );
FILE_NAME ('17047.STEP',
    '2023-06-30T21:52:04',
    ( '' ),
    ( '' ),
    'SwSTEP 2.0',
    'SolidWorks 2023',
    '' );
FILE_SCHEMA (( 'AUTOMOTIVE_DESIGN' ));
ENDSEC;

DATA;
#1 = DIRECTION ( 'NONE',  ( 0.000000000000000000, 0.000000000000000000, -1.000000000000000000 ) ) ;
#2 = ORIENTED_EDGE ( 'NONE', *, *, #18, .T. ) ;
#3 = CARTESIAN_POINT ( 'NONE',  ( 0.000000000000000000, 0.5000000000000000000, 0.000000000000000000 ) ) ;
#4 = VERTEX_POINT ( 'NONE', #343 ) ;
#5 =( GEOMETRIC_REPRESENTATION_CONTEXT ( 3 ) GLOBAL_UNCERTAINTY_ASSIGNED_CONTEXT ( ( #184 ) ) GLOBAL_UNIT_ASSIGNED_CONTEXT ( ( #79, #116, #120 ) ) REPRESENTATION_CONTEXT ( 'NONE', 'WORKASPACE' ) );
#6 = VECTOR ( 'NONE', #26, 39.37007874015748143 ) ;
#7 = CARTESIAN_POINT ( 'NONE',  ( 0.06249999999999996531, 0.06250000000000001388, 0.000000000000000000 ) ) ;
#8 = LENGTH_MEASURE_WITH_UNIT ( LENGTH_MEASURE( 0.02539999999999999897 ), #193 );
#9 = DIRECTION ( 'NONE',  ( -0.000000000000000000, -1.000000000000000000, -0.000000000000000000 ) ) ;
#10 = AXIS2_PLACEMENT_3D ( 'NONE', #302, #252, #162 ) ;
#11 = FACE_OUTER_BOUND ( 'NONE', #291, .T. ) ;
#12 = EDGE_CURVE ( 'NONE', #88, #152, #86, .T. ) ;
#13 = FILL_AREA_STYLE ('',( #329 ) ) ;
#14 = DIRECTION ( 'NONE',  ( 0.000000000000000000, 0.000000000000000000, -1.000000000000000000 ) ) ;
#15 = LENGTH_MEASURE_WITH_UNIT ( LENGTH_MEASURE( 0.02539999999999999897 ), #243 );
#16 = CARTESIAN_POINT ( 'NONE',  ( -7.654042494670957545E-18, 0.06250000000000001388, 0.000000000000000000 ) ) ;
#17 = MECHANICAL_DESIGN_GEOMETRIC_PRESENTATION_REPRESENTATION (  '', ( #304 ), #331 ) ;
#18 = EDGE_CURVE ( 'NONE', #293, #88, #359, .T. ) ;
#19 = SURFACE_STYLE_FILL_AREA ( #340 ) ;
#20 = CIRCLE ( 'NONE', #290, 0.06249999999999995143 ) ;
#21 = ORIENTED_EDGE ( 'NONE', *, *, #118, .F. ) ;
#22 = UNCERTAINTY_MEASURE_WITH_UNIT (LENGTH_MEASURE( 1.000000000000000082E-05 ), #301, 'distance_accuracy_value', 'NONE');
#23 = SURFACE_SIDE_STYLE ('',( #112 ) ) ;
#24 = CARTESIAN_POINT ( 'NONE',  ( -0.06250000000000005551, 2.500000000000000000, 0.000000000000000000 ) ) ;
#25 = ORIENTED_EDGE ( 'NONE', *, *, #111, .T. ) ;
#26 = DIRECTION ( 'NONE',  ( -1.224646799147352961E-16, 1.000000000000000000, -0.000000000000000000 ) ) ;
#27 = ADVANCED_FACE ( 'NONE', ( #11 ), #357, .T. ) ;
#28 = ORIENTED_EDGE ( 'NONE', *, *, #71, .F. ) ;
#29 = DIRECTION ( 'NONE',  ( 1.000000000000000000, 0.000000000000000000, 0.000000000000000000 ) ) ;
#30 = ORIENTED_EDGE ( 'NONE', *, *, #276, .F. ) ;
#31 =( CONVERSION_BASED_UNIT ( 'INCH', #8 ) LENGTH_UNIT ( ) NAMED_UNIT ( #159 ) );
#32 = CARTESIAN_POINT ( 'NONE',  ( 0.000000000000000000, 0.06250000000000001388, 0.000000000000000000 ) ) ;
#33 =( NAMED_UNIT ( * ) PLANE_ANGLE_UNIT ( ) SI_UNIT ( $, .RADIAN. ) );
#34 = CYLINDRICAL_SURFACE ( 'NONE', #73, 0.06249999999999995143 ) ;
#35 = PRESENTATION_LAYER_ASSIGNMENT (  '', '', ( #92 ) ) ;
#36 = CIRCLE ( 'NONE', #231, 0.06250000000000000000 ) ;
#37 = CARTESIAN_POINT ( 'NONE',  ( 0.000000000000000000, 0.5000000000000000000, -0.06249999999999993755 ) ) ;
#38 = SURFACE_STYLE_USAGE ( .BOTH. , #133 ) ;
#39 = DIRECTION ( 'NONE',  ( -0.000000000000000000, -1.000000000000000000, -0.000000000000000000 ) ) ;
#40 = DIMENSIONAL_EXPONENTS ( 1.000000000000000000, 0.000000000000000000, 0.000000000000000000, 0.000000000000000000, 0.000000000000000000, 0.000000000000000000, 0.000000000000000000 ) ;
#41 = LINE ( 'NONE', #137, #6 ) ;
#42 = AXIS2_PLACEMENT_3D ( 'NONE', #174, #76, #14 ) ;
#43 = COLOUR_RGB ( '',0.7921568627450980005, 0.8196078431372548767, 0.9333333333333333481 ) ;
#44 = FACE_OUTER_BOUND ( 'NONE', #341, .T. ) ;
#45 = DIRECTION ( 'NONE',  ( -1.224646799147352961E-16, 1.000000000000000000, -0.000000000000000000 ) ) ;
#46 = SURFACE_SIDE_STYLE ('',( #277 ) ) ;
#47 =( LENGTH_UNIT ( ) NAMED_UNIT ( * ) SI_UNIT ( $, .METRE. ) );
#48 = DIRECTION ( 'NONE',  ( 1.000000000000000000, 0.000000000000000000, 0.000000000000000000 ) ) ;
#49 = DIRECTION ( 'NONE',  ( -1.224646799147352961E-16, 1.000000000000000000, -0.000000000000000000 ) ) ;
#50 = SHAPE_DEFINITION_REPRESENTATION ( #134, #125 ) ;
#51 = ORIENTED_EDGE ( 'NONE', *, *, #12, .T. ) ;
#52 = SURFACE_STYLE_USAGE ( .BOTH. , #81 ) ;
#53 =( NAMED_UNIT ( * ) SI_UNIT ( $, .STERADIAN. ) SOLID_ANGLE_UNIT ( ) );
#54 = ORIENTED_EDGE ( 'NONE', *, *, #181, .F. ) ;
#55 = UNCERTAINTY_MEASURE_WITH_UNIT (LENGTH_MEASURE( 1.000000000000000082E-05 ), #110, 'distance_accuracy_value', 'NONE');
#56 = EDGE_CURVE ( 'NONE', #346, #192, #78, .T. ) ;
#57 = APPLICATION_PROTOCOL_DEFINITION ( 'draft international standard', 'automotive_design', 1998, #113 ) ;
#58 = ORIENTED_EDGE ( 'NONE', *, *, #276, .T. ) ;
#59 = VERTEX_POINT ( 'NONE', #70 ) ;
#60 = PRESENTATION_LAYER_ASSIGNMENT (  '', '', ( #132 ) ) ;
#61 = FACE_OUTER_BOUND ( 'NONE', #261, .T. ) ;
#62 = DIRECTION ( 'NONE',  ( -1.000000000000000000, 0.000000000000000000, 0.000000000000000000 ) ) ;
#63 = DIMENSIONAL_EXPONENTS ( 1.000000000000000000, 0.000000000000000000, 0.000000000000000000, 0.000000000000000000, 0.000000000000000000, 0.000000000000000000, 0.000000000000000000 ) ;
#64 = ORIENTED_EDGE ( 'NONE', *, *, #71, .T. ) ;
#65 = SURFACE_STYLE_USAGE ( .BOTH. , #352 ) ;
#66 = DIRECTION ( 'NONE',  ( -0.000000000000000000, -1.000000000000000000, -0.000000000000000000 ) ) ;
#67 = LINE ( 'NONE', #258, #320 ) ;
#68 = COLOUR_RGB ( '',1.000000000000000000, 0.000000000000000000, 0.000000000000000000 ) ;
#69 = CARTESIAN_POINT ( 'NONE',  ( -0.06249999999999956285, 0.5000000000000001110, 0.000000000000000000 ) ) ;
#70 = CARTESIAN_POINT ( 'NONE',  ( -0.06249999999999996531, 0.06250000000000001388, 7.654042494670952923E-18 ) ) ;
#71 = EDGE_CURVE ( 'NONE', #152, #154, #339, .T. ) ;
#72 = SURFACE_STYLE_USAGE ( .BOTH. , #257 ) ;
#73 = AXIS2_PLACEMENT_3D ( 'NONE', #226, #9, #326 ) ;
#74 = AXIS2_PLACEMENT_3D ( 'NONE', #219, #128, #62 ) ;
#75 = AXIS2_PLACEMENT_3D ( 'NONE', #98, #197, #303 ) ;
#76 = DIRECTION ( 'NONE',  ( -0.000000000000000000, -1.000000000000000000, -0.000000000000000000 ) ) ;
#77 = CARTESIAN_POINT ( 'NONE',  ( 0.000000000000000000, 0.5000000000000000000, 0.000000000000000000 ) ) ;
#78 = CIRCLE ( 'NONE', #166, 0.06250000000000000000 ) ;
#79 =( CONVERSION_BASED_UNIT ( 'INCH', #15 ) LENGTH_UNIT ( ) NAMED_UNIT ( #163 ) );
#80 = UNCERTAINTY_MEASURE_WITH_UNIT (LENGTH_MEASURE( 1.000000000000000082E-05 ), #201, 'distance_accuracy_value', 'NONE');
#81 = SURFACE_SIDE_STYLE ('',( #19 ) ) ;
#82 =( CONVERSION_BASED_UNIT ( 'INCH', #312 ) LENGTH_UNIT ( ) NAMED_UNIT ( #246 ) );
#83 = ORIENTED_EDGE ( 'NONE', *, *, #99, .T. ) ;
#84 =( GEOMETRIC_REPRESENTATION_CONTEXT ( 3 ) GLOBAL_UNCERTAINTY_ASSIGNED_CONTEXT ( ( #144 ) ) GLOBAL_UNIT_ASSIGNED_CONTEXT ( ( #82, #238, #53 ) ) REPRESENTATION_CONTEXT ( 'NONE', 'WORKASPACE' ) );
#85 = DIRECTION ( 'NONE',  ( 1.000000000000000000, 0.000000000000000000, 0.000000000000000000 ) ) ;
#86 = LINE ( 'NONE', #195, #233 ) ;
#87 = PRESENTATION_STYLE_ASSIGNMENT (( #315 ) ) ;
#88 = VERTEX_POINT ( 'NONE', #37 ) ;
#89 = CARTESIAN_POINT ( 'NONE',  ( -6.123233995736766036E-17, 2.500000000000000000, 0.000000000000000000 ) ) ;
#90 = VERTEX_POINT ( 'NONE', #373 ) ;
#91 = DIMENSIONAL_EXPONENTS ( 1.000000000000000000, 0.000000000000000000, 0.000000000000000000, 0.000000000000000000, 0.000000000000000000, 0.000000000000000000, 0.000000000000000000 ) ;
#92 = STYLED_ITEM ( 'NONE', ( #309 ), #203 ) ;
#93 = AXIS2_PLACEMENT_3D ( 'NONE', #355, #199, #255 ) ;
#94 = LENGTH_MEASURE_WITH_UNIT ( LENGTH_MEASURE( 0.02539999999999999897 ), #130 );
#95 = MECHANICAL_DESIGN_GEOMETRIC_PRESENTATION_REPRESENTATION (  '', ( #164 ), #250 ) ;
#96 = DIRECTION ( 'NONE',  ( 0.000000000000000000, 0.000000000000000000, -1.000000000000000000 ) ) ;
#97 = EDGE_CURVE ( 'NONE', #293, #349, #135, .T. ) ;
#98 = CARTESIAN_POINT ( 'NONE',  ( 0.06249999999999993755, 2.500000000000000000, 0.000000000000000000 ) ) ;
#99 = EDGE_CURVE ( 'NONE', #267, #4, #148, .T. ) ;
#100 =( NAMED_UNIT ( * ) PLANE_ANGLE_UNIT ( ) SI_UNIT ( $, .RADIAN. ) );
#101 =( GEOMETRIC_REPRESENTATION_CONTEXT ( 3 ) GLOBAL_UNCERTAINTY_ASSIGNED_CONTEXT ( ( #363 ) ) GLOBAL_UNIT_ASSIGNED_CONTEXT ( ( #31, #100, #244 ) ) REPRESENTATION_CONTEXT ( 'NONE', 'WORKASPACE' ) );
#102 = CIRCLE ( 'NONE', #93, 0.06249999999999997918 ) ;
#103 = CIRCLE ( 'NONE', #354, 0.06249999999999975020 ) ;
#104 = DIRECTION ( 'NONE',  ( 0.000000000000000000, -0.000000000000000000, 1.000000000000000000 ) ) ;
#105 = DIRECTION ( 'NONE',  ( -0.000000000000000000, -1.000000000000000000, -0.000000000000000000 ) ) ;
#106 = EDGE_CURVE ( 'NONE', #4, #267, #103, .T. ) ;
#107 = FILL_AREA_STYLE_COLOUR ( '', #278 ) ;
#108 = STYLED_ITEM ( 'NONE', ( #150 ), #225 ) ;
#109 = FILL_AREA_STYLE ('',( #335 ) ) ;
#110 =( CONVERSION_BASED_UNIT ( 'INCH', #176 ) LENGTH_UNIT ( ) NAMED_UNIT ( #307 ) );
#111 = EDGE_CURVE ( 'NONE', #349, #59, #20, .T. ) ;
#112 = SURFACE_STYLE_FILL_AREA ( #292 ) ;
#113 = APPLICATION_CONTEXT ( 'automotive_design' ) ;
#114 = MECHANICAL_DESIGN_GEOMETRIC_PRESENTATION_REPRESENTATION (  '', ( #132 ), #101 ) ;
#115 = AXIS2_PLACEMENT_3D ( 'NONE', #296, #143, #208 ) ;
#116 =( NAMED_UNIT ( * ) PLANE_ANGLE_UNIT ( ) SI_UNIT ( $, .RADIAN. ) );
#117 = SURFACE_STYLE_USAGE ( .BOTH. , #314 ) ;
#118 = EDGE_CURVE ( 'NONE', #88, #293, #185, .T. ) ;
#119 = ORIENTED_EDGE ( 'NONE', *, *, #173, .T. ) ;
#120 =( NAMED_UNIT ( * ) SI_UNIT ( $, .STERADIAN. ) SOLID_ANGLE_UNIT ( ) );
#121 = DIRECTION ( 'NONE',  ( 0.000000000000000000, 0.000000000000000000, 1.000000000000000000 ) ) ;
#122 = MECHANICAL_DESIGN_GEOMETRIC_PRESENTATION_REPRESENTATION (  '', ( #182 ), #5 ) ;
#123 = EDGE_LOOP ( 'NONE', ( #25, #58, #245, #131 ) ) ;
#124 = PRODUCT_DEFINITION_FORMATION_WITH_SPECIFIED_SOURCE ( 'ANY', '', #328, .NOT_KNOWN. ) ;
#125 = ADVANCED_BREP_SHAPE_REPRESENTATION ( '17047', ( #234, #225, #325 ), #84 ) ;
#126 = ORIENTED_EDGE ( 'NONE', *, *, #300, .F. ) ;
#127 = PRESENTATION_STYLE_ASSIGNMENT (( #38 ) ) ;
#128 = DIRECTION ( 'NONE',  ( -1.224646799147352961E-16, 1.000000000000000000, -0.000000000000000000 ) ) ;
#129 = ORIENTED_EDGE ( 'NONE', *, *, #181, .T. ) ;
#130 =( LENGTH_UNIT ( ) NAMED_UNIT ( * ) SI_UNIT ( $, .METRE. ) );
#131 = ORIENTED_EDGE ( 'NONE', *, *, #334, .T. ) ;
#132 = STYLED_ITEM ( 'NONE', ( #127 ), #247 ) ;
#133 = SURFACE_SIDE_STYLE ('',( #275 ) ) ;
#134 = PRODUCT_DEFINITION_SHAPE ( 'NONE', 'NONE',  #311 ) ;
#135 = LINE ( 'NONE', #196, #342 ) ;
#136 = EDGE_CURVE ( 'NONE', #154, #90, #146, .T. ) ;
#137 = CARTESIAN_POINT ( 'NONE',  ( -0.06249999999999993755, 2.500000000000000000, 0.000000000000000000 ) ) ;
#138 =( NAMED_UNIT ( * ) PLANE_ANGLE_UNIT ( ) SI_UNIT ( $, .RADIAN. ) );
#139 = FILL_AREA_STYLE ('',( #107 ) ) ;
#140 = DIRECTION ( 'NONE',  ( 0.000000000000000000, 0.000000000000000000, -1.000000000000000000 ) ) ;
#141 = SURFACE_STYLE_USAGE ( .BOTH. , #46 ) ;
#142 =( CONVERSION_BASED_UNIT ( 'INCH', #189 ) LENGTH_UNIT ( ) NAMED_UNIT ( #332 ) );
#143 = DIRECTION ( 'NONE',  ( -0.000000000000000000, -1.000000000000000000, -0.000000000000000000 ) ) ;
#144 = UNCERTAINTY_MEASURE_WITH_UNIT (LENGTH_MEASURE( 1.000000000000000082E-05 ), #82, 'distance_accuracy_value', 'NONE');
#145 =( LENGTH_UNIT ( ) NAMED_UNIT ( * ) SI_UNIT ( $, .METRE. ) );
#146 = CIRCLE ( 'NONE', #10, 0.06249999999999997918 ) ;
#147 = CLOSED_SHELL ( 'NONE', ( #27, #351, #222, #242 ) ) ;
#148 = CIRCLE ( 'NONE', #74, 0.06249999999999975020 ) ;
#149 = AXIS2_PLACEMENT_3D ( 'NONE', #77, #356, #104 ) ;
#150 = PRESENTATION_STYLE_ASSIGNMENT (( #52 ) ) ;
#151 = APPLICATION_PROTOCOL_DEFINITION ( 'draft international standard', 'automotive_design', 1998, #202 ) ;
#152 = VERTEX_POINT ( 'NONE', #271 ) ;
#153 = DIRECTION ( 'NONE',  ( -1.000000000000000000, 0.000000000000000000, 0.000000000000000000 ) ) ;
#154 = VERTEX_POINT ( 'NONE', #7 ) ;
#155 = PRESENTATION_STYLE_ASSIGNMENT (( #65 ) ) ;
#156 = ORIENTED_EDGE ( 'NONE', *, *, #12, .F. ) ;
#157 = SURFACE_STYLE_FILL_AREA ( #167 ) ;
#158 = DIRECTION ( 'NONE',  ( -0.000000000000000000, -1.000000000000000000, -0.000000000000000000 ) ) ;
#159 = DIMENSIONAL_EXPONENTS ( 1.000000000000000000, 0.000000000000000000, 0.000000000000000000, 0.000000000000000000, 0.000000000000000000, 0.000000000000000000, 0.000000000000000000 ) ;
#160 = CARTESIAN_POINT ( 'NONE',  ( 0.000000000000000000, 0.5000000000000000000, 0.000000000000000000 ) ) ;
#161 = DIRECTION ( 'NONE',  ( 0.000000000000000000, 0.000000000000000000, 1.000000000000000000 ) ) ;
#162 = DIRECTION ( 'NONE',  ( -1.000000000000000000, 0.000000000000000000, 0.000000000000000000 ) ) ;
#163 = DIMENSIONAL_EXPONENTS ( 1.000000000000000000, 0.000000000000000000, 0.000000000000000000, 0.000000000000000000, 0.000000000000000000, 0.000000000000000000, 0.000000000000000000 ) ;
#164 = STYLED_ITEM ( 'NONE', ( #155 ), #234 ) ;
#165 = FILL_AREA_STYLE ('',( #266 ) ) ;
#166 = AXIS2_PLACEMENT_3D ( 'NONE', #89, #327, #254 ) ;
#167 = FILL_AREA_STYLE ('',( #251 ) ) ;
#168 = DIRECTION ( 'NONE',  ( -1.000000000000000000, 0.000000000000000000, 0.000000000000000000 ) ) ;
#169 = CARTESIAN_POINT ( 'NONE',  ( 7.654042494670949841E-18, 0.5000000000000000000, 0.06249999999999993755 ) ) ;
#170 = FACE_OUTER_BOUND ( 'NONE', #213, .T. ) ;
#171 = PRESENTATION_LAYER_ASSIGNMENT (  '', '', ( #108 ) ) ;
#172 = PLANE ( 'NONE',  #149 ) ;
#173 = EDGE_CURVE ( 'NONE', #4, #192, #67, .T. ) ;
#174 = CARTESIAN_POINT ( 'NONE',  ( 0.000000000000000000, 0.000000000000000000, 0.000000000000000000 ) ) ;
#175 = SURFACE_STYLE_FILL_AREA ( #139 ) ;
#176 = LENGTH_MEASURE_WITH_UNIT ( LENGTH_MEASURE( 0.02539999999999999897 ), #360 );
#177 = PRESENTATION_LAYER_ASSIGNMENT (  '', '', ( #348 ) ) ;
#178 = ADVANCED_FACE ( 'NONE', ( #235 ), #308, .T. ) ;
#179 = AXIS2_PLACEMENT_3D ( 'NONE', #160, #249, #1 ) ;
#180 = PRODUCT_CONTEXT ( 'NONE', #202, 'mechanical' ) ;
#181 = EDGE_CURVE ( 'NONE', #59, #152, #212, .T. ) ;
#182 = STYLED_ITEM ( 'NONE', ( #262 ), #217 ) ;
#183 = ORIENTED_EDGE ( 'NONE', *, *, #106, .F. ) ;
#184 = UNCERTAINTY_MEASURE_WITH_UNIT (LENGTH_MEASURE( 1.000000000000000082E-05 ), #79, 'distance_accuracy_value', 'NONE');
#185 = CIRCLE ( 'NONE', #285, 0.06249999999999993755 ) ;
#186 = PLANE ( 'NONE',  #75 ) ;
#187 = PLANE ( 'NONE',  #287 ) ;
#188 = ORIENTED_EDGE ( 'NONE', *, *, #111, .F. ) ;
#189 = LENGTH_MEASURE_WITH_UNIT ( LENGTH_MEASURE( 0.02539999999999999897 ), #237 );
#190 = ORIENTED_EDGE ( 'NONE', *, *, #306, .F. ) ;
#191 = AXIS2_PLACEMENT_3D ( 'NONE', #268, #161, #29 ) ;
#192 = VERTEX_POINT ( 'NONE', #330 ) ;
#193 =( LENGTH_UNIT ( ) NAMED_UNIT ( * ) SI_UNIT ( $, .METRE. ) );
#194 = DIRECTION ( 'NONE',  ( -1.224646799147352961E-16, 1.000000000000000000, -0.000000000000000000 ) ) ;
#195 = CARTESIAN_POINT ( 'NONE',  ( 0.000000000000000000, 0.000000000000000000, -0.06249999999999995143 ) ) ;
#196 = CARTESIAN_POINT ( 'NONE',  ( 7.654042494670951382E-18, 0.000000000000000000, 0.06249999999999995143 ) ) ;
#197 = DIRECTION ( 'NONE',  ( 1.224646799147352961E-16, -1.000000000000000000, 0.000000000000000000 ) ) ;
#198 = CLOSED_SHELL ( 'NONE', ( #228, #247, #203, #178, #217 ) ) ;
#199 = DIRECTION ( 'NONE',  ( 1.224646799147353207E-16, -0.000000000000000000, 1.000000000000000000 ) ) ;
#200 = DIRECTION ( 'NONE',  ( 0.000000000000000000, 0.000000000000000000, -1.000000000000000000 ) ) ;
#201 =( CONVERSION_BASED_UNIT ( 'INCH', #205 ) LENGTH_UNIT ( ) NAMED_UNIT ( #40 ) );
#202 = APPLICATION_CONTEXT ( 'automotive_design' ) ;
#203 = ADVANCED_FACE ( 'NONE', ( #170 ), #172, .T. ) ;
#204 = COLOUR_RGB ( '',1.000000000000000000, 0.000000000000000000, 0.000000000000000000 ) ;
#205 = LENGTH_MEASURE_WITH_UNIT ( LENGTH_MEASURE( 0.02539999999999999897 ), #333 );
#206 =( NAMED_UNIT ( * ) SI_UNIT ( $, .STERADIAN. ) SOLID_ANGLE_UNIT ( ) );
#207 = DIRECTION ( 'NONE',  ( 0.000000000000000000, 0.000000000000000000, 1.000000000000000000 ) ) ;
#208 = DIRECTION ( 'NONE',  ( 0.000000000000000000, 0.000000000000000000, -1.000000000000000000 ) ) ;
#209 =( NAMED_UNIT ( * ) SI_UNIT ( $, .STERADIAN. ) SOLID_ANGLE_UNIT ( ) );
#210 = EDGE_LOOP ( 'NONE', ( #218, #318, #298, #28, #156 ) ) ;
#211 = CARTESIAN_POINT ( 'NONE',  ( -6.123233995736766036E-17, 2.500000000000000000, 0.000000000000000000 ) ) ;
#212 = CIRCLE ( 'NONE', #220, 0.06249999999999995143 ) ;
#213 = EDGE_LOOP ( 'NONE', ( #21, #372 ) ) ;
#214 = UNCERTAINTY_MEASURE_WITH_UNIT (LENGTH_MEASURE( 1.000000000000000082E-05 ), #142, 'distance_accuracy_value', 'NONE');
#215 = CYLINDRICAL_SURFACE ( 'NONE', #324, 0.06249999999999988204 ) ;
#216 = DIRECTION ( 'NONE',  ( -0.000000000000000000, -1.000000000000000000, -0.000000000000000000 ) ) ;
#217 = ADVANCED_FACE ( 'NONE', ( #44 ), #283, .T. ) ;
#218 = ORIENTED_EDGE ( 'NONE', *, *, #118, .T. ) ;
#219 = CARTESIAN_POINT ( 'NONE',  ( 1.836970198721029194E-16, 0.5000000000000001110, 0.000000000000000000 ) ) ;
#220 = AXIS2_PLACEMENT_3D ( 'NONE', #229, #105, #140 ) ;
#221 = ORIENTED_EDGE ( 'NONE', *, *, #56, .T. ) ;
#222 = ADVANCED_FACE ( 'NONE', ( #227 ), #215, .T. ) ;
#223 =( NAMED_UNIT ( * ) SI_UNIT ( $, .STERADIAN. ) SOLID_ANGLE_UNIT ( ) );
#224 = CARTESIAN_POINT ( 'NONE',  ( 1.836970198721029194E-16, 0.5000000000000001110, 0.000000000000000000 ) ) ;
#225 = MANIFOLD_SOLID_BREP ( 'Revolve - Tool Body (Straight Shanked)', #147 ) ;
#226 = CARTESIAN_POINT ( 'NONE',  ( 0.000000000000000000, 0.000000000000000000, 0.000000000000000000 ) ) ;
#227 = FACE_OUTER_BOUND ( 'NONE', #241, .T. ) ;
#228 = ADVANCED_FACE ( 'NONE', ( #361 ), #319, .T. ) ;
#229 = CARTESIAN_POINT ( 'NONE',  ( 0.000000000000000000, 0.06250000000000001388, 0.000000000000000000 ) ) ;
#230 = MECHANICAL_DESIGN_GEOMETRIC_PRESENTATION_REPRESENTATION (  '', ( #108 ), #272 ) ;
#231 = AXIS2_PLACEMENT_3D ( 'NONE', #288, #265, #153 ) ;
#232 = PRESENTATION_STYLE_ASSIGNMENT (( #72 ) ) ;
#233 = VECTOR ( 'NONE', #216, 39.37007874015748143 ) ;
#234 = MANIFOLD_SOLID_BREP ( 'Revolve - Cutting Edge', #198 ) ;
#235 = FACE_OUTER_BOUND ( 'NONE', #240, .T. ) ;
#236 = PRESENTATION_LAYER_ASSIGNMENT (  '', '', ( #164 ) ) ;
#237 =( LENGTH_UNIT ( ) NAMED_UNIT ( * ) SI_UNIT ( $, .METRE. ) );
#238 =( NAMED_UNIT ( * ) PLANE_ANGLE_UNIT ( ) SI_UNIT ( $, .RADIAN. ) );
#239 = FACE_OUTER_BOUND ( 'NONE', #321, .T. ) ;
#240 = EDGE_LOOP ( 'NONE', ( #263, #2, #51, #54, #188 ) ) ;
#241 = EDGE_LOOP ( 'NONE', ( #367, #345, #299, #190 ) ) ;
#242 = ADVANCED_FACE ( 'NONE', ( #61 ), #186, .F. ) ;
#243 =( LENGTH_UNIT ( ) NAMED_UNIT ( * ) SI_UNIT ( $, .METRE. ) );
#244 =( NAMED_UNIT ( * ) SI_UNIT ( $, .STERADIAN. ) SOLID_ANGLE_UNIT ( ) );
#245 = ORIENTED_EDGE ( 'NONE', *, *, #136, .F. ) ;
#246 = DIMENSIONAL_EXPONENTS ( 1.000000000000000000, 0.000000000000000000, 0.000000000000000000, 0.000000000000000000, 0.000000000000000000, 0.000000000000000000, 0.000000000000000000 ) ;
#247 = ADVANCED_FACE ( 'NONE', ( #353 ), #34, .T. ) ;
#248 = MECHANICAL_DESIGN_GEOMETRIC_PRESENTATION_REPRESENTATION (  '', ( #348 ), #264 ) ;
#249 = DIRECTION ( 'NONE',  ( -0.000000000000000000, -1.000000000000000000, -0.000000000000000000 ) ) ;
#250 =( GEOMETRIC_REPRESENTATION_CONTEXT ( 3 ) GLOBAL_UNCERTAINTY_ASSIGNED_CONTEXT ( ( #22 ) ) GLOBAL_UNIT_ASSIGNED_CONTEXT ( ( #301, #33, #223 ) ) REPRESENTATION_CONTEXT ( 'NONE', 'WORKASPACE' ) );
#251 = FILL_AREA_STYLE_COLOUR ( '', #260 ) ;
#252 = DIRECTION ( 'NONE',  ( 0.000000000000000000, 0.000000000000000000, -1.000000000000000000 ) ) ;
#253 = LENGTH_MEASURE_WITH_UNIT ( LENGTH_MEASURE( 0.02539999999999999897 ), #47 );
#254 = DIRECTION ( 'NONE',  ( -1.000000000000000000, 0.000000000000000000, 0.000000000000000000 ) ) ;
#255 = DIRECTION ( 'NONE',  ( 1.000000000000000000, 0.000000000000000000, -1.224646799147353454E-16 ) ) ;
#256 = AXIS2_PLACEMENT_3D ( 'NONE', #274, #66, #200 ) ;
#257 = SURFACE_SIDE_STYLE ('',( #175 ) ) ;
#258 = CARTESIAN_POINT ( 'NONE',  ( 0.06249999999999981959, 2.500000000000000000, 7.654042494670943678E-18 ) ) ;
#259 = COLOUR_RGB ( '',1.000000000000000000, 0.000000000000000000, 0.000000000000000000 ) ;
#260 = COLOUR_RGB ( '',0.7921568627450980005, 0.8196078431372548767, 0.9333333333333333481 ) ;
#261 = EDGE_LOOP ( 'NONE', ( #221, #317 ) ) ;
#262 = PRESENTATION_STYLE_ASSIGNMENT (( #117 ) ) ;
#263 = ORIENTED_EDGE ( 'NONE', *, *, #97, .F. ) ;
#264 =( GEOMETRIC_REPRESENTATION_CONTEXT ( 3 ) GLOBAL_UNCERTAINTY_ASSIGNED_CONTEXT ( ( #294 ) ) GLOBAL_UNIT_ASSIGNED_CONTEXT ( ( #305, #322, #273 ) ) REPRESENTATION_CONTEXT ( 'NONE', 'WORKASPACE' ) );
#265 = DIRECTION ( 'NONE',  ( -1.224646799147352961E-16, 1.000000000000000000, -0.000000000000000000 ) ) ;
#266 = FILL_AREA_STYLE_COLOUR ( '', #289 ) ;
#267 = VERTEX_POINT ( 'NONE', #69 ) ;
#268 = CARTESIAN_POINT ( 'NONE',  ( -7.654042494670957545E-18, 0.06250000000000001388, 0.000000000000000000 ) ) ;
#269 = DIRECTION ( 'NONE',  ( 0.000000000000000000, 0.000000000000000000, -1.000000000000000000 ) ) ;
#270 = ORIENTED_EDGE ( 'NONE', *, *, #56, .F. ) ;
#271 = CARTESIAN_POINT ( 'NONE',  ( 0.000000000000000000, 0.06250000000000001388, -0.06249999999999995143 ) ) ;
#272 =( GEOMETRIC_REPRESENTATION_CONTEXT ( 3 ) GLOBAL_UNCERTAINTY_ASSIGNED_CONTEXT ( ( #214 ) ) GLOBAL_UNIT_ASSIGNED_CONTEXT ( ( #142, #295, #209 ) ) REPRESENTATION_CONTEXT ( 'NONE', 'WORKASPACE' ) );
#273 =( NAMED_UNIT ( * ) SI_UNIT ( $, .STERADIAN. ) SOLID_ANGLE_UNIT ( ) );
#274 = CARTESIAN_POINT ( 'NONE',  ( 0.000000000000000000, 0.06250000000000001388, 0.000000000000000000 ) ) ;
#275 = SURFACE_STYLE_FILL_AREA ( #165 ) ;
#276 = EDGE_CURVE ( 'NONE', #59, #90, #102, .T. ) ;
#277 = SURFACE_STYLE_FILL_AREA ( #109 ) ;
#278 = COLOUR_RGB ( '',1.000000000000000000, 0.000000000000000000, 0.000000000000000000 ) ;
#279 =( NAMED_UNIT ( * ) PLANE_ANGLE_UNIT ( ) SI_UNIT ( $, .RADIAN. ) );
#280 = PRODUCT_RELATED_PRODUCT_CATEGORY ( 'part', '', ( #328 ) ) ;
#281 =( GEOMETRIC_REPRESENTATION_CONTEXT ( 3 ) GLOBAL_UNCERTAINTY_ASSIGNED_CONTEXT ( ( #55 ) ) GLOBAL_UNIT_ASSIGNED_CONTEXT ( ( #110, #138, #206 ) ) REPRESENTATION_CONTEXT ( 'NONE', 'WORKASPACE' ) );
#282 =( NAMED_UNIT ( * ) SI_UNIT ( $, .STERADIAN. ) SOLID_ANGLE_UNIT ( ) );
#283 = SPHERICAL_SURFACE ( 'NONE', #370, 0.06249999999999997918 ) ;
#284 = DIRECTION ( 'NONE',  ( -1.224646799147352961E-16, 1.000000000000000000, 0.000000000000000000 ) ) ;
#285 = AXIS2_PLACEMENT_3D ( 'NONE', #3, #347, #96 ) ;
#286 = MECHANICAL_DESIGN_GEOMETRIC_PRESENTATION_REPRESENTATION (  '', ( #92 ), #281 ) ;
#287 = AXIS2_PLACEMENT_3D ( 'NONE', #316, #284, #371 ) ;
#288 = CARTESIAN_POINT ( 'NONE',  ( -6.123233995736766036E-17, 2.500000000000000000, 0.000000000000000000 ) ) ;
#289 = COLOUR_RGB ( '',1.000000000000000000, 0.000000000000000000, 0.000000000000000000 ) ;
#290 = AXIS2_PLACEMENT_3D ( 'NONE', #32, #158, #269 ) ;
#291 = EDGE_LOOP ( 'NONE', ( #83, #119, #270, #126 ) ) ;
#292 = FILL_AREA_STYLE ('',( #344 ) ) ;
#293 = VERTEX_POINT ( 'NONE', #169 ) ;
#294 = UNCERTAINTY_MEASURE_WITH_UNIT (LENGTH_MEASURE( 1.000000000000000082E-05 ), #305, 'distance_accuracy_value', 'NONE');
#295 =( NAMED_UNIT ( * ) PLANE_ANGLE_UNIT ( ) SI_UNIT ( $, .RADIAN. ) );
#296 = CARTESIAN_POINT ( 'NONE',  ( 0.000000000000000000, 0.06250000000000001388, 0.000000000000000000 ) ) ;
#297 = ORIENTED_EDGE ( 'NONE', *, *, #99, .F. ) ;
#298 = ORIENTED_EDGE ( 'NONE', *, *, #334, .F. ) ;
#299 = ORIENTED_EDGE ( 'NONE', *, *, #300, .T. ) ;
#300 = EDGE_CURVE ( 'NONE', #267, #346, #41, .T. ) ;
#301 =( CONVERSION_BASED_UNIT ( 'INCH', #94 ) LENGTH_UNIT ( ) NAMED_UNIT ( #91 ) );
#302 = CARTESIAN_POINT ( 'NONE',  ( -7.654042494670957545E-18, 0.06250000000000001388, 0.000000000000000000 ) ) ;
#303 = DIRECTION ( 'NONE',  ( 1.000000000000000000, 1.224646799147352961E-16, 0.000000000000000000 ) ) ;
#304 = STYLED_ITEM ( 'NONE', ( #232 ), #178 ) ;
#305 =( CONVERSION_BASED_UNIT ( 'INCH', #253 ) LENGTH_UNIT ( ) NAMED_UNIT ( #63 ) );
#306 = EDGE_CURVE ( 'NONE', #192, #346, #36, .T. ) ;
#307 = DIMENSIONAL_EXPONENTS ( 1.000000000000000000, 0.000000000000000000, 0.000000000000000000, 0.000000000000000000, 0.000000000000000000, 0.000000000000000000, 0.000000000000000000 ) ;
#308 = CYLINDRICAL_SURFACE ( 'NONE', #42, 0.06249999999999995143 ) ;
#309 = PRESENTATION_STYLE_ASSIGNMENT (( #141 ) ) ;
#310 = AXIS2_PLACEMENT_3D ( 'NONE', #338, #350, #323 ) ;
#311 = PRODUCT_DEFINITION ( 'UNKNOWN', '', #124, #336 ) ;
#312 = LENGTH_MEASURE_WITH_UNIT ( LENGTH_MEASURE( 0.02539999999999999897 ), #145 );
#313 = ORIENTED_EDGE ( 'NONE', *, *, #136, .T. ) ;
#314 = SURFACE_SIDE_STYLE ('',( #365 ) ) ;
#315 = SURFACE_STYLE_USAGE ( .BOTH. , #23 ) ;
#316 = CARTESIAN_POINT ( 'NONE',  ( 1.836970198721029441E-16, 0.5000000000000000000, 0.000000000000000000 ) ) ;
#317 = ORIENTED_EDGE ( 'NONE', *, *, #306, .T. ) ;
#318 = ORIENTED_EDGE ( 'NONE', *, *, #97, .T. ) ;
#319 = SPHERICAL_SURFACE ( 'NONE', #191, 0.06249999999999997918 ) ;
#320 = VECTOR ( 'NONE', #45, 39.37007874015748143 ) ;
#321 = EDGE_LOOP ( 'NONE', ( #297, #183 ) ) ;
#322 =( NAMED_UNIT ( * ) PLANE_ANGLE_UNIT ( ) SI_UNIT ( $, .RADIAN. ) );
#323 = DIRECTION ( 'NONE',  ( -1.000000000000000000, 0.000000000000000000, 0.000000000000000000 ) ) ;
#324 = AXIS2_PLACEMENT_3D ( 'NONE', #211, #49, #337 ) ;
#325 = AXIS2_PLACEMENT_3D ( 'NONE', #369, #121, #48 ) ;
#326 = DIRECTION ( 'NONE',  ( 0.000000000000000000, 0.000000000000000000, -1.000000000000000000 ) ) ;
#327 = DIRECTION ( 'NONE',  ( -1.224646799147352961E-16, 1.000000000000000000, -0.000000000000000000 ) ) ;
#328 = PRODUCT ( '17047', '17047', '', ( #180 ) ) ;
#329 = FILL_AREA_STYLE_COLOUR ( '', #259 ) ;
#330 = CARTESIAN_POINT ( 'NONE',  ( 0.06249999999999993755, 2.500000000000000000, 7.654042494670949841E-18 ) ) ;
#331 =( GEOMETRIC_REPRESENTATION_CONTEXT ( 3 ) GLOBAL_UNCERTAINTY_ASSIGNED_CONTEXT ( ( #80 ) ) GLOBAL_UNIT_ASSIGNED_CONTEXT ( ( #201, #279, #282 ) ) REPRESENTATION_CONTEXT ( 'NONE', 'WORKASPACE' ) );
#332 = DIMENSIONAL_EXPONENTS ( 1.000000000000000000, 0.000000000000000000, 0.000000000000000000, 0.000000000000000000, 0.000000000000000000, 0.000000000000000000, 0.000000000000000000 ) ;
#333 =( LENGTH_UNIT ( ) NAMED_UNIT ( * ) SI_UNIT ( $, .METRE. ) );
#334 = EDGE_CURVE ( 'NONE', #154, #349, #364, .T. ) ;
#335 = FILL_AREA_STYLE_COLOUR ( '', #68 ) ;
#336 = PRODUCT_DEFINITION_CONTEXT ( 'detailed design', #113, 'design' ) ;
#337 = DIRECTION ( 'NONE',  ( -1.000000000000000000, 0.000000000000000000, 0.000000000000000000 ) ) ;
#338 = CARTESIAN_POINT ( 'NONE',  ( -6.123233995736766036E-17, 2.500000000000000000, 0.000000000000000000 ) ) ;
#339 = CIRCLE ( 'NONE', #256, 0.06249999999999995143 ) ;
#340 = FILL_AREA_STYLE ('',( #368 ) ) ;
#341 = EDGE_LOOP ( 'NONE', ( #30, #129, #64, #313 ) ) ;
#342 = VECTOR ( 'NONE', #39, 39.37007874015748143 ) ;
#343 = CARTESIAN_POINT ( 'NONE',  ( 0.06249999999999993755, 0.5000000000000001110, 7.654042494670949841E-18 ) ) ;
#344 = FILL_AREA_STYLE_COLOUR ( '', #204 ) ;
#345 = ORIENTED_EDGE ( 'NONE', *, *, #106, .T. ) ;
#346 = VERTEX_POINT ( 'NONE', #24 ) ;
#347 = DIRECTION ( 'NONE',  ( -0.000000000000000000, -1.000000000000000000, -0.000000000000000000 ) ) ;
#348 = STYLED_ITEM ( 'NONE', ( #87 ), #228 ) ;
#349 = VERTEX_POINT ( 'NONE', #366 ) ;
#350 = DIRECTION ( 'NONE',  ( -1.224646799147352961E-16, 1.000000000000000000, -0.000000000000000000 ) ) ;
#351 = ADVANCED_FACE ( 'NONE', ( #239 ), #187, .F. ) ;
#352 = SURFACE_SIDE_STYLE ('',( #157 ) ) ;
#353 = FACE_OUTER_BOUND ( 'NONE', #210, .T. ) ;
#354 = AXIS2_PLACEMENT_3D ( 'NONE', #224, #194, #168 ) ;
#355 = CARTESIAN_POINT ( 'NONE',  ( -7.654042494670957545E-18, 0.06250000000000001388, 0.000000000000000000 ) ) ;
#356 = DIRECTION ( 'NONE',  ( 0.000000000000000000, 1.000000000000000000, 0.000000000000000000 ) ) ;
#357 = CYLINDRICAL_SURFACE ( 'NONE', #310, 0.06249999999999988204 ) ;
#358 = PRESENTATION_LAYER_ASSIGNMENT (  '', '', ( #182 ) ) ;
#359 = CIRCLE ( 'NONE', #179, 0.06249999999999993755 ) ;
#360 =( LENGTH_UNIT ( ) NAMED_UNIT ( * ) SI_UNIT ( $, .METRE. ) );
#361 = FACE_OUTER_BOUND ( 'NONE', #123, .T. ) ;
#362 = PRESENTATION_LAYER_ASSIGNMENT (  '', '', ( #304 ) ) ;
#363 = UNCERTAINTY_MEASURE_WITH_UNIT (LENGTH_MEASURE( 1.000000000000000082E-05 ), #31, 'distance_accuracy_value', 'NONE');
#364 = CIRCLE ( 'NONE', #115, 0.06249999999999995143 ) ;
#365 = SURFACE_STYLE_FILL_AREA ( #13 ) ;
#366 = CARTESIAN_POINT ( 'NONE',  ( 7.654042494670951382E-18, 0.06250000000000001388, 0.06249999999999995143 ) ) ;
#367 = ORIENTED_EDGE ( 'NONE', *, *, #173, .F. ) ;
#368 = FILL_AREA_STYLE_COLOUR ( '', #43 ) ;
#369 = CARTESIAN_POINT ( 'NONE',  ( 0.000000000000000000, 0.000000000000000000, 0.000000000000000000 ) ) ;
#370 = AXIS2_PLACEMENT_3D ( 'NONE', #16, #207, #85 ) ;
#371 = DIRECTION ( 'NONE',  ( -1.000000000000000000, -1.224646799147352961E-16, 0.000000000000000000 ) ) ;
#372 = ORIENTED_EDGE ( 'NONE', *, *, #18, .F. ) ;
#373 = CARTESIAN_POINT ( 'NONE',  ( -3.827021247335479543E-18, 3.414809992080329023E-17, 0.000000000000000000 ) ) ;
ENDSEC;
END-ISO-10303-21;
