ISO-10303-21;
HEADER;
FILE_DESCRIPTION (( 'STEP AP214' ),
    '1' );
FILE_NAME ('03677.STEP',
    '2023-06-22T15:38:53',
    ( '' ),
    ( '' ),
    'SwSTEP 2.0',
    'SolidWorks 2023',
    '' );
FILE_SCHEMA (( 'AUTOMOTIVE_DESIGN' ));
ENDSEC;

DATA;
#1 = EDGE_LOOP ( 'NONE', ( #163, #162, #296, #166 ) ) ;
#2 = PRESENTATION_LAYER_ASSIGNMENT (  '', '', ( #33 ) ) ;
#3 = AXIS2_PLACEMENT_3D ( 'NONE', #67, #231, #123 ) ;
#4 = FILL_AREA_STYLE_COLOUR ( '', #21 ) ;
#5 =( CONVERSION_BASED_UNIT ( 'INCH', #35 ) LENGTH_UNIT ( ) NAMED_UNIT ( #206 ) );
#6 = SURFACE_STYLE_FILL_AREA ( #216 ) ;
#7 = PRODUCT_DEFINITION_SHAPE ( 'NONE', 'NONE',  #156 ) ;
#8 = DIRECTION ( 'NONE',  ( 0.000000000000000000, 0.000000000000000000, -1.000000000000000000 ) ) ;
#9 = SURFACE_STYLE_FILL_AREA ( #289 ) ;
#10 = LENGTH_MEASURE_WITH_UNIT ( LENGTH_MEASURE( 0.02539999999999999897 ), #220 );
#11 =( NAMED_UNIT ( * ) PLANE_ANGLE_UNIT ( ) SI_UNIT ( $, .RADIAN. ) );
#12 = DIRECTION ( 'NONE',  ( -1.000000000000000000, 0.000000000000000000, 0.000000000000000000 ) ) ;
#13 = CIRCLE ( 'NONE', #240, 0.3750000000000000555 ) ;
#14 = STYLED_ITEM ( 'NONE', ( #218 ), #228 ) ;
#15 = AXIS2_PLACEMENT_3D ( 'NONE', #24, #308, #42 ) ;
#16 =( LENGTH_UNIT ( ) NAMED_UNIT ( * ) SI_UNIT ( $, .METRE. ) );
#17 = SURFACE_STYLE_USAGE ( .BOTH. , #263 ) ;
#18 = DIRECTION ( 'NONE',  ( -4.453261087808557677E-17, 1.000000000000000000, -0.000000000000000000 ) ) ;
#19 = SURFACE_STYLE_USAGE ( .BOTH. , #159 ) ;
#20 = FACE_OUTER_BOUND ( 'NONE', #150, .T. ) ;
#21 = COLOUR_RGB ( '',0.7921568627450980005, 0.8196078431372548767, 0.9333333333333333481 ) ;
#22 = FILL_AREA_STYLE ('',( #303 ) ) ;
#23 = FACE_OUTER_BOUND ( 'NONE', #241, .T. ) ;
#24 = CARTESIAN_POINT ( 'NONE',  ( 0.000000000000000000, 2.250000000000000000, 0.000000000000000000 ) ) ;
#25 = DIRECTION ( 'NONE',  ( -0.000000000000000000, -1.000000000000000000, -0.000000000000000000 ) ) ;
#26 = PLANE ( 'NONE',  #103 ) ;
#27 = LINE ( 'NONE', #49, #38 ) ;
#28 = FILL_AREA_STYLE_COLOUR ( '', #39 ) ;
#29 = ORIENTED_EDGE ( 'NONE', *, *, #207, .F. ) ;
#30 =( GEOMETRIC_REPRESENTATION_CONTEXT ( 3 ) GLOBAL_UNCERTAINTY_ASSIGNED_CONTEXT ( ( #214 ) ) GLOBAL_UNIT_ASSIGNED_CONTEXT ( ( #5, #226, #217 ) ) REPRESENTATION_CONTEXT ( 'NONE', 'WORKASPACE' ) );
#31 = EDGE_CURVE ( 'NONE', #131, #245, #143, .T. ) ;
#32 = PRODUCT_CONTEXT ( 'NONE', #236, 'mechanical' ) ;
#33 = STYLED_ITEM ( 'NONE', ( #68 ), #84 ) ;
#34 = AXIS2_PLACEMENT_3D ( 'NONE', #48, #142, #235 ) ;
#35 = LENGTH_MEASURE_WITH_UNIT ( LENGTH_MEASURE( 0.02539999999999999897 ), #16 );
#36 = DIRECTION ( 'NONE',  ( 0.000000000000000000, 0.000000000000000000, -1.000000000000000000 ) ) ;
#37 = ORIENTED_EDGE ( 'NONE', *, *, #255, .T. ) ;
#38 = VECTOR ( 'NONE', #118, 39.37007874015748143 ) ;
#39 = COLOUR_RGB ( '',0.7921568627450980005, 0.8196078431372548767, 0.9333333333333333481 ) ;
#40 = SURFACE_STYLE_USAGE ( .BOTH. , #267 ) ;
#41 = EDGE_CURVE ( 'NONE', #131, #194, #215, .T. ) ;
#42 = DIRECTION ( 'NONE',  ( 0.000000000000000000, 0.000000000000000000, -1.000000000000000000 ) ) ;
#43 = DIRECTION ( 'NONE',  ( -0.000000000000000000, -1.000000000000000000, -0.000000000000000000 ) ) ;
#44 =( NAMED_UNIT ( * ) SI_UNIT ( $, .STERADIAN. ) SOLID_ANGLE_UNIT ( ) );
#45 = AXIS2_PLACEMENT_3D ( 'NONE', #279, #25, #232 ) ;
#46 =( GEOMETRIC_REPRESENTATION_CONTEXT ( 3 ) GLOBAL_UNCERTAINTY_ASSIGNED_CONTEXT ( ( #59 ) ) GLOBAL_UNIT_ASSIGNED_CONTEXT ( ( #93, #69, #117 ) ) REPRESENTATION_CONTEXT ( 'NONE', 'WORKASPACE' ) );
#47 =( LENGTH_UNIT ( ) NAMED_UNIT ( * ) SI_UNIT ( $, .METRE. ) );
#48 = CARTESIAN_POINT ( 'NONE',  ( 0.000000000000000000, 0.000000000000000000, 0.000000000000000000 ) ) ;
#49 = CARTESIAN_POINT ( 'NONE',  ( 0.000000000000000000, 0.000000000000000000, -0.3750000000000000555 ) ) ;
#50 =( CONVERSION_BASED_UNIT ( 'INCH', #180 ) LENGTH_UNIT ( ) NAMED_UNIT ( #292 ) );
#51 =( CONVERSION_BASED_UNIT ( 'INCH', #157 ) LENGTH_UNIT ( ) NAMED_UNIT ( #54 ) );
#52 = AXIS2_PLACEMENT_3D ( 'NONE', #269, #106, #287 ) ;
#53 = EDGE_CURVE ( 'NONE', #170, #64, #244, .T. ) ;
#54 = DIMENSIONAL_EXPONENTS ( 1.000000000000000000, 0.000000000000000000, 0.000000000000000000, 0.000000000000000000, 0.000000000000000000, 0.000000000000000000, 0.000000000000000000 ) ;
#55 = VERTEX_POINT ( 'NONE', #189 ) ;
#56 = AXIS2_PLACEMENT_3D ( 'NONE', #181, #94, #309 ) ;
#57 = CARTESIAN_POINT ( 'NONE',  ( 0.000000000000000000, 0.000000000000000000, 0.000000000000000000 ) ) ;
#58 = COLOUR_RGB ( '',1.000000000000000000, 0.000000000000000000, 0.000000000000000000 ) ;
#59 = UNCERTAINTY_MEASURE_WITH_UNIT (LENGTH_MEASURE( 1.000000000000000082E-05 ), #93, 'distance_accuracy_value', 'NONE');
#60 =( CONVERSION_BASED_UNIT ( 'INCH', #290 ) LENGTH_UNIT ( ) NAMED_UNIT ( #165 ) );
#61 = PRESENTATION_STYLE_ASSIGNMENT (( #171 ) ) ;
#62 = MECHANICAL_DESIGN_GEOMETRIC_PRESENTATION_REPRESENTATION (  '', ( #14 ), #221 ) ;
#63 = DIRECTION ( 'NONE',  ( -4.453261087808557677E-17, 1.000000000000000000, -0.000000000000000000 ) ) ;
#64 = VERTEX_POINT ( 'NONE', #89 ) ;
#65 = DIRECTION ( 'NONE',  ( 0.000000000000000000, 0.000000000000000000, -1.000000000000000000 ) ) ;
#66 = AXIS2_PLACEMENT_3D ( 'NONE', #259, #63, #268 ) ;
#67 = CARTESIAN_POINT ( 'NONE',  ( 0.000000000000000000, 0.000000000000000000, 0.000000000000000000 ) ) ;
#68 = PRESENTATION_STYLE_ASSIGNMENT (( #40 ) ) ;
#69 =( NAMED_UNIT ( * ) PLANE_ANGLE_UNIT ( ) SI_UNIT ( $, .RADIAN. ) );
#70 = FACE_OUTER_BOUND ( 'NONE', #82, .T. ) ;
#71 = CARTESIAN_POINT ( 'NONE',  ( 0.3750000000000000555, 5.000000000000000000, 0.000000000000000000 ) ) ;
#72 = CARTESIAN_POINT ( 'NONE',  ( 0.3750000000000000555, 2.250000000000000444, 4.592425496802576684E-17 ) ) ;
#73 = APPLICATION_PROTOCOL_DEFINITION ( 'draft international standard', 'automotive_design', 1998, #236 ) ;
#74 = VECTOR ( 'NONE', #250, 39.37007874015748143 ) ;
#75 = SURFACE_STYLE_FILL_AREA ( #22 ) ;
#76 = LINE ( 'NONE', #252, #74 ) ;
#77 = MECHANICAL_DESIGN_GEOMETRIC_PRESENTATION_REPRESENTATION (  '', ( #274 ), #282 ) ;
#78 = ORIENTED_EDGE ( 'NONE', *, *, #95, .F. ) ;
#79 = UNCERTAINTY_MEASURE_WITH_UNIT (LENGTH_MEASURE( 1.000000000000000082E-05 ), #60, 'distance_accuracy_value', 'NONE');
#80 = CIRCLE ( 'NONE', #66, 0.3750000000000001665 ) ;
#81 = ORIENTED_EDGE ( 'NONE', *, *, #169, .F. ) ;
#82 = EDGE_LOOP ( 'NONE', ( #187, #127, #81, #211 ) ) ;
#83 = SURFACE_SIDE_STYLE ('',( #9 ) ) ;
#84 = ADVANCED_FACE ( 'NONE', ( #111 ), #130, .T. ) ;
#85 = EDGE_LOOP ( 'NONE', ( #145, #260, #271, #258 ) ) ;
#86 = AXIS2_PLACEMENT_3D ( 'NONE', #173, #43, #65 ) ;
#87 = CIRCLE ( 'NONE', #3, 0.3750000000000000555 ) ;
#88 = SURFACE_SIDE_STYLE ('',( #188 ) ) ;
#89 = CARTESIAN_POINT ( 'NONE',  ( 4.592425496802575451E-17, 0.000000000000000000, 0.3750000000000000555 ) ) ;
#90 = ADVANCED_FACE ( 'NONE', ( #192 ), #199, .T. ) ;
#91 = SURFACE_STYLE_USAGE ( .BOTH. , #88 ) ;
#92 = EDGE_LOOP ( 'NONE', ( #37, #151, #174, #78 ) ) ;
#93 =( CONVERSION_BASED_UNIT ( 'INCH', #200 ) LENGTH_UNIT ( ) NAMED_UNIT ( #264 ) );
#94 = DIRECTION ( 'NONE',  ( -4.453261087808557677E-17, 1.000000000000000000, -0.000000000000000000 ) ) ;
#95 = EDGE_CURVE ( 'NONE', #55, #265, #27, .T. ) ;
#96 = SURFACE_STYLE_USAGE ( .BOTH. , #277 ) ;
#97 =( LENGTH_UNIT ( ) NAMED_UNIT ( * ) SI_UNIT ( $, .METRE. ) );
#98 = CARTESIAN_POINT ( 'NONE',  ( 0.000000000000000000, 0.000000000000000000, -0.3750000000000000555 ) ) ;
#99 = EDGE_CURVE ( 'NONE', #64, #265, #148, .T. ) ;
#100 = UNCERTAINTY_MEASURE_WITH_UNIT (LENGTH_MEASURE( 1.000000000000000082E-05 ), #116, 'distance_accuracy_value', 'NONE');
#101 = CARTESIAN_POINT ( 'NONE',  ( -1.224646799147353207E-16, 5.000000000000000000, 0.000000000000000000 ) ) ;
#102 = CLOSED_SHELL ( 'NONE', ( #90, #305, #84, #197 ) ) ;
#103 = AXIS2_PLACEMENT_3D ( 'NONE', #227, #301, #182 ) ;
#104 = ORIENTED_EDGE ( 'NONE', *, *, #169, .T. ) ;
#105 = MECHANICAL_DESIGN_GEOMETRIC_PRESENTATION_REPRESENTATION (  '', ( #33 ), #30 ) ;
#106 = DIRECTION ( 'NONE',  ( -4.453261087808557677E-17, 1.000000000000000000, 0.000000000000000000 ) ) ;
#107 = UNCERTAINTY_MEASURE_WITH_UNIT (LENGTH_MEASURE( 1.000000000000000082E-05 ), #51, 'distance_accuracy_value', 'NONE');
#108 = FILL_AREA_STYLE_COLOUR ( '', #213 ) ;
#109 = ORIENTED_EDGE ( 'NONE', *, *, #255, .F. ) ;
#110 =( NAMED_UNIT ( * ) SI_UNIT ( $, .STERADIAN. ) SOLID_ANGLE_UNIT ( ) );
#111 = FACE_OUTER_BOUND ( 'NONE', #1, .T. ) ;
#112 = AXIS2_PLACEMENT_3D ( 'NONE', #225, #114, #297 ) ;
#113 = ORIENTED_EDGE ( 'NONE', *, *, #99, .T. ) ;
#114 = DIRECTION ( 'NONE',  ( -4.453261087808557677E-17, 1.000000000000000000, -0.000000000000000000 ) ) ;
#115 = CARTESIAN_POINT ( 'NONE',  ( -0.3750000000000002776, 5.000000000000000000, 0.000000000000000000 ) ) ;
#116 =( CONVERSION_BASED_UNIT ( 'INCH', #275 ) LENGTH_UNIT ( ) NAMED_UNIT ( #184 ) );
#117 =( NAMED_UNIT ( * ) SI_UNIT ( $, .STERADIAN. ) SOLID_ANGLE_UNIT ( ) );
#118 = DIRECTION ( 'NONE',  ( -0.000000000000000000, -1.000000000000000000, -0.000000000000000000 ) ) ;
#119 =( LENGTH_UNIT ( ) NAMED_UNIT ( * ) SI_UNIT ( $, .METRE. ) );
#120 = CARTESIAN_POINT ( 'NONE',  ( 1.516480271171051896E-32, 2.250000000000000444, 0.000000000000000000 ) ) ;
#121 = CARTESIAN_POINT ( 'NONE',  ( 0.000000000000000000, 0.000000000000000000, 0.000000000000000000 ) ) ;
#122 = CIRCLE ( 'NONE', #293, 0.3750000000000000555 ) ;
#123 = DIRECTION ( 'NONE',  ( 0.000000000000000000, 0.000000000000000000, -1.000000000000000000 ) ) ;
#124 = PRESENTATION_LAYER_ASSIGNMENT (  '', '', ( #233 ) ) ;
#125 = CYLINDRICAL_SURFACE ( 'NONE', #56, 0.3750000000000001110 ) ;
#126 = AXIS2_PLACEMENT_3D ( 'NONE', #121, #304, #155 ) ;
#127 = ORIENTED_EDGE ( 'NONE', *, *, #41, .T. ) ;
#128 = AXIS2_PLACEMENT_3D ( 'NONE', #101, #177, #280 ) ;
#129 = DIMENSIONAL_EXPONENTS ( 1.000000000000000000, 0.000000000000000000, 0.000000000000000000, 0.000000000000000000, 0.000000000000000000, 0.000000000000000000, 0.000000000000000000 ) ;
#130 = CYLINDRICAL_SURFACE ( 'NONE', #86, 0.3750000000000000555 ) ;
#131 = VERTEX_POINT ( 'NONE', #72 ) ;
#132 =( NAMED_UNIT ( * ) PLANE_ANGLE_UNIT ( ) SI_UNIT ( $, .RADIAN. ) );
#133 = VECTOR ( 'NONE', #291, 39.37007874015748143 ) ;
#134 = FILL_AREA_STYLE_COLOUR ( '', #183 ) ;
#135 = CYLINDRICAL_SURFACE ( 'NONE', #112, 0.3750000000000001110 ) ;
#136 = PRESENTATION_STYLE_ASSIGNMENT (( #96 ) ) ;
#137 = DIRECTION ( 'NONE',  ( -4.453261087808557677E-17, 1.000000000000000000, -0.000000000000000000 ) ) ;
#138 = EDGE_CURVE ( 'NONE', #245, #131, #122, .T. ) ;
#139 =( NAMED_UNIT ( * ) SI_UNIT ( $, .STERADIAN. ) SOLID_ANGLE_UNIT ( ) );
#140 = STYLED_ITEM ( 'NONE', ( #61 ), #90 ) ;
#141 = DIRECTION ( 'NONE',  ( -1.000000000000000000, 0.000000000000000000, 0.000000000000000000 ) ) ;
#142 = DIRECTION ( 'NONE',  ( 0.000000000000000000, 0.000000000000000000, 1.000000000000000000 ) ) ;
#143 = CIRCLE ( 'NONE', #270, 0.3750000000000000555 ) ;
#144 = MECHANICAL_DESIGN_GEOMETRIC_PRESENTATION_REPRESENTATION (  '', ( #283 ), #246 ) ;
#145 = ORIENTED_EDGE ( 'NONE', *, *, #41, .F. ) ;
#146 = ADVANCED_FACE ( 'NONE', ( #70 ), #125, .T. ) ;
#147 = PRESENTATION_LAYER_ASSIGNMENT (  '', '', ( #14 ) ) ;
#148 = CIRCLE ( 'NONE', #126, 0.3750000000000000555 ) ;
#149 = PRODUCT ( '03677', '03677', '', ( #32 ) ) ;
#150 = EDGE_LOOP ( 'NONE', ( #109, #29 ) ) ;
#151 = ORIENTED_EDGE ( 'NONE', *, *, #53, .T. ) ;
#152 = EDGE_LOOP ( 'NONE', ( #256, #172 ) ) ;
#153 =( GEOMETRIC_REPRESENTATION_CONTEXT ( 3 ) GLOBAL_UNCERTAINTY_ASSIGNED_CONTEXT ( ( #107 ) ) GLOBAL_UNIT_ASSIGNED_CONTEXT ( ( #51, #307, #238 ) ) REPRESENTATION_CONTEXT ( 'NONE', 'WORKASPACE' ) );
#154 = PRESENTATION_STYLE_ASSIGNMENT (( #19 ) ) ;
#155 = DIRECTION ( 'NONE',  ( 0.000000000000000000, 0.000000000000000000, -1.000000000000000000 ) ) ;
#156 = PRODUCT_DEFINITION ( 'UNKNOWN', '', #175, #284 ) ;
#157 = LENGTH_MEASURE_WITH_UNIT ( LENGTH_MEASURE( 0.02539999999999999897 ), #47 );
#158 =( LENGTH_UNIT ( ) NAMED_UNIT ( * ) SI_UNIT ( $, .METRE. ) );
#159 = SURFACE_SIDE_STYLE ('',( #229 ) ) ;
#160 = CARTESIAN_POINT ( 'NONE',  ( 4.592425496802575451E-17, 2.250000000000000000, 0.3750000000000000555 ) ) ;
#161 = CIRCLE ( 'NONE', #128, 0.3750000000000001665 ) ;
#162 = ORIENTED_EDGE ( 'NONE', *, *, #207, .T. ) ;
#163 = ORIENTED_EDGE ( 'NONE', *, *, #53, .F. ) ;
#164 = APPLICATION_PROTOCOL_DEFINITION ( 'draft international standard', 'automotive_design', 1998, #208 ) ;
#165 = DIMENSIONAL_EXPONENTS ( 1.000000000000000000, 0.000000000000000000, 0.000000000000000000, 0.000000000000000000, 0.000000000000000000, 0.000000000000000000, 0.000000000000000000 ) ;
#166 = ORIENTED_EDGE ( 'NONE', *, *, #99, .F. ) ;
#167 = PRESENTATION_LAYER_ASSIGNMENT (  '', '', ( #140 ) ) ;
#168 = DIRECTION ( 'NONE',  ( 0.000000000000000000, -1.000000000000000000, -0.000000000000000000 ) ) ;
#169 = EDGE_CURVE ( 'NONE', #300, #194, #161, .T. ) ;
#170 = VERTEX_POINT ( 'NONE', #160 ) ;
#171 = SURFACE_STYLE_USAGE ( .BOTH. , #83 ) ;
#172 = ORIENTED_EDGE ( 'NONE', *, *, #31, .F. ) ;
#173 = CARTESIAN_POINT ( 'NONE',  ( 0.000000000000000000, 0.000000000000000000, 0.000000000000000000 ) ) ;
#174 = ORIENTED_EDGE ( 'NONE', *, *, #266, .F. ) ;
#175 = PRODUCT_DEFINITION_FORMATION_WITH_SPECIFIED_SOURCE ( 'ANY', '', #149, .NOT_KNOWN. ) ;
#176 = DIRECTION ( 'NONE',  ( 1.000000000000000000, 4.453261087808557677E-17, 0.000000000000000000 ) ) ;
#177 = DIRECTION ( 'NONE',  ( -4.453261087808557677E-17, 1.000000000000000000, -0.000000000000000000 ) ) ;
#178 = MECHANICAL_DESIGN_GEOMETRIC_PRESENTATION_REPRESENTATION (  '', ( #140 ), #153 ) ;
#179 = MECHANICAL_DESIGN_GEOMETRIC_PRESENTATION_REPRESENTATION (  '', ( #233 ), #276 ) ;
#180 = LENGTH_MEASURE_WITH_UNIT ( LENGTH_MEASURE( 0.02539999999999999897 ), #158 );
#181 = CARTESIAN_POINT ( 'NONE',  ( -1.224646799147353207E-16, 5.000000000000000000, 0.000000000000000000 ) ) ;
#182 = DIRECTION ( 'NONE',  ( 0.000000000000000000, -0.000000000000000000, 1.000000000000000000 ) ) ;
#183 = COLOUR_RGB ( '',1.000000000000000000, 0.000000000000000000, 0.000000000000000000 ) ;
#184 = DIMENSIONAL_EXPONENTS ( 1.000000000000000000, 0.000000000000000000, 0.000000000000000000, 0.000000000000000000, 0.000000000000000000, 0.000000000000000000, 0.000000000000000000 ) ;
#185 = ORIENTED_EDGE ( 'NONE', *, *, #266, .T. ) ;
#186 = AXIS2_PLACEMENT_3D ( 'NONE', #57, #168, #8 ) ;
#187 = ORIENTED_EDGE ( 'NONE', *, *, #138, .T. ) ;
#188 = SURFACE_STYLE_FILL_AREA ( #299 ) ;
#189 = CARTESIAN_POINT ( 'NONE',  ( 0.000000000000000000, 2.250000000000000000, -0.3750000000000000555 ) ) ;
#190 = PRESENTATION_STYLE_ASSIGNMENT (( #17 ) ) ;
#191 =( LENGTH_UNIT ( ) NAMED_UNIT ( * ) SI_UNIT ( $, .METRE. ) );
#192 = FACE_OUTER_BOUND ( 'NONE', #92, .T. ) ;
#193 = EDGE_CURVE ( 'NONE', #245, #300, #76, .T. ) ;
#194 = VERTEX_POINT ( 'NONE', #234 ) ;
#195 = DIRECTION ( 'NONE',  ( -4.453261087808557677E-17, 1.000000000000000000, -0.000000000000000000 ) ) ;
#196 = CARTESIAN_POINT ( 'NONE',  ( -0.3750000000000000555, 2.250000000000000444, 0.000000000000000000 ) ) ;
#197 = ADVANCED_FACE ( 'NONE', ( #23 ), #272, .T. ) ;
#198 = FACE_OUTER_BOUND ( 'NONE', #85, .T. ) ;
#199 = CYLINDRICAL_SURFACE ( 'NONE', #45, 0.3750000000000000555 ) ;
#200 = LENGTH_MEASURE_WITH_UNIT ( LENGTH_MEASURE( 0.02539999999999999897 ), #119 );
#201 = FACE_OUTER_BOUND ( 'NONE', #254, .T. ) ;
#202 = FILL_AREA_STYLE ('',( #249 ) ) ;
#203 = CLOSED_SHELL ( 'NONE', ( #146, #253, #224, #286 ) ) ;
#204 = AXIS2_PLACEMENT_3D ( 'NONE', #71, #273, #176 ) ;
#205 = PLANE ( 'NONE',  #204 ) ;
#206 = DIMENSIONAL_EXPONENTS ( 1.000000000000000000, 0.000000000000000000, 0.000000000000000000, 0.000000000000000000, 0.000000000000000000, 0.000000000000000000, 0.000000000000000000 ) ;
#207 = EDGE_CURVE ( 'NONE', #170, #55, #13, .T. ) ;
#208 = APPLICATION_CONTEXT ( 'automotive_design' ) ;
#209 = ORIENTED_EDGE ( 'NONE', *, *, #210, .T. ) ;
#210 = EDGE_CURVE ( 'NONE', #194, #300, #80, .T. ) ;
#211 = ORIENTED_EDGE ( 'NONE', *, *, #193, .F. ) ;
#212 = PLANE ( 'NONE',  #52 ) ;
#213 = COLOUR_RGB ( '',1.000000000000000000, 0.000000000000000000, 0.000000000000000000 ) ;
#214 = UNCERTAINTY_MEASURE_WITH_UNIT (LENGTH_MEASURE( 1.000000000000000082E-05 ), #5, 'distance_accuracy_value', 'NONE');
#215 = LINE ( 'NONE', #247, #257 ) ;
#216 = FILL_AREA_STYLE ('',( #28 ) ) ;
#217 =( NAMED_UNIT ( * ) SI_UNIT ( $, .STERADIAN. ) SOLID_ANGLE_UNIT ( ) );
#218 = PRESENTATION_STYLE_ASSIGNMENT (( #91 ) ) ;
#219 = CARTESIAN_POINT ( 'NONE',  ( 4.592425496802575451E-17, 0.000000000000000000, 0.3750000000000000555 ) ) ;
#220 =( LENGTH_UNIT ( ) NAMED_UNIT ( * ) SI_UNIT ( $, .METRE. ) );
#221 =( GEOMETRIC_REPRESENTATION_CONTEXT ( 3 ) GLOBAL_UNCERTAINTY_ASSIGNED_CONTEXT ( ( #79 ) ) GLOBAL_UNIT_ASSIGNED_CONTEXT ( ( #60, #11, #110 ) ) REPRESENTATION_CONTEXT ( 'NONE', 'WORKASPACE' ) );
#222 = DIRECTION ( 'NONE',  ( -0.000000000000000000, -1.000000000000000000, -0.000000000000000000 ) ) ;
#223 = SURFACE_STYLE_FILL_AREA ( #243 ) ;
#224 = ADVANCED_FACE ( 'NONE', ( #198 ), #135, .T. ) ;
#225 = CARTESIAN_POINT ( 'NONE',  ( -1.224646799147353207E-16, 5.000000000000000000, 0.000000000000000000 ) ) ;
#226 =( NAMED_UNIT ( * ) PLANE_ANGLE_UNIT ( ) SI_UNIT ( $, .RADIAN. ) );
#227 = CARTESIAN_POINT ( 'NONE',  ( 0.000000000000000000, 2.250000000000000000, 0.000000000000000000 ) ) ;
#228 = MANIFOLD_SOLID_BREP ( 'Revolve - Cutting Edge', #102 ) ;
#229 = SURFACE_STYLE_FILL_AREA ( #202 ) ;
#230 = MANIFOLD_SOLID_BREP ( 'Revolve - Tool Body (Straight Shanked)', #203 ) ;
#231 = DIRECTION ( 'NONE',  ( -0.000000000000000000, -1.000000000000000000, -0.000000000000000000 ) ) ;
#232 = DIRECTION ( 'NONE',  ( 0.000000000000000000, 0.000000000000000000, -1.000000000000000000 ) ) ;
#233 = STYLED_ITEM ( 'NONE', ( #190 ), #230 ) ;
#234 = CARTESIAN_POINT ( 'NONE',  ( 0.3750000000000000555, 5.000000000000000000, 4.592425496802576684E-17 ) ) ;
#235 = DIRECTION ( 'NONE',  ( 1.000000000000000000, 0.000000000000000000, 0.000000000000000000 ) ) ;
#236 = APPLICATION_CONTEXT ( 'automotive_design' ) ;
#237 =( NAMED_UNIT ( * ) PLANE_ANGLE_UNIT ( ) SI_UNIT ( $, .RADIAN. ) );
#238 =( NAMED_UNIT ( * ) SI_UNIT ( $, .STERADIAN. ) SOLID_ANGLE_UNIT ( ) );
#239 = SHAPE_DEFINITION_REPRESENTATION ( #7, #281 ) ;
#240 = AXIS2_PLACEMENT_3D ( 'NONE', #295, #222, #36 ) ;
#241 = EDGE_LOOP ( 'NONE', ( #185, #113 ) ) ;
#242 = PRESENTATION_LAYER_ASSIGNMENT (  '', '', ( #274 ) ) ;
#243 = FILL_AREA_STYLE ('',( #134 ) ) ;
#244 = LINE ( 'NONE', #219, #133 ) ;
#245 = VERTEX_POINT ( 'NONE', #196 ) ;
#246 =( GEOMETRIC_REPRESENTATION_CONTEXT ( 3 ) GLOBAL_UNCERTAINTY_ASSIGNED_CONTEXT ( ( #288 ) ) GLOBAL_UNIT_ASSIGNED_CONTEXT ( ( #50, #248, #44 ) ) REPRESENTATION_CONTEXT ( 'NONE', 'WORKASPACE' ) );
#247 = CARTESIAN_POINT ( 'NONE',  ( 0.3749999999999999445, 5.000000000000000000, 4.592425496802576068E-17 ) ) ;
#248 =( NAMED_UNIT ( * ) PLANE_ANGLE_UNIT ( ) SI_UNIT ( $, .RADIAN. ) );
#249 = FILL_AREA_STYLE_COLOUR ( '', #302 ) ;
#250 = DIRECTION ( 'NONE',  ( -4.453261087808557677E-17, 1.000000000000000000, -0.000000000000000000 ) ) ;
#251 = CIRCLE ( 'NONE', #15, 0.3750000000000000555 ) ;
#252 = CARTESIAN_POINT ( 'NONE',  ( -0.3750000000000002220, 5.000000000000000000, 0.000000000000000000 ) ) ;
#253 = ADVANCED_FACE ( 'NONE', ( #298 ), #212, .F. ) ;
#254 = EDGE_LOOP ( 'NONE', ( #104, #209 ) ) ;
#255 = EDGE_CURVE ( 'NONE', #55, #170, #251, .T. ) ;
#256 = ORIENTED_EDGE ( 'NONE', *, *, #138, .F. ) ;
#257 = VECTOR ( 'NONE', #195, 39.37007874015748143 ) ;
#258 = ORIENTED_EDGE ( 'NONE', *, *, #210, .F. ) ;
#259 = CARTESIAN_POINT ( 'NONE',  ( -1.224646799147353207E-16, 5.000000000000000000, 0.000000000000000000 ) ) ;
#260 = ORIENTED_EDGE ( 'NONE', *, *, #31, .T. ) ;
#261 =( CONVERSION_BASED_UNIT ( 'INCH', #10 ) LENGTH_UNIT ( ) NAMED_UNIT ( #129 ) );
#262 = CARTESIAN_POINT ( 'NONE',  ( 1.516480271171051896E-32, 2.250000000000000444, 0.000000000000000000 ) ) ;
#263 = SURFACE_SIDE_STYLE ('',( #6 ) ) ;
#264 = DIMENSIONAL_EXPONENTS ( 1.000000000000000000, 0.000000000000000000, 0.000000000000000000, 0.000000000000000000, 0.000000000000000000, 0.000000000000000000, 0.000000000000000000 ) ;
#265 = VERTEX_POINT ( 'NONE', #98 ) ;
#266 = EDGE_CURVE ( 'NONE', #265, #64, #87, .T. ) ;
#267 = SURFACE_SIDE_STYLE ('',( #223 ) ) ;
#268 = DIRECTION ( 'NONE',  ( -1.000000000000000000, 0.000000000000000000, 0.000000000000000000 ) ) ;
#269 = CARTESIAN_POINT ( 'NONE',  ( 3.718412684285598933E-34, 2.250000000000000000, 0.000000000000000000 ) ) ;
#270 = AXIS2_PLACEMENT_3D ( 'NONE', #262, #18, #12 ) ;
#271 = ORIENTED_EDGE ( 'NONE', *, *, #193, .T. ) ;
#272 = PLANE ( 'NONE',  #186 ) ;
#273 = DIRECTION ( 'NONE',  ( 4.453261087808557677E-17, -1.000000000000000000, 0.000000000000000000 ) ) ;
#274 = STYLED_ITEM ( 'NONE', ( #154 ), #197 ) ;
#275 = LENGTH_MEASURE_WITH_UNIT ( LENGTH_MEASURE( 0.02539999999999999897 ), #97 );
#276 =( GEOMETRIC_REPRESENTATION_CONTEXT ( 3 ) GLOBAL_UNCERTAINTY_ASSIGNED_CONTEXT ( ( #306 ) ) GLOBAL_UNIT_ASSIGNED_CONTEXT ( ( #261, #132, #294 ) ) REPRESENTATION_CONTEXT ( 'NONE', 'WORKASPACE' ) );
#277 = SURFACE_SIDE_STYLE ('',( #75 ) ) ;
#278 = PRODUCT_RELATED_PRODUCT_CATEGORY ( 'part', '', ( #149 ) ) ;
#279 = CARTESIAN_POINT ( 'NONE',  ( 0.000000000000000000, 0.000000000000000000, 0.000000000000000000 ) ) ;
#280 = DIRECTION ( 'NONE',  ( -1.000000000000000000, 0.000000000000000000, 0.000000000000000000 ) ) ;
#281 = ADVANCED_BREP_SHAPE_REPRESENTATION ( '03677', ( #228, #230, #34 ), #46 ) ;
#282 =( GEOMETRIC_REPRESENTATION_CONTEXT ( 3 ) GLOBAL_UNCERTAINTY_ASSIGNED_CONTEXT ( ( #100 ) ) GLOBAL_UNIT_ASSIGNED_CONTEXT ( ( #116, #237, #139 ) ) REPRESENTATION_CONTEXT ( 'NONE', 'WORKASPACE' ) );
#283 = STYLED_ITEM ( 'NONE', ( #136 ), #305 ) ;
#284 = PRODUCT_DEFINITION_CONTEXT ( 'detailed design', #208, 'design' ) ;
#285 = PRESENTATION_LAYER_ASSIGNMENT (  '', '', ( #283 ) ) ;
#286 = ADVANCED_FACE ( 'NONE', ( #201 ), #205, .F. ) ;
#287 = DIRECTION ( 'NONE',  ( -1.000000000000000000, -4.453261087808557677E-17, 0.000000000000000000 ) ) ;
#288 = UNCERTAINTY_MEASURE_WITH_UNIT (LENGTH_MEASURE( 1.000000000000000082E-05 ), #50, 'distance_accuracy_value', 'NONE');
#289 = FILL_AREA_STYLE ('',( #108 ) ) ;
#290 = LENGTH_MEASURE_WITH_UNIT ( LENGTH_MEASURE( 0.02539999999999999897 ), #191 );
#291 = DIRECTION ( 'NONE',  ( -0.000000000000000000, -1.000000000000000000, -0.000000000000000000 ) ) ;
#292 = DIMENSIONAL_EXPONENTS ( 1.000000000000000000, 0.000000000000000000, 0.000000000000000000, 0.000000000000000000, 0.000000000000000000, 0.000000000000000000, 0.000000000000000000 ) ;
#293 = AXIS2_PLACEMENT_3D ( 'NONE', #120, #137, #141 ) ;
#294 =( NAMED_UNIT ( * ) SI_UNIT ( $, .STERADIAN. ) SOLID_ANGLE_UNIT ( ) );
#295 = CARTESIAN_POINT ( 'NONE',  ( 0.000000000000000000, 2.250000000000000000, 0.000000000000000000 ) ) ;
#296 = ORIENTED_EDGE ( 'NONE', *, *, #95, .T. ) ;
#297 = DIRECTION ( 'NONE',  ( -1.000000000000000000, 0.000000000000000000, 0.000000000000000000 ) ) ;
#298 = FACE_OUTER_BOUND ( 'NONE', #152, .T. ) ;
#299 = FILL_AREA_STYLE ('',( #4 ) ) ;
#300 = VERTEX_POINT ( 'NONE', #115 ) ;
#301 = DIRECTION ( 'NONE',  ( 0.000000000000000000, 1.000000000000000000, 0.000000000000000000 ) ) ;
#302 = COLOUR_RGB ( '',1.000000000000000000, 0.000000000000000000, 0.000000000000000000 ) ;
#303 = FILL_AREA_STYLE_COLOUR ( '', #58 ) ;
#304 = DIRECTION ( 'NONE',  ( -0.000000000000000000, -1.000000000000000000, -0.000000000000000000 ) ) ;
#305 = ADVANCED_FACE ( 'NONE', ( #20 ), #26, .T. ) ;
#306 = UNCERTAINTY_MEASURE_WITH_UNIT (LENGTH_MEASURE( 1.000000000000000082E-05 ), #261, 'distance_accuracy_value', 'NONE');
#307 =( NAMED_UNIT ( * ) PLANE_ANGLE_UNIT ( ) SI_UNIT ( $, .RADIAN. ) );
#308 = DIRECTION ( 'NONE',  ( -0.000000000000000000, -1.000000000000000000, -0.000000000000000000 ) ) ;
#309 = DIRECTION ( 'NONE',  ( -1.000000000000000000, 0.000000000000000000, 0.000000000000000000 ) ) ;
ENDSEC;
END-ISO-10303-21;
