ISO-10303-21;
HEADER;
FILE_DESCRIPTION (( 'STEP AP214' ),
    '1' );
FILE_NAME ('Micro_RSC-250-160.STEP',
    '2021-09-03T17:48:08',
    ( '' ),
    ( '' ),
    'SwSTEP 2.0',
    'SolidWorks 2020',
    '' );
FILE_SCHEMA (( 'AUTOMOTIVE_DESIGN' ));
ENDSEC;

DATA;
#1 = FACE_OUTER_BOUND ( 'NONE', #192, .T. ) ;
#2 = DIRECTION ( 'NONE',  ( 0.0000000000000000000, 0.0000000000000000000, 1.000000000000000000 ) ) ;
#3 = CIRCLE ( 'NONE', #149, 0.1250000000000000000 ) ;
#4 = EDGE_CURVE ( 'NONE', #38, #108, #131, .T. ) ;
#5 = DIRECTION ( 'NONE',  ( -1.000000000000000000, 0.0000000000000000000, 0.0000000000000000000 ) ) ;
#6 = AXIS2_PLACEMENT_3D ( 'NONE', #95, #222, #5 ) ;
#7 =( NAMED_UNIT ( * ) SI_UNIT ( $, .STERADIAN. ) SOLID_ANGLE_UNIT ( ) );
#8 = ADVANCED_FACE ( 'NONE', ( #86 ), #83, .T. ) ;
#9 = PRODUCT_DEFINITION ( 'UNKNOWN', '', #221, #129 ) ;
#10 = PRODUCT_CONTEXT ( 'NONE', #193, 'mechanical' ) ;
#11 = CLOSED_SHELL ( 'NONE', ( #107, #198, #146, #89, #195, #27, #8, #183 ) ) ;
#12 =( LENGTH_UNIT ( ) NAMED_UNIT ( * ) SI_UNIT ( $, .METRE. ) );
#13 = CARTESIAN_POINT ( 'NONE',  ( 0.0000000000000000000, 0.0000000000000000000, 2.485000000000000320 ) ) ;
#14 = DIMENSIONAL_EXPONENTS ( 1.000000000000000000, 0.0000000000000000000, 0.0000000000000000000, 0.0000000000000000000, 0.0000000000000000000, 0.0000000000000000000, 0.0000000000000000000 ) ;
#15 = EDGE_LOOP ( 'NONE', ( #104, #209, #145, #40 ) ) ;
#16 = DIRECTION ( 'NONE',  ( -0.0000000000000000000, -0.0000000000000000000, -1.000000000000000000 ) ) ;
#17 = DIRECTION ( 'NONE',  ( 1.000000000000000000, 0.0000000000000000000, 0.0000000000000000000 ) ) ;
#18 = ADVANCED_BREP_SHAPE_REPRESENTATION ( 'Micro_RSC-250-160', ( #196, #93 ), #229 ) ;
#19 = ORIENTED_EDGE ( 'NONE', *, *, #85, .F. ) ;
#20 = EDGE_CURVE ( 'NONE', #216, #51, #3, .T. ) ;
#21 = CIRCLE ( 'NONE', #98, 0.1100000000000001948 ) ;
#22 = PLANE ( 'NONE',  #69 ) ;
#23 = DIRECTION ( 'NONE',  ( 0.0000000000000000000, 0.0000000000000000000, 1.000000000000000000 ) ) ;
#24 = EDGE_CURVE ( 'NONE', #51, #84, #156, .T. ) ;
#25 = SURFACE_SIDE_STYLE ('',( #62 ) ) ;
#26 = VECTOR ( 'NONE', #55, 39.37007874015748854 ) ;
#27 = ADVANCED_FACE ( 'NONE', ( #190 ), #169, .T. ) ;
#28 = PLANE ( 'NONE',  #136 ) ;
#29 = CYLINDRICAL_SURFACE ( 'NONE', #6, 0.1250000000000000000 ) ;
#30 = DIRECTION ( 'NONE',  ( 0.0000000000000000000, 0.0000000000000000000, -1.000000000000000000 ) ) ;
#31 = COLOUR_RGB ( '',0.7921568627450980005, 0.8196078431372548767, 0.9333333333333333481 ) ;
#32 = LINE ( 'NONE', #100, #178 ) ;
#33 = ORIENTED_EDGE ( 'NONE', *, *, #24, .T. ) ;
#34 = EDGE_CURVE ( 'NONE', #84, #108, #194, .T. ) ;
#35 = AXIS2_PLACEMENT_3D ( 'NONE', #164, #119, #114 ) ;
#36 = ORIENTED_EDGE ( 'NONE', *, *, #4, .F. ) ;
#37 = CARTESIAN_POINT ( 'NONE',  ( 0.0000000000000000000, 0.0000000000000000000, 0.0000000000000000000 ) ) ;
#38 = VERTEX_POINT ( 'NONE', #170 ) ;
#39 = CARTESIAN_POINT ( 'NONE',  ( 0.0000000000000000000, 0.0000000000000000000, 2.500000000000000000 ) ) ;
#40 = ORIENTED_EDGE ( 'NONE', *, *, #20, .F. ) ;
#41 = DIRECTION ( 'NONE',  ( -0.5000000000000013323, 6.123233995736782060E-17, 0.8660254037844377084 ) ) ;
#42 = DIRECTION ( 'NONE',  ( 0.0000000000000000000, 0.0000000000000000000, 1.000000000000000000 ) ) ;
#43 = LENGTH_MEASURE_WITH_UNIT ( LENGTH_MEASURE( 0.02539999999999999897 ), #161 );
#44 = FACE_OUTER_BOUND ( 'NONE', #200, .T. ) ;
#45 =( CONVERSION_BASED_UNIT ( 'INCH', #147 ) LENGTH_UNIT ( ) NAMED_UNIT ( #148 ) );
#46 =( NAMED_UNIT ( * ) SI_UNIT ( $, .STERADIAN. ) SOLID_ANGLE_UNIT ( ) );
#47 = AXIS2_PLACEMENT_3D ( 'NONE', #160, #30, #120 ) ;
#48 = APPLICATION_PROTOCOL_DEFINITION ( 'draft international standard', 'automotive_design', 1998, #193 ) ;
#49 = FILL_AREA_STYLE ('',( #106 ) ) ;
#50 = EDGE_CURVE ( 'NONE', #51, #216, #63, .T. ) ;
#51 = VERTEX_POINT ( 'NONE', #56 ) ;
#52 = ORIENTED_EDGE ( 'NONE', *, *, #50, .F. ) ;
#53 = EDGE_CURVE ( 'NONE', #108, #84, #205, .T. ) ;
#54 = ORIENTED_EDGE ( 'NONE', *, *, #128, .T. ) ;
#55 = DIRECTION ( 'NONE',  ( 0.5000000000000013323, 0.0000000000000000000, 0.8660254037844377084 ) ) ;
#56 = CARTESIAN_POINT ( 'NONE',  ( -0.1250000000000000000, 0.0000000000000000000, 2.485000000000000320 ) ) ;
#57 = EDGE_CURVE ( 'NONE', #58, #59, #220, .T. ) ;
#58 = VERTEX_POINT ( 'NONE', #182 ) ;
#59 = VERTEX_POINT ( 'NONE', #61 ) ;
#60 = DIRECTION ( 'NONE',  ( 1.000000000000000000, 0.0000000000000000000, 0.0000000000000000000 ) ) ;
#61 = CARTESIAN_POINT ( 'NONE',  ( 0.1100000000000001948, 1.438959988998141146E-17, 2.500000000000000000 ) ) ;
#62 = SURFACE_STYLE_FILL_AREA ( #204 ) ;
#63 = CIRCLE ( 'NONE', #214, 0.1250000000000000000 ) ;
#64 = COLOUR_RGB ( '',0.7921568627450980005, 0.8196078431372548767, 0.9333333333333333481 ) ;
#65 = CARTESIAN_POINT ( 'NONE',  ( 0.1250000000000000000, 1.530808498934191509E-17, 0.1645448267190427194 ) ) ;
#66 = DIRECTION ( 'NONE',  ( -0.0000000000000000000, -0.0000000000000000000, -1.000000000000000000 ) ) ;
#67 = DIRECTION ( 'NONE',  ( 0.0000000000000000000, 0.0000000000000000000, 1.000000000000000000 ) ) ;
#68 = LENGTH_MEASURE_WITH_UNIT ( LENGTH_MEASURE( 0.02539999999999999897 ), #245 );
#69 = AXIS2_PLACEMENT_3D ( 'NONE', #115, #23, #117 ) ;
#70 = DIRECTION ( 'NONE',  ( 0.0000000000000000000, 0.0000000000000000000, -1.000000000000000000 ) ) ;
#71 = UNCERTAINTY_MEASURE_WITH_UNIT (LENGTH_MEASURE( 1.000000000000000082E-05 ), #45, 'distance_accuracy_value', 'NONE');
#72 = DIRECTION ( 'NONE',  ( 1.000000000000000000, 0.0000000000000000000, 0.0000000000000000000 ) ) ;
#73 = ORIENTED_EDGE ( 'NONE', *, *, #128, .F. ) ;
#74 = AXIS2_PLACEMENT_3D ( 'NONE', #37, #110, #168 ) ;
#75 = EDGE_LOOP ( 'NONE', ( #247, #227, #33, #122 ) ) ;
#76 = SHAPE_DEFINITION_REPRESENTATION ( #124, #18 ) ;
#77 = ORIENTED_EDGE ( 'NONE', *, *, #34, .T. ) ;
#78 = DIRECTION ( 'NONE',  ( 1.000000000000000000, 0.0000000000000000000, 0.0000000000000000000 ) ) ;
#79 = DIRECTION ( 'NONE',  ( 1.000000000000000000, 0.0000000000000000000, -0.0000000000000000000 ) ) ;
#80 = STYLED_ITEM ( 'NONE', ( #139 ), #196 ) ;
#81 =( NAMED_UNIT ( * ) PLANE_ANGLE_UNIT ( ) SI_UNIT ( $, .RADIAN. ) );
#82 = CARTESIAN_POINT ( 'NONE',  ( 0.0000000000000000000, 0.0000000000000000000, 0.0000000000000000000 ) ) ;
#83 = CONICAL_SURFACE ( 'NONE', #74, 0.02999999999999999889, 0.5235987755983005920 ) ;
#84 = VERTEX_POINT ( 'NONE', #218 ) ;
#85 = EDGE_CURVE ( 'NONE', #38, #224, #167, .T. ) ;
#86 = FACE_OUTER_BOUND ( 'NONE', #173, .T. ) ;
#87 = DIRECTION ( 'NONE',  ( -0.0000000000000000000, -0.0000000000000000000, -1.000000000000000000 ) ) ;
#88 = CARTESIAN_POINT ( 'NONE',  ( 0.0000000000000000000, 0.0000000000000000000, 0.1645448267190427194 ) ) ;
#89 = ADVANCED_FACE ( 'NONE', ( #141 ), #29, .T. ) ;
#90 = DIRECTION ( 'NONE',  ( -1.000000000000000000, 0.0000000000000000000, 0.0000000000000000000 ) ) ;
#91 = MECHANICAL_DESIGN_GEOMETRIC_PRESENTATION_REPRESENTATION (  '', ( #163 ), #187 ) ;
#92 = AXIS2_PLACEMENT_3D ( 'NONE', #154, #87, #157 ) ;
#93 = AXIS2_PLACEMENT_3D ( 'NONE', #244, #67, #242 ) ;
#94 = EDGE_LOOP ( 'NONE', ( #73, #152, #52, #112 ) ) ;
#95 = CARTESIAN_POINT ( 'NONE',  ( 0.0000000000000000000, 0.0000000000000000000, 2.500000000000000000 ) ) ;
#96 = CARTESIAN_POINT ( 'NONE',  ( 0.0000000000000000000, 0.0000000000000000000, 2.500000000000000000 ) ) ;
#97 = DIRECTION ( 'NONE',  ( 0.7071067811865499042, 8.659560562354961208E-17, -0.7071067811865451302 ) ) ;
#98 = AXIS2_PLACEMENT_3D ( 'NONE', #180, #240, #60 ) ;
#99 = CYLINDRICAL_SURFACE ( 'NONE', #35, 0.1250000000000000000 ) ;
#100 = CARTESIAN_POINT ( 'NONE',  ( -0.1100000000000001948, 0.0000000000000000000, 2.500000000000000000 ) ) ;
#101 = VECTOR ( 'NONE', #207, 39.37007874015748143 ) ;
#102 = EDGE_CURVE ( 'NONE', #59, #216, #203, .T. ) ;
#103 = DIRECTION ( 'NONE',  ( -0.7071067811865499042, 0.0000000000000000000, -0.7071067811865451302 ) ) ;
#104 = ORIENTED_EDGE ( 'NONE', *, *, #102, .F. ) ;
#105 = AXIS2_PLACEMENT_3D ( 'NONE', #82, #158, #138 ) ;
#106 = FILL_AREA_STYLE_COLOUR ( '', #64 ) ;
#107 = ADVANCED_FACE ( 'NONE', ( #1 ), #123, .T. ) ;
#108 = VERTEX_POINT ( 'NONE', #65 ) ;
#109 = AXIS2_PLACEMENT_3D ( 'NONE', #184, #66, #142 ) ;
#110 = DIRECTION ( 'NONE',  ( 0.0000000000000000000, 0.0000000000000000000, 1.000000000000000000 ) ) ;
#111 = ORIENTED_EDGE ( 'NONE', *, *, #50, .T. ) ;
#112 = ORIENTED_EDGE ( 'NONE', *, *, #238, .F. ) ;
#113 = AXIS2_PLACEMENT_3D ( 'NONE', #233, #199, #17 ) ;
#114 = DIRECTION ( 'NONE',  ( -1.000000000000000000, 0.0000000000000000000, 0.0000000000000000000 ) ) ;
#115 = CARTESIAN_POINT ( 'NONE',  ( 0.0000000000000000000, 0.0000000000000000000, 0.0000000000000000000 ) ) ;
#116 = FILL_AREA_STYLE_COLOUR ( '', #31 ) ;
#117 = DIRECTION ( 'NONE',  ( 1.000000000000000000, 0.0000000000000000000, -0.0000000000000000000 ) ) ;
#118 = CONICAL_SURFACE ( 'NONE', #47, 0.1100000000000001948, 0.7853981633974517207 ) ;
#119 = DIRECTION ( 'NONE',  ( -0.0000000000000000000, -0.0000000000000000000, -1.000000000000000000 ) ) ;
#120 = DIRECTION ( 'NONE',  ( -1.000000000000000000, 0.0000000000000000000, 0.0000000000000000000 ) ) ;
#121 = EDGE_CURVE ( 'NONE', #216, #108, #223, .T. ) ;
#122 = ORIENTED_EDGE ( 'NONE', *, *, #53, .F. ) ;
#123 = CONICAL_SURFACE ( 'NONE', #165, 0.02999999999999999889, 0.5235987755983005920 ) ;
#124 = PRODUCT_DEFINITION_SHAPE ( 'NONE', 'NONE',  #9 ) ;
#125 = SURFACE_STYLE_USAGE ( .BOTH. , #211 ) ;
#126 = UNCERTAINTY_MEASURE_WITH_UNIT (LENGTH_MEASURE( 1.000000000000000082E-05 ), #127, 'distance_accuracy_value', 'NONE');
#127 =( CONVERSION_BASED_UNIT ( 'INCH', #68 ) LENGTH_UNIT ( ) NAMED_UNIT ( #14 ) );
#128 = EDGE_CURVE ( 'NONE', #59, #58, #21, .T. ) ;
#129 = PRODUCT_DEFINITION_CONTEXT ( 'detailed design', #172, 'design' ) ;
#130 = ORIENTED_EDGE ( 'NONE', *, *, #121, .T. ) ;
#131 = LINE ( 'NONE', #213, #26 ) ;
#132 = DIRECTION ( 'NONE',  ( -0.0000000000000000000, -0.0000000000000000000, -1.000000000000000000 ) ) ;
#133 = DIRECTION ( 'NONE',  ( -1.000000000000000000, 0.0000000000000000000, 0.0000000000000000000 ) ) ;
#134 = EDGE_LOOP ( 'NONE', ( #246, #54 ) ) ;
#135 = ORIENTED_EDGE ( 'NONE', *, *, #53, .T. ) ;
#136 = AXIS2_PLACEMENT_3D ( 'NONE', #96, #2, #79 ) ;
#137 = LINE ( 'NONE', #202, #185 ) ;
#138 = DIRECTION ( 'NONE',  ( -1.000000000000000000, 0.0000000000000000000, 0.0000000000000000000 ) ) ;
#139 = PRESENTATION_STYLE_ASSIGNMENT (( #179 ) ) ;
#140 =( NAMED_UNIT ( * ) SI_UNIT ( $, .STERADIAN. ) SOLID_ANGLE_UNIT ( ) );
#141 = FACE_OUTER_BOUND ( 'NONE', #75, .T. ) ;
#142 = DIRECTION ( 'NONE',  ( -1.000000000000000000, 0.0000000000000000000, 0.0000000000000000000 ) ) ;
#143 = ORIENTED_EDGE ( 'NONE', *, *, #210, .T. ) ;
#144 = CARTESIAN_POINT ( 'NONE',  ( 0.1250000000000000000, 1.530808498934191509E-17, 2.485000000000000320 ) ) ;
#145 = ORIENTED_EDGE ( 'NONE', *, *, #238, .T. ) ;
#146 = ADVANCED_FACE ( 'NONE', ( #44 ), #99, .T. ) ;
#147 = LENGTH_MEASURE_WITH_UNIT ( LENGTH_MEASURE( 0.02539999999999999897 ), #12 );
#148 = DIMENSIONAL_EXPONENTS ( 1.000000000000000000, 0.0000000000000000000, 0.0000000000000000000, 0.0000000000000000000, 0.0000000000000000000, 0.0000000000000000000, 0.0000000000000000000 ) ;
#149 = AXIS2_PLACEMENT_3D ( 'NONE', #249, #153, #212 ) ;
#150 = PRESENTATION_LAYER_ASSIGNMENT (  '', '', ( #163 ) ) ;
#151 = APPLICATION_PROTOCOL_DEFINITION ( 'draft international standard', 'automotive_design', 1998, #172 ) ;
#152 = ORIENTED_EDGE ( 'NONE', *, *, #102, .T. ) ;
#153 = DIRECTION ( 'NONE',  ( 0.0000000000000000000, 0.0000000000000000000, -1.000000000000000000 ) ) ;
#154 = CARTESIAN_POINT ( 'NONE',  ( 0.0000000000000000000, 0.0000000000000000000, 0.1645448267190427194 ) ) ;
#155 = MECHANICAL_DESIGN_GEOMETRIC_PRESENTATION_REPRESENTATION (  '', ( #80 ), #159 ) ;
#156 = LINE ( 'NONE', #231, #239 ) ;
#157 = DIRECTION ( 'NONE',  ( -1.000000000000000000, 0.0000000000000000000, 0.0000000000000000000 ) ) ;
#158 = DIRECTION ( 'NONE',  ( -0.0000000000000000000, -0.0000000000000000000, -1.000000000000000000 ) ) ;
#159 =( GEOMETRIC_REPRESENTATION_CONTEXT ( 3 ) GLOBAL_UNCERTAINTY_ASSIGNED_CONTEXT ( ( #181 ) ) GLOBAL_UNIT_ASSIGNED_CONTEXT ( ( #206, #81, #140 ) ) REPRESENTATION_CONTEXT ( 'NONE', 'WORKASPACE' ) );
#160 = CARTESIAN_POINT ( 'NONE',  ( 0.0000000000000000000, 0.0000000000000000000, 2.500000000000000000 ) ) ;
#161 =( LENGTH_UNIT ( ) NAMED_UNIT ( * ) SI_UNIT ( $, .METRE. ) );
#162 = PRODUCT_RELATED_PRODUCT_CATEGORY ( 'part', '', ( #188 ) ) ;
#163 = STYLED_ITEM ( 'NONE', ( #186 ), #18 ) ;
#164 = CARTESIAN_POINT ( 'NONE',  ( 0.0000000000000000000, 0.0000000000000000000, 2.500000000000000000 ) ) ;
#165 = AXIS2_PLACEMENT_3D ( 'NONE', #219, #42, #78 ) ;
#166 =( NAMED_UNIT ( * ) PLANE_ANGLE_UNIT ( ) SI_UNIT ( $, .RADIAN. ) );
#167 = CIRCLE ( 'NONE', #105, 0.02999999999999999889 ) ;
#168 = DIRECTION ( 'NONE',  ( 1.000000000000000000, 0.0000000000000000000, 0.0000000000000000000 ) ) ;
#169 = CONICAL_SURFACE ( 'NONE', #232, 0.1100000000000001948, 0.7853981633974517207 ) ;
#170 = CARTESIAN_POINT ( 'NONE',  ( 0.02999999999999999889, 0.0000000000000000000, 0.0000000000000000000 ) ) ;
#171 = ORIENTED_EDGE ( 'NONE', *, *, #177, .T. ) ;
#172 = APPLICATION_CONTEXT ( 'automotive_design' ) ;
#173 = EDGE_LOOP ( 'NONE', ( #174, #19, #215, #135 ) ) ;
#174 = ORIENTED_EDGE ( 'NONE', *, *, #177, .F. ) ;
#175 = CARTESIAN_POINT ( 'NONE',  ( 0.1100000000000001948, 1.347111479062090784E-17, 2.500000000000000000 ) ) ;
#176 = FACE_OUTER_BOUND ( 'NONE', #134, .T. ) ;
#177 = EDGE_CURVE ( 'NONE', #224, #84, #137, .T. ) ;
#178 = VECTOR ( 'NONE', #103, 39.37007874015748143 ) ;
#179 = SURFACE_STYLE_USAGE ( .BOTH. , #25 ) ;
#180 = CARTESIAN_POINT ( 'NONE',  ( 0.0000000000000000000, 0.0000000000000000000, 2.500000000000000000 ) ) ;
#181 = UNCERTAINTY_MEASURE_WITH_UNIT (LENGTH_MEASURE( 1.000000000000000082E-05 ), #206, 'distance_accuracy_value', 'NONE');
#182 = CARTESIAN_POINT ( 'NONE',  ( -0.1100000000000001948, 0.0000000000000000000, 2.500000000000000000 ) ) ;
#183 = ADVANCED_FACE ( 'NONE', ( #237 ), #22, .F. ) ;
#184 = CARTESIAN_POINT ( 'NONE',  ( 0.0000000000000000000, 0.0000000000000000000, 0.0000000000000000000 ) ) ;
#185 = VECTOR ( 'NONE', #41, 39.37007874015748854 ) ;
#186 = PRESENTATION_STYLE_ASSIGNMENT (( #125 ) ) ;
#187 =( GEOMETRIC_REPRESENTATION_CONTEXT ( 3 ) GLOBAL_UNCERTAINTY_ASSIGNED_CONTEXT ( ( #71 ) ) GLOBAL_UNIT_ASSIGNED_CONTEXT ( ( #45, #243, #46 ) ) REPRESENTATION_CONTEXT ( 'NONE', 'WORKASPACE' ) );
#188 = PRODUCT ( 'Micro_RSC-250-160', 'Micro_RSC-250-160', '', ( #10 ) ) ;
#189 = FACE_OUTER_BOUND ( 'NONE', #94, .T. ) ;
#190 = FACE_OUTER_BOUND ( 'NONE', #15, .T. ) ;
#191 = DIMENSIONAL_EXPONENTS ( 1.000000000000000000, 0.0000000000000000000, 0.0000000000000000000, 0.0000000000000000000, 0.0000000000000000000, 0.0000000000000000000, 0.0000000000000000000 ) ;
#192 = EDGE_LOOP ( 'NONE', ( #248, #171, #77, #36 ) ) ;
#193 = APPLICATION_CONTEXT ( 'automotive_design' ) ;
#194 = CIRCLE ( 'NONE', #92, 0.1250000000000000000 ) ;
#195 = ADVANCED_FACE ( 'NONE', ( #176 ), #28, .T. ) ;
#196 = MANIFOLD_SOLID_BREP ( 'Cut-Revolve1', #11 ) ;
#197 = DIRECTION ( 'NONE',  ( 0.0000000000000000000, 0.0000000000000000000, -1.000000000000000000 ) ) ;
#198 = ADVANCED_FACE ( 'NONE', ( #189 ), #118, .T. ) ;
#199 = DIRECTION ( 'NONE',  ( 0.0000000000000000000, 0.0000000000000000000, 1.000000000000000000 ) ) ;
#200 = EDGE_LOOP ( 'NONE', ( #111, #130, #230, #217 ) ) ;
#201 = VECTOR ( 'NONE', #97, 39.37007874015748143 ) ;
#202 = CARTESIAN_POINT ( 'NONE',  ( -0.02999999999999999889, 3.673940397442059190E-18, 0.0000000000000000000 ) ) ;
#203 = LINE ( 'NONE', #175, #201 ) ;
#204 = FILL_AREA_STYLE ('',( #116 ) ) ;
#205 = CIRCLE ( 'NONE', #208, 0.1250000000000000000 ) ;
#206 =( CONVERSION_BASED_UNIT ( 'INCH', #43 ) LENGTH_UNIT ( ) NAMED_UNIT ( #191 ) );
#207 = DIRECTION ( 'NONE',  ( -0.0000000000000000000, -0.0000000000000000000, -1.000000000000000000 ) ) ;
#208 = AXIS2_PLACEMENT_3D ( 'NONE', #88, #132, #133 ) ;
#209 = ORIENTED_EDGE ( 'NONE', *, *, #57, .F. ) ;
#210 = EDGE_CURVE ( 'NONE', #224, #38, #225, .T. ) ;
#211 = SURFACE_SIDE_STYLE ('',( #241 ) ) ;
#212 = DIRECTION ( 'NONE',  ( 1.000000000000000000, 0.0000000000000000000, 0.0000000000000000000 ) ) ;
#213 = CARTESIAN_POINT ( 'NONE',  ( 0.02999999999999999889, 0.0000000000000000000, 0.0000000000000000000 ) ) ;
#214 = AXIS2_PLACEMENT_3D ( 'NONE', #13, #197, #72 ) ;
#215 = ORIENTED_EDGE ( 'NONE', *, *, #4, .T. ) ;
#216 = VERTEX_POINT ( 'NONE', #144 ) ;
#217 = ORIENTED_EDGE ( 'NONE', *, *, #24, .F. ) ;
#218 = CARTESIAN_POINT ( 'NONE',  ( -0.1250000000000000000, 0.0000000000000000000, 0.1645448267190427194 ) ) ;
#219 = CARTESIAN_POINT ( 'NONE',  ( 0.0000000000000000000, 0.0000000000000000000, 0.0000000000000000000 ) ) ;
#220 = CIRCLE ( 'NONE', #113, 0.1100000000000001948 ) ;
#221 = PRODUCT_DEFINITION_FORMATION_WITH_SPECIFIED_SOURCE ( 'ANY', '', #188, .NOT_KNOWN. ) ;
#222 = DIRECTION ( 'NONE',  ( -0.0000000000000000000, -0.0000000000000000000, -1.000000000000000000 ) ) ;
#223 = LINE ( 'NONE', #235, #101 ) ;
#224 = VERTEX_POINT ( 'NONE', #226 ) ;
#225 = CIRCLE ( 'NONE', #109, 0.02999999999999999889 ) ;
#226 = CARTESIAN_POINT ( 'NONE',  ( -0.02999999999999999889, 9.491012693391989451E-18, 0.0000000000000000000 ) ) ;
#227 = ORIENTED_EDGE ( 'NONE', *, *, #20, .T. ) ;
#228 = EDGE_LOOP ( 'NONE', ( #234, #143 ) ) ;
#229 =( GEOMETRIC_REPRESENTATION_CONTEXT ( 3 ) GLOBAL_UNCERTAINTY_ASSIGNED_CONTEXT ( ( #126 ) ) GLOBAL_UNIT_ASSIGNED_CONTEXT ( ( #127, #166, #7 ) ) REPRESENTATION_CONTEXT ( 'NONE', 'WORKASPACE' ) );
#230 = ORIENTED_EDGE ( 'NONE', *, *, #34, .F. ) ;
#231 = CARTESIAN_POINT ( 'NONE',  ( -0.1250000000000000000, 0.0000000000000000000, 2.500000000000000000 ) ) ;
#232 = AXIS2_PLACEMENT_3D ( 'NONE', #39, #70, #90 ) ;
#233 = CARTESIAN_POINT ( 'NONE',  ( 0.0000000000000000000, 0.0000000000000000000, 2.500000000000000000 ) ) ;
#234 = ORIENTED_EDGE ( 'NONE', *, *, #85, .T. ) ;
#235 = CARTESIAN_POINT ( 'NONE',  ( 0.1250000000000000000, 1.530808498934191509E-17, 2.500000000000000000 ) ) ;
#236 = PRESENTATION_LAYER_ASSIGNMENT (  '', '', ( #80 ) ) ;
#237 = FACE_OUTER_BOUND ( 'NONE', #228, .T. ) ;
#238 = EDGE_CURVE ( 'NONE', #58, #51, #32, .T. ) ;
#239 = VECTOR ( 'NONE', #16, 39.37007874015748143 ) ;
#240 = DIRECTION ( 'NONE',  ( 0.0000000000000000000, 0.0000000000000000000, 1.000000000000000000 ) ) ;
#241 = SURFACE_STYLE_FILL_AREA ( #49 ) ;
#242 = DIRECTION ( 'NONE',  ( 1.000000000000000000, 0.0000000000000000000, 0.0000000000000000000 ) ) ;
#243 =( NAMED_UNIT ( * ) PLANE_ANGLE_UNIT ( ) SI_UNIT ( $, .RADIAN. ) );
#244 = CARTESIAN_POINT ( 'NONE',  ( 0.0000000000000000000, 0.0000000000000000000, 0.0000000000000000000 ) ) ;
#245 =( LENGTH_UNIT ( ) NAMED_UNIT ( * ) SI_UNIT ( $, .METRE. ) );
#246 = ORIENTED_EDGE ( 'NONE', *, *, #57, .T. ) ;
#247 = ORIENTED_EDGE ( 'NONE', *, *, #121, .F. ) ;
#248 = ORIENTED_EDGE ( 'NONE', *, *, #210, .F. ) ;
#249 = CARTESIAN_POINT ( 'NONE',  ( 0.0000000000000000000, 0.0000000000000000000, 2.485000000000000320 ) ) ;
ENDSEC;
END-ISO-10303-21;
