ISO-10303-21;
HEADER;
FILE_DESCRIPTION (( 'STEP AP214' ),
    '1' );
FILE_NAME ('Micro_KC-500-750-120.STEP',
    '2021-09-03T19:58:36',
    ( '' ),
    ( '' ),
    'SwSTEP 2.0',
    'SolidWorks 2020',
    '' );
FILE_SCHEMA (( 'AUTOMOTIVE_DESIGN' ));
ENDSEC;

DATA;
#1 = DIRECTION ( 'NONE',  ( -1.000000000000000000, 0.0000000000000000000, 0.0000000000000000000 ) ) ;
#2 = ORIENTED_EDGE ( 'NONE', *, *, #375, .T. ) ;
#3 = PLANE ( 'NONE',  #88 ) ;
#4 = PRODUCT ( 'Micro_KC-500-750-120', 'Micro_KC-500-750-120', '', ( #361 ) ) ;
#5 = AXIS2_PLACEMENT_3D ( 'NONE', #45, #246, #284 ) ;
#6 = AXIS2_PLACEMENT_3D ( 'NONE', #125, #211, #66 ) ;
#7 = DIRECTION ( 'NONE',  ( -1.000000000000000000, 0.0000000000000000000, 0.0000000000000000000 ) ) ;
#8 = CYLINDRICAL_SURFACE ( 'NONE', #6, 0.2500000000000000000 ) ;
#9 = FACE_OUTER_BOUND ( 'NONE', #18, .T. ) ;
#10 = CARTESIAN_POINT ( 'NONE',  ( 0.1250000000000000833, 0.0000000000000000000, 0.7500000000000001110 ) ) ;
#11 = DIRECTION ( 'NONE',  ( 0.0000000000000000000, 0.0000000000000000000, 1.000000000000000000 ) ) ;
#12 = CIRCLE ( 'NONE', #294, 0.2500000000000000000 ) ;
#13 =( NAMED_UNIT ( * ) SI_UNIT ( $, .STERADIAN. ) SOLID_ANGLE_UNIT ( ) );
#14 =( GEOMETRIC_REPRESENTATION_CONTEXT ( 3 ) GLOBAL_UNCERTAINTY_ASSIGNED_CONTEXT ( ( #41 ) ) GLOBAL_UNIT_ASSIGNED_CONTEXT ( ( #283, #254, #13 ) ) REPRESENTATION_CONTEXT ( 'NONE', 'WORKASPACE' ) );
#15 = CARTESIAN_POINT ( 'NONE',  ( 0.2500000000000000555, 0.0000000000000000000, 0.1200000000000000233 ) ) ;
#16 = EDGE_CURVE ( 'NONE', #112, #78, #252, .T. ) ;
#17 = DIRECTION ( 'NONE',  ( 0.0000000000000000000, 0.0000000000000000000, 1.000000000000000000 ) ) ;
#18 = EDGE_LOOP ( 'NONE', ( #376, #60, #370, #228 ) ) ;
#19 = VECTOR ( 'NONE', #97, 39.37007874015748854 ) ;
#20 = VERTEX_POINT ( 'NONE', #61 ) ;
#21 = EDGE_LOOP ( 'NONE', ( #87, #377, #27, #222 ) ) ;
#22 = DIRECTION ( 'NONE',  ( 0.7071067811865402453, 8.659560562354845344E-17, -0.7071067811865546782 ) ) ;
#23 = ORIENTED_EDGE ( 'NONE', *, *, #338, .T. ) ;
#24 = EDGE_CURVE ( 'NONE', #145, #348, #250, .T. ) ;
#25 = VECTOR ( 'NONE', #42, 39.37007874015748143 ) ;
#26 = EDGE_LOOP ( 'NONE', ( #166, #315, #144, #23 ) ) ;
#27 = ORIENTED_EDGE ( 'NONE', *, *, #177, .F. ) ;
#28 = DIRECTION ( 'NONE',  ( 0.0000000000000000000, 0.0000000000000000000, -1.000000000000000000 ) ) ;
#29 = DIRECTION ( 'NONE',  ( 0.0000000000000000000, 0.0000000000000000000, 1.000000000000000000 ) ) ;
#30 = CONICAL_SURFACE ( 'NONE', #37, 0.2350000000000011524, 0.7853981633974380649 ) ;
#31 = FACE_OUTER_BOUND ( 'NONE', #199, .T. ) ;
#32 = CARTESIAN_POINT ( 'NONE',  ( -0.2500000000000000000, 0.0000000000000000000, 3.000000000000000444 ) ) ;
#33 = DIMENSIONAL_EXPONENTS ( 1.000000000000000000, 0.0000000000000000000, 0.0000000000000000000, 0.0000000000000000000, 0.0000000000000000000, 0.0000000000000000000, 0.0000000000000000000 ) ;
#34 = DIRECTION ( 'NONE',  ( 0.0000000000000000000, 0.0000000000000000000, 1.000000000000000000 ) ) ;
#35 = AXIS2_PLACEMENT_3D ( 'NONE', #38, #208, #333 ) ;
#36 = CARTESIAN_POINT ( 'NONE',  ( 0.0000000000000000000, 0.0000000000000000000, 0.0000000000000000000 ) ) ;
#37 = AXIS2_PLACEMENT_3D ( 'NONE', #155, #242, #360 ) ;
#38 = CARTESIAN_POINT ( 'NONE',  ( 0.0000000000000000000, 0.0000000000000000000, 3.000000000000000444 ) ) ;
#39 = FACE_OUTER_BOUND ( 'NONE', #26, .T. ) ;
#40 = FACE_OUTER_BOUND ( 'NONE', #21, .T. ) ;
#41 = UNCERTAINTY_MEASURE_WITH_UNIT (LENGTH_MEASURE( 1.000000000000000082E-05 ), #283, 'distance_accuracy_value', 'NONE');
#42 = DIRECTION ( 'NONE',  ( -0.0000000000000000000, -0.0000000000000000000, -1.000000000000000000 ) ) ;
#43 = MECHANICAL_DESIGN_GEOMETRIC_PRESENTATION_REPRESENTATION (  '', ( #362 ), #349 ) ;
#44 = ADVANCED_FACE ( 'NONE', ( #148 ), #350, .T. ) ;
#45 = CARTESIAN_POINT ( 'NONE',  ( 0.0000000000000000000, 0.0000000000000000000, 3.000000000000000444 ) ) ;
#46 = ORIENTED_EDGE ( 'NONE', *, *, #165, .F. ) ;
#47 = ORIENTED_EDGE ( 'NONE', *, *, #371, .F. ) ;
#48 = EDGE_CURVE ( 'NONE', #171, #270, #120, .T. ) ;
#49 = ORIENTED_EDGE ( 'NONE', *, *, #177, .T. ) ;
#50 = ORIENTED_EDGE ( 'NONE', *, *, #90, .T. ) ;
#51 = ADVANCED_FACE ( 'NONE', ( #92 ), #111, .T. ) ;
#52 = CONICAL_SURFACE ( 'NONE', #196, 0.2350000000000011524, 0.7853981633974380649 ) ;
#53 = CARTESIAN_POINT ( 'NONE',  ( 0.2500000000000000000, 3.061616997868382402E-17, 3.000000000000000444 ) ) ;
#54 = CARTESIAN_POINT ( 'NONE',  ( 0.0000000000000000000, 0.0000000000000000000, 0.1199999999999999956 ) ) ;
#55 = ADVANCED_BREP_SHAPE_REPRESENTATION ( 'Micro_KC-500-750-120', ( #124, #81 ), #14 ) ;
#56 = DIRECTION ( 'NONE',  ( 0.0000000000000000000, 0.0000000000000000000, 1.000000000000000000 ) ) ;
#57 = DIRECTION ( 'NONE',  ( -0.0000000000000000000, -0.0000000000000000000, -1.000000000000000000 ) ) ;
#58 = VECTOR ( 'NONE', #219, 39.37007874015748143 ) ;
#59 = EDGE_CURVE ( 'NONE', #270, #291, #325, .T. ) ;
#60 = ORIENTED_EDGE ( 'NONE', *, *, #24, .T. ) ;
#61 = CARTESIAN_POINT ( 'NONE',  ( 0.2500000000000000000, 3.061616997868382402E-17, 0.8749999999999994449 ) ) ;
#62 = EDGE_CURVE ( 'NONE', #256, #112, #142, .T. ) ;
#63 = CARTESIAN_POINT ( 'NONE',  ( 0.0000000000000000000, 0.0000000000000000000, 0.0000000000000000000 ) ) ;
#64 = DIRECTION ( 'NONE',  ( -1.000000000000000000, 0.0000000000000000000, 0.0000000000000000000 ) ) ;
#65 = CIRCLE ( 'NONE', #161, 0.1250000000000000278 ) ;
#66 = DIRECTION ( 'NONE',  ( -1.000000000000000000, 0.0000000000000000000, 0.0000000000000000000 ) ) ;
#67 = FILL_AREA_STYLE_COLOUR ( '', #220 ) ;
#68 = DIRECTION ( 'NONE',  ( 0.0000000000000000000, 0.0000000000000000000, 1.000000000000000000 ) ) ;
#69 = CARTESIAN_POINT ( 'NONE',  ( -0.2500000000000000000, 0.0000000000000000000, 2.985000000000001208 ) ) ;
#70 = LENGTH_MEASURE_WITH_UNIT ( LENGTH_MEASURE( 0.02539999999999999897 ), #130 );
#71 = DIRECTION ( 'NONE',  ( 1.000000000000000000, 0.0000000000000000000, 0.0000000000000000000 ) ) ;
#72 = DIRECTION ( 'NONE',  ( -0.7071067811865490160, 8.659560562354951347E-17, 0.7071067811865460184 ) ) ;
#73 = CARTESIAN_POINT ( 'NONE',  ( 0.0000000000000000000, 0.0000000000000000000, 3.000000000000000444 ) ) ;
#74 = EDGE_CURVE ( 'NONE', #253, #223, #180, .T. ) ;
#75 = AXIS2_PLACEMENT_3D ( 'NONE', #176, #204, #353 ) ;
#76 = LINE ( 'NONE', #132, #117 ) ;
#77 = DIRECTION ( 'NONE',  ( 0.0000000000000000000, 0.0000000000000000000, 1.000000000000000000 ) ) ;
#78 = VERTEX_POINT ( 'NONE', #297 ) ;
#79 = ORIENTED_EDGE ( 'NONE', *, *, #292, .F. ) ;
#80 = PRESENTATION_LAYER_ASSIGNMENT (  '', '', ( #362 ) ) ;
#81 = AXIS2_PLACEMENT_3D ( 'NONE', #187, #170, #305 ) ;
#82 = AXIS2_PLACEMENT_3D ( 'NONE', #73, #153, #313 ) ;
#83 = SURFACE_STYLE_USAGE ( .BOTH. , #336 ) ;
#84 = ORIENTED_EDGE ( 'NONE', *, *, #59, .T. ) ;
#85 = VERTEX_POINT ( 'NONE', #119 ) ;
#86 = EDGE_CURVE ( 'NONE', #348, #85, #351, .T. ) ;
#87 = ORIENTED_EDGE ( 'NONE', *, *, #74, .F. ) ;
#88 = AXIS2_PLACEMENT_3D ( 'NONE', #149, #56, #296 ) ;
#89 = AXIS2_PLACEMENT_3D ( 'NONE', #311, #344, #100 ) ;
#90 = EDGE_CURVE ( 'NONE', #145, #20, #182, .T. ) ;
#91 = DIRECTION ( 'NONE',  ( -0.0000000000000000000, -0.0000000000000000000, -1.000000000000000000 ) ) ;
#92 = FACE_OUTER_BOUND ( 'NONE', #258, .T. ) ;
#93 = DIRECTION ( 'NONE',  ( 1.000000000000000000, 0.0000000000000000000, 0.0000000000000000000 ) ) ;
#94 = PRODUCT_DEFINITION ( 'UNKNOWN', '', #299, #163 ) ;
#95 = DIRECTION ( 'NONE',  ( -0.0000000000000000000, -0.0000000000000000000, -1.000000000000000000 ) ) ;
#96 = DIRECTION ( 'NONE',  ( -1.000000000000000000, 0.0000000000000000000, 0.0000000000000000000 ) ) ;
#97 = DIRECTION ( 'NONE',  ( -0.7071067811865402453, 0.0000000000000000000, -0.7071067811865546782 ) ) ;
#98 = AXIS2_PLACEMENT_3D ( 'NONE', #357, #154, #329 ) ;
#99 = CARTESIAN_POINT ( 'NONE',  ( 0.0000000000000000000, 0.0000000000000000000, 0.8749999999999994449 ) ) ;
#100 = DIRECTION ( 'NONE',  ( -1.000000000000000000, 0.0000000000000000000, 0.0000000000000000000 ) ) ;
#101 = DIRECTION ( 'NONE',  ( 0.0000000000000000000, 0.0000000000000000000, -1.000000000000000000 ) ) ;
#102 = FACE_OUTER_BOUND ( 'NONE', #347, .T. ) ;
#103 = DIRECTION ( 'NONE',  ( -1.000000000000000000, 0.0000000000000000000, 0.0000000000000000000 ) ) ;
#104 = ADVANCED_FACE ( 'NONE', ( #31 ), #3, .F. ) ;
#105 = VECTOR ( 'NONE', #300, 39.37007874015748143 ) ;
#106 = AXIS2_PLACEMENT_3D ( 'NONE', #15, #77, #364 ) ;
#107 = ORIENTED_EDGE ( 'NONE', *, *, #16, .T. ) ;
#108 = ORIENTED_EDGE ( 'NONE', *, *, #375, .F. ) ;
#109 = ORIENTED_EDGE ( 'NONE', *, *, #160, .T. ) ;
#110 = EDGE_LOOP ( 'NONE', ( #173, #369, #198, #167 ) ) ;
#111 = CONICAL_SURFACE ( 'NONE', #174, 0.1250000000000000833, 0.7853981633974503884 ) ;
#112 = VERTEX_POINT ( 'NONE', #121 ) ;
#113 = EDGE_LOOP ( 'NONE', ( #373, #346, #262, #135 ) ) ;
#114 = ORIENTED_EDGE ( 'NONE', *, *, #175, .F. ) ;
#115 = CARTESIAN_POINT ( 'NONE',  ( -0.2500000000000000000, 0.0000000000000000000, 3.000000000000000444 ) ) ;
#116 = CIRCLE ( 'NONE', #168, 0.2350000000000011524 ) ;
#117 = VECTOR ( 'NONE', #22, 39.37007874015748854 ) ;
#118 = FILL_AREA_STYLE ('',( #267 ) ) ;
#119 = CARTESIAN_POINT ( 'NONE',  ( -0.2500000000000000000, 0.0000000000000000000, 0.8749999999999994449 ) ) ;
#120 = CIRCLE ( 'NONE', #259, 0.2500000000000000555 ) ;
#121 = CARTESIAN_POINT ( 'NONE',  ( -0.1250000000000000833, 2.296212748401287726E-17, 0.7500000000000001110 ) ) ;
#122 = DIMENSIONAL_EXPONENTS ( 1.000000000000000000, 0.0000000000000000000, 0.0000000000000000000, 0.0000000000000000000, 0.0000000000000000000, 0.0000000000000000000, 0.0000000000000000000 ) ;
#123 = DIRECTION ( 'NONE',  ( 1.000000000000000000, 0.0000000000000000000, 0.0000000000000000000 ) ) ;
#124 = MANIFOLD_SOLID_BREP ( 'Cut-Revolve1', #320 ) ;
#125 = CARTESIAN_POINT ( 'NONE',  ( 0.0000000000000000000, 0.0000000000000000000, 3.000000000000000444 ) ) ;
#126 = CARTESIAN_POINT ( 'NONE',  ( -0.2350000000000011524, 0.0000000000000000000, 3.000000000000000444 ) ) ;
#127 = CARTESIAN_POINT ( 'NONE',  ( -0.2500000000000000000, 0.0000000000000000000, 0.0000000000000000000 ) ) ;
#128 = CIRCLE ( 'NONE', #354, 0.2500000000000000555 ) ;
#129 = LINE ( 'NONE', #221, #58 ) ;
#130 =( LENGTH_UNIT ( ) NAMED_UNIT ( * ) SI_UNIT ( $, .METRE. ) );
#131 = CARTESIAN_POINT ( 'NONE',  ( 0.0000000000000000000, 0.0000000000000000000, 3.000000000000000444 ) ) ;
#132 = CARTESIAN_POINT ( 'NONE',  ( 0.2350000000000011524, 2.877919977996294002E-17, 3.000000000000000444 ) ) ;
#133 = EDGE_CURVE ( 'NONE', #85, #20, #201, .T. ) ;
#134 = LINE ( 'NONE', #159, #25 ) ;
#135 = ORIENTED_EDGE ( 'NONE', *, *, #16, .F. ) ;
#136 = COLOUR_RGB ( '',0.7921568627450980005, 0.8196078431372548767, 0.9333333333333333481 ) ;
#137 = ORIENTED_EDGE ( 'NONE', *, *, #24, .F. ) ;
#138 = ORIENTED_EDGE ( 'NONE', *, *, #209, .T. ) ;
#139 = FILL_AREA_STYLE ('',( #67 ) ) ;
#140 = ORIENTED_EDGE ( 'NONE', *, *, #62, .T. ) ;
#141 = PRODUCT_DEFINITION_SHAPE ( 'NONE', 'NONE',  #94 ) ;
#142 = CIRCLE ( 'NONE', #75, 0.1250000000000000833 ) ;
#143 = ADVANCED_FACE ( 'NONE', ( #9 ), #276, .T. ) ;
#144 = ORIENTED_EDGE ( 'NONE', *, *, #298, .T. ) ;
#145 = VERTEX_POINT ( 'NONE', #185 ) ;
#146 = ADVANCED_FACE ( 'NONE', ( #39 ), #265, .T. ) ;
#147 = SURFACE_SIDE_STYLE ('',( #235 ) ) ;
#148 = FACE_OUTER_BOUND ( 'NONE', #345, .T. ) ;
#149 = CARTESIAN_POINT ( 'NONE',  ( 0.0000000000000000000, 0.0000000000000000000, 0.0000000000000000000 ) ) ;
#150 = VERTEX_POINT ( 'NONE', #241 ) ;
#151 = DIRECTION ( 'NONE',  ( 0.0000000000000000000, 0.0000000000000000000, 1.000000000000000000 ) ) ;
#152 = CARTESIAN_POINT ( 'NONE',  ( 0.0000000000000000000, 0.0000000000000000000, 0.7500000000000001110 ) ) ;
#153 = DIRECTION ( 'NONE',  ( -0.0000000000000000000, -0.0000000000000000000, -1.000000000000000000 ) ) ;
#154 = DIRECTION ( 'NONE',  ( 0.0000000000000000000, 0.0000000000000000000, -1.000000000000000000 ) ) ;
#155 = CARTESIAN_POINT ( 'NONE',  ( 0.0000000000000000000, 0.0000000000000000000, 3.000000000000000444 ) ) ;
#156 = APPLICATION_PROTOCOL_DEFINITION ( 'draft international standard', 'automotive_design', 1998, #355 ) ;
#157 = ORIENTED_EDGE ( 'NONE', *, *, #165, .T. ) ;
#158 = CARTESIAN_POINT ( 'NONE',  ( 0.2500000000000000555, 3.061616997868383018E-17, 0.1199999999999999956 ) ) ;
#159 = CARTESIAN_POINT ( 'NONE',  ( 0.1250000000000000555, 1.530808498934192125E-17, 0.0000000000000000000 ) ) ;
#160 = EDGE_CURVE ( 'NONE', #223, #348, #359, .T. ) ;
#161 = AXIS2_PLACEMENT_3D ( 'NONE', #210, #274, #7 ) ;
#162 = CARTESIAN_POINT ( 'NONE',  ( -0.2350000000000011524, 0.0000000000000000000, 3.000000000000000444 ) ) ;
#163 = PRODUCT_DEFINITION_CONTEXT ( 'detailed design', #231, 'design' ) ;
#164 = FACE_OUTER_BOUND ( 'NONE', #288, .T. ) ;
#165 = EDGE_CURVE ( 'NONE', #291, #150, #233, .T. ) ;
#166 = ORIENTED_EDGE ( 'NONE', *, *, #352, .F. ) ;
#167 = ORIENTED_EDGE ( 'NONE', *, *, #59, .F. ) ;
#168 = AXIS2_PLACEMENT_3D ( 'NONE', #131, #17, #71 ) ;
#169 = ORIENTED_EDGE ( 'NONE', *, *, #224, .F. ) ;
#170 = DIRECTION ( 'NONE',  ( 0.0000000000000000000, 0.0000000000000000000, 1.000000000000000000 ) ) ;
#171 = VERTEX_POINT ( 'NONE', #158 ) ;
#172 = EDGE_CURVE ( 'NONE', #78, #230, #65, .T. ) ;
#173 = ORIENTED_EDGE ( 'NONE', *, *, #175, .T. ) ;
#174 = AXIS2_PLACEMENT_3D ( 'NONE', #207, #29, #183 ) ;
#175 = EDGE_CURVE ( 'NONE', #270, #171, #128, .T. ) ;
#176 = CARTESIAN_POINT ( 'NONE',  ( 0.0000000000000000000, 0.0000000000000000000, 0.7500000000000001110 ) ) ;
#177 = EDGE_CURVE ( 'NONE', #348, #145, #372, .T. ) ;
#178 = DIRECTION ( 'NONE',  ( -0.0000000000000000000, -0.0000000000000000000, -1.000000000000000000 ) ) ;
#179 = CARTESIAN_POINT ( 'NONE',  ( 0.0000000000000000000, 0.0000000000000000000, 0.0000000000000000000 ) ) ;
#180 = CIRCLE ( 'NONE', #244, 0.2350000000000011524 ) ;
#181 =( GEOMETRIC_REPRESENTATION_CONTEXT ( 3 ) GLOBAL_UNCERTAINTY_ASSIGNED_CONTEXT ( ( #229 ) ) GLOBAL_UNIT_ASSIGNED_CONTEXT ( ( #217, #243, #289 ) ) REPRESENTATION_CONTEXT ( 'NONE', 'WORKASPACE' ) );
#182 = LINE ( 'NONE', #53, #322 ) ;
#183 = DIRECTION ( 'NONE',  ( 1.000000000000000000, 0.0000000000000000000, 0.0000000000000000000 ) ) ;
#184 = CARTESIAN_POINT ( 'NONE',  ( 0.0000000000000000000, 0.0000000000000000000, 0.1199999999999999956 ) ) ;
#185 = CARTESIAN_POINT ( 'NONE',  ( 0.2500000000000000000, 3.061616997868382402E-17, 2.985000000000001208 ) ) ;
#186 = CYLINDRICAL_SURFACE ( 'NONE', #5, 0.2500000000000000000 ) ;
#187 = CARTESIAN_POINT ( 'NONE',  ( 0.0000000000000000000, 0.0000000000000000000, 0.0000000000000000000 ) ) ;
#188 = DIRECTION ( 'NONE',  ( 1.000000000000000000, 0.0000000000000000000, 0.0000000000000000000 ) ) ;
#189 = CARTESIAN_POINT ( 'NONE',  ( 0.0000000000000000000, 0.0000000000000000000, 3.000000000000000444 ) ) ;
#190 = CYLINDRICAL_SURFACE ( 'NONE', #227, 0.1250000000000000555 ) ;
#191 = AXIS2_PLACEMENT_3D ( 'NONE', #189, #11, #309 ) ;
#192 = CARTESIAN_POINT ( 'NONE',  ( -0.2500000000000000555, 0.0000000000000000000, 0.1199999999999999956 ) ) ;
#193 = DIRECTION ( 'NONE',  ( -1.000000000000000000, 0.0000000000000000000, 0.0000000000000000000 ) ) ;
#194 = ORIENTED_EDGE ( 'NONE', *, *, #74, .T. ) ;
#195 = ORIENTED_EDGE ( 'NONE', *, *, #86, .F. ) ;
#196 = AXIS2_PLACEMENT_3D ( 'NONE', #335, #101, #193 ) ;
#197 = EDGE_CURVE ( 'NONE', #150, #291, #12, .T. ) ;
#198 = ORIENTED_EDGE ( 'NONE', *, *, #197, .T. ) ;
#199 = EDGE_LOOP ( 'NONE', ( #46, #285 ) ) ;
#200 = DIRECTION ( 'NONE',  ( 1.000000000000000000, 0.0000000000000000000, 0.0000000000000000000 ) ) ;
#201 = CIRCLE ( 'NONE', #286, 0.2500000000000000000 ) ;
#202 = ADVANCED_FACE ( 'NONE', ( #239 ), #186, .T. ) ;
#203 = ORIENTED_EDGE ( 'NONE', *, *, #48, .F. ) ;
#204 = DIRECTION ( 'NONE',  ( -0.0000000000000000000, -0.0000000000000000000, -1.000000000000000000 ) ) ;
#205 = AXIS2_PLACEMENT_3D ( 'NONE', #327, #28, #326 ) ;
#206 = STYLED_ITEM ( 'NONE', ( #257 ), #55 ) ;
#207 = CARTESIAN_POINT ( 'NONE',  ( 0.0000000000000000000, 0.0000000000000000000, 0.7500000000000001110 ) ) ;
#208 = DIRECTION ( 'NONE',  ( -0.0000000000000000000, -0.0000000000000000000, -1.000000000000000000 ) ) ;
#209 = EDGE_CURVE ( 'NONE', #223, #253, #116, .T. ) ;
#210 = CARTESIAN_POINT ( 'NONE',  ( 0.0000000000000000000, 0.0000000000000000000, 0.1200000000000000233 ) ) ;
#211 = DIRECTION ( 'NONE',  ( -0.0000000000000000000, -0.0000000000000000000, -1.000000000000000000 ) ) ;
#212 = DIRECTION ( 'NONE',  ( 0.0000000000000000000, 0.0000000000000000000, 1.000000000000000000 ) ) ;
#213 = CIRCLE ( 'NONE', #89, 0.1250000000000000278 ) ;
#214 = DIRECTION ( 'NONE',  ( 1.000000000000000000, 0.0000000000000000000, 0.0000000000000000000 ) ) ;
#215 = APPLICATION_PROTOCOL_DEFINITION ( 'draft international standard', 'automotive_design', 1998, #231 ) ;
#216 = FACE_OUTER_BOUND ( 'NONE', #113, .T. ) ;
#217 =( CONVERSION_BASED_UNIT ( 'INCH', #70 ) LENGTH_UNIT ( ) NAMED_UNIT ( #33 ) );
#218 = ADVANCED_FACE ( 'NONE', ( #164 ), #330, .T. ) ;
#219 = DIRECTION ( 'NONE',  ( 0.7071067811865490160, 0.0000000000000000000, 0.7071067811865460184 ) ) ;
#220 = COLOUR_RGB ( '',0.7921568627450980005, 0.8196078431372548767, 0.9333333333333333481 ) ;
#221 = CARTESIAN_POINT ( 'NONE',  ( 0.1250000000000000833, 0.0000000000000000000, 0.7500000000000001110 ) ) ;
#222 = ORIENTED_EDGE ( 'NONE', *, *, #160, .F. ) ;
#223 = VERTEX_POINT ( 'NONE', #162 ) ;
#224 = EDGE_CURVE ( 'NONE', #171, #150, #247, .T. ) ;
#225 =( LENGTH_UNIT ( ) NAMED_UNIT ( * ) SI_UNIT ( $, .METRE. ) );
#226 = ORIENTED_EDGE ( 'NONE', *, *, #209, .F. ) ;
#227 = AXIS2_PLACEMENT_3D ( 'NONE', #36, #240, #96 ) ;
#228 = ORIENTED_EDGE ( 'NONE', *, *, #338, .F. ) ;
#229 = UNCERTAINTY_MEASURE_WITH_UNIT (LENGTH_MEASURE( 1.000000000000000082E-05 ), #217, 'distance_accuracy_value', 'NONE');
#230 = VERTEX_POINT ( 'NONE', #341 ) ;
#231 = APPLICATION_CONTEXT ( 'automotive_design' ) ;
#232 =( LENGTH_UNIT ( ) NAMED_UNIT ( * ) SI_UNIT ( $, .METRE. ) );
#233 = CIRCLE ( 'NONE', #332, 0.2500000000000000000 ) ;
#234 = PRESENTATION_LAYER_ASSIGNMENT (  '', '', ( #206 ) ) ;
#235 = SURFACE_STYLE_FILL_AREA ( #118 ) ;
#236 = SURFACE_STYLE_USAGE ( .BOTH. , #147 ) ;
#237 = CARTESIAN_POINT ( 'NONE',  ( 0.0000000000000000000, 0.0000000000000000000, 0.8749999999999994449 ) ) ;
#238 = PRESENTATION_STYLE_ASSIGNMENT (( #236 ) ) ;
#239 = FACE_OUTER_BOUND ( 'NONE', #356, .T. ) ;
#240 = DIRECTION ( 'NONE',  ( -0.0000000000000000000, -0.0000000000000000000, -1.000000000000000000 ) ) ;
#241 = CARTESIAN_POINT ( 'NONE',  ( 0.2500000000000000000, 3.061616997868382402E-17, 0.0000000000000000000 ) ) ;
#242 = DIRECTION ( 'NONE',  ( 0.0000000000000000000, 0.0000000000000000000, -1.000000000000000000 ) ) ;
#243 =( NAMED_UNIT ( * ) PLANE_ANGLE_UNIT ( ) SI_UNIT ( $, .RADIAN. ) );
#244 = AXIS2_PLACEMENT_3D ( 'NONE', #379, #151, #200 ) ;
#245 = VECTOR ( 'NONE', #72, 39.37007874015748143 ) ;
#246 = DIRECTION ( 'NONE',  ( -0.0000000000000000000, -0.0000000000000000000, -1.000000000000000000 ) ) ;
#247 = LINE ( 'NONE', #307, #312 ) ;
#248 = CARTESIAN_POINT ( 'NONE',  ( -0.1250000000000000833, 1.530808498934192433E-17, 0.7500000000000001110 ) ) ;
#249 = FACE_BOUND ( 'NONE', #316, .T. ) ;
#250 = CIRCLE ( 'NONE', #205, 0.2500000000000000000 ) ;
#251 = CIRCLE ( 'NONE', #273, 0.2500000000000000000 ) ;
#252 = LINE ( 'NONE', #368, #281 ) ;
#253 = VERTEX_POINT ( 'NONE', #279 ) ;
#254 =( NAMED_UNIT ( * ) PLANE_ANGLE_UNIT ( ) SI_UNIT ( $, .RADIAN. ) );
#255 = ORIENTED_EDGE ( 'NONE', *, *, #133, .F. ) ;
#256 = VERTEX_POINT ( 'NONE', #10 ) ;
#257 = PRESENTATION_STYLE_ASSIGNMENT (( #83 ) ) ;
#258 = EDGE_LOOP ( 'NONE', ( #79, #343, #342, #319 ) ) ;
#259 = AXIS2_PLACEMENT_3D ( 'NONE', #54, #378, #263 ) ;
#260 = EDGE_CURVE ( 'NONE', #256, #230, #134, .T. ) ;
#261 = ORIENTED_EDGE ( 'NONE', *, *, #172, .T. ) ;
#262 = ORIENTED_EDGE ( 'NONE', *, *, #172, .F. ) ;
#263 = DIRECTION ( 'NONE',  ( -1.000000000000000000, 0.0000000000000000000, 0.0000000000000000000 ) ) ;
#264 =( NAMED_UNIT ( * ) SI_UNIT ( $, .STERADIAN. ) SOLID_ANGLE_UNIT ( ) );
#265 = CONICAL_SURFACE ( 'NONE', #302, 0.1250000000000000833, 0.7853981633974503884 ) ;
#266 = AXIS2_PLACEMENT_3D ( 'NONE', #358, #282, #103 ) ;
#267 = FILL_AREA_STYLE_COLOUR ( '', #136 ) ;
#268 = PRODUCT_RELATED_PRODUCT_CATEGORY ( 'part', '', ( #4 ) ) ;
#269 = ADVANCED_FACE ( 'NONE', ( #40 ), #52, .T. ) ;
#270 = VERTEX_POINT ( 'NONE', #192 ) ;
#271 = DIRECTION ( 'NONE',  ( -0.0000000000000000000, -0.0000000000000000000, -1.000000000000000000 ) ) ;
#272 = CIRCLE ( 'NONE', #266, 0.1250000000000000833 ) ;
#273 = AXIS2_PLACEMENT_3D ( 'NONE', #99, #334, #214 ) ;
#274 = DIRECTION ( 'NONE',  ( -0.0000000000000000000, -0.0000000000000000000, -1.000000000000000000 ) ) ;
#275 = FACE_OUTER_BOUND ( 'NONE', #110, .T. ) ;
#276 = CYLINDRICAL_SURFACE ( 'NONE', #35, 0.2500000000000000000 ) ;
#277 = DIRECTION ( 'NONE',  ( -0.0000000000000000000, -0.0000000000000000000, -1.000000000000000000 ) ) ;
#278 = LINE ( 'NONE', #248, #245 ) ;
#279 = CARTESIAN_POINT ( 'NONE',  ( 0.2350000000000011524, 2.969768487932338510E-17, 3.000000000000000444 ) ) ;
#280 = DIMENSIONAL_EXPONENTS ( 1.000000000000000000, 0.0000000000000000000, 0.0000000000000000000, 0.0000000000000000000, 0.0000000000000000000, 0.0000000000000000000, 0.0000000000000000000 ) ;
#281 = VECTOR ( 'NONE', #178, 39.37007874015748143 ) ;
#282 = DIRECTION ( 'NONE',  ( -0.0000000000000000000, -0.0000000000000000000, -1.000000000000000000 ) ) ;
#283 =( CONVERSION_BASED_UNIT ( 'INCH', #331 ) LENGTH_UNIT ( ) NAMED_UNIT ( #280 ) );
#284 = DIRECTION ( 'NONE',  ( -1.000000000000000000, 0.0000000000000000000, 0.0000000000000000000 ) ) ;
#285 = ORIENTED_EDGE ( 'NONE', *, *, #197, .F. ) ;
#286 = AXIS2_PLACEMENT_3D ( 'NONE', #237, #95, #93 ) ;
#287 = ADVANCED_FACE ( 'NONE', ( #216 ), #190, .T. ) ;
#288 = EDGE_LOOP ( 'NONE', ( #138, #194 ) ) ;
#289 =( NAMED_UNIT ( * ) SI_UNIT ( $, .STERADIAN. ) SOLID_ANGLE_UNIT ( ) );
#290 = EDGE_LOOP ( 'NONE', ( #114, #203 ) ) ;
#291 = VERTEX_POINT ( 'NONE', #127 ) ;
#292 = EDGE_CURVE ( 'NONE', #112, #256, #272, .T. ) ;
#293 = ORIENTED_EDGE ( 'NONE', *, *, #260, .F. ) ;
#294 = AXIS2_PLACEMENT_3D ( 'NONE', #63, #34, #123 ) ;
#295 =( CONVERSION_BASED_UNIT ( 'INCH', #321 ) LENGTH_UNIT ( ) NAMED_UNIT ( #122 ) );
#296 = DIRECTION ( 'NONE',  ( 1.000000000000000000, 0.0000000000000000000, -0.0000000000000000000 ) ) ;
#297 = CARTESIAN_POINT ( 'NONE',  ( -0.1250000000000000278, 0.0000000000000000000, 0.1200000000000000233 ) ) ;
#298 = EDGE_CURVE ( 'NONE', #256, #20, #129, .T. ) ;
#299 = PRODUCT_DEFINITION_FORMATION_WITH_SPECIFIED_SOURCE ( 'ANY', '', #4, .NOT_KNOWN. ) ;
#300 = DIRECTION ( 'NONE',  ( -0.0000000000000000000, -0.0000000000000000000, -1.000000000000000000 ) ) ;
#301 = DIRECTION ( 'NONE',  ( -0.0000000000000000000, -0.0000000000000000000, -1.000000000000000000 ) ) ;
#302 = AXIS2_PLACEMENT_3D ( 'NONE', #152, #212, #303 ) ;
#303 = DIRECTION ( 'NONE',  ( 1.000000000000000000, 0.0000000000000000000, 0.0000000000000000000 ) ) ;
#304 = FACE_OUTER_BOUND ( 'NONE', #317, .T. ) ;
#305 = DIRECTION ( 'NONE',  ( 1.000000000000000000, 0.0000000000000000000, 0.0000000000000000000 ) ) ;
#306 = CARTESIAN_POINT ( 'NONE',  ( 0.0000000000000000000, 0.0000000000000000000, 0.0000000000000000000 ) ) ;
#307 = CARTESIAN_POINT ( 'NONE',  ( 0.2500000000000000000, 3.061616997868382402E-17, 3.000000000000000444 ) ) ;
#308 = SHAPE_DEFINITION_REPRESENTATION ( #141, #55 ) ;
#309 = DIRECTION ( 'NONE',  ( 1.000000000000000000, 0.0000000000000000000, -0.0000000000000000000 ) ) ;
#310 = ADVANCED_FACE ( 'NONE', ( #249, #365 ), #363, .T. ) ;
#311 = CARTESIAN_POINT ( 'NONE',  ( 0.0000000000000000000, 0.0000000000000000000, 0.1200000000000000233 ) ) ;
#312 = VECTOR ( 'NONE', #277, 39.37007874015748143 ) ;
#313 = DIRECTION ( 'NONE',  ( -1.000000000000000000, 0.0000000000000000000, 0.0000000000000000000 ) ) ;
#314 = ADVANCED_FACE ( 'NONE', ( #102 ), #337, .T. ) ;
#315 = ORIENTED_EDGE ( 'NONE', *, *, #62, .F. ) ;
#316 = EDGE_LOOP ( 'NONE', ( #261, #2 ) ) ;
#317 = EDGE_LOOP ( 'NONE', ( #47, #226, #109, #137 ) ) ;
#318 = ORIENTED_EDGE ( 'NONE', *, *, #48, .T. ) ;
#319 = ORIENTED_EDGE ( 'NONE', *, *, #298, .F. ) ;
#320 = CLOSED_SHELL ( 'NONE', ( #323, #287, #51, #269, #202, #143, #218, #328, #146, #44, #310, #104, #314 ) ) ;
#321 = LENGTH_MEASURE_WITH_UNIT ( LENGTH_MEASURE( 0.02539999999999999897 ), #232 );
#322 = VECTOR ( 'NONE', #271, 39.37007874015748143 ) ;
#323 = ADVANCED_FACE ( 'NONE', ( #275 ), #8, .T. ) ;
#324 =( NAMED_UNIT ( * ) PLANE_ANGLE_UNIT ( ) SI_UNIT ( $, .RADIAN. ) );
#325 = LINE ( 'NONE', #32, #105 ) ;
#326 = DIRECTION ( 'NONE',  ( 1.000000000000000000, 0.0000000000000000000, 0.0000000000000000000 ) ) ;
#327 = CARTESIAN_POINT ( 'NONE',  ( 0.0000000000000000000, 0.0000000000000000000, 2.985000000000001208 ) ) ;
#328 = ADVANCED_FACE ( 'NONE', ( #304 ), #30, .T. ) ;
#329 = DIRECTION ( 'NONE',  ( 1.000000000000000000, 0.0000000000000000000, 0.0000000000000000000 ) ) ;
#330 = PLANE ( 'NONE',  #191 ) ;
#331 = LENGTH_MEASURE_WITH_UNIT ( LENGTH_MEASURE( 0.02539999999999999897 ), #225 );
#332 = AXIS2_PLACEMENT_3D ( 'NONE', #306, #68, #188 ) ;
#333 = DIRECTION ( 'NONE',  ( -1.000000000000000000, 0.0000000000000000000, 0.0000000000000000000 ) ) ;
#334 = DIRECTION ( 'NONE',  ( -0.0000000000000000000, -0.0000000000000000000, -1.000000000000000000 ) ) ;
#335 = CARTESIAN_POINT ( 'NONE',  ( 0.0000000000000000000, 0.0000000000000000000, 3.000000000000000444 ) ) ;
#336 = SURFACE_SIDE_STYLE ('',( #339 ) ) ;
#337 = CYLINDRICAL_SURFACE ( 'NONE', #82, 0.2500000000000000000 ) ;
#338 = EDGE_CURVE ( 'NONE', #20, #85, #251, .T. ) ;
#339 = SURFACE_STYLE_FILL_AREA ( #139 ) ;
#340 = AXIS2_PLACEMENT_3D ( 'NONE', #179, #91, #1 ) ;
#341 = CARTESIAN_POINT ( 'NONE',  ( 0.1250000000000000278, 1.530808498934191817E-17, 0.1200000000000000233 ) ) ;
#342 = ORIENTED_EDGE ( 'NONE', *, *, #133, .T. ) ;
#343 = ORIENTED_EDGE ( 'NONE', *, *, #352, .T. ) ;
#344 = DIRECTION ( 'NONE',  ( -0.0000000000000000000, -0.0000000000000000000, -1.000000000000000000 ) ) ;
#345 = EDGE_LOOP ( 'NONE', ( #293, #140, #107, #108 ) ) ;
#346 = ORIENTED_EDGE ( 'NONE', *, *, #260, .T. ) ;
#347 = EDGE_LOOP ( 'NONE', ( #169, #318, #84, #157 ) ) ;
#348 = VERTEX_POINT ( 'NONE', #69 ) ;
#349 =( GEOMETRIC_REPRESENTATION_CONTEXT ( 3 ) GLOBAL_UNCERTAINTY_ASSIGNED_CONTEXT ( ( #374 ) ) GLOBAL_UNIT_ASSIGNED_CONTEXT ( ( #295, #324, #264 ) ) REPRESENTATION_CONTEXT ( 'NONE', 'WORKASPACE' ) );
#350 = CYLINDRICAL_SURFACE ( 'NONE', #340, 0.1250000000000000555 ) ;
#351 = LINE ( 'NONE', #115, #366 ) ;
#352 = EDGE_CURVE ( 'NONE', #112, #85, #278, .T. ) ;
#353 = DIRECTION ( 'NONE',  ( -1.000000000000000000, 0.0000000000000000000, 0.0000000000000000000 ) ) ;
#354 = AXIS2_PLACEMENT_3D ( 'NONE', #184, #301, #64 ) ;
#355 = APPLICATION_CONTEXT ( 'automotive_design' ) ;
#356 = EDGE_LOOP ( 'NONE', ( #49, #50, #255, #195 ) ) ;
#357 = CARTESIAN_POINT ( 'NONE',  ( 0.0000000000000000000, 0.0000000000000000000, 2.985000000000001208 ) ) ;
#358 = CARTESIAN_POINT ( 'NONE',  ( 0.0000000000000000000, 0.0000000000000000000, 0.7500000000000001110 ) ) ;
#359 = LINE ( 'NONE', #126, #19 ) ;
#360 = DIRECTION ( 'NONE',  ( -1.000000000000000000, 0.0000000000000000000, 0.0000000000000000000 ) ) ;
#361 = PRODUCT_CONTEXT ( 'NONE', #355, 'mechanical' ) ;
#362 = STYLED_ITEM ( 'NONE', ( #238 ), #124 ) ;
#363 = PLANE ( 'NONE',  #106 ) ;
#364 = DIRECTION ( 'NONE',  ( 1.000000000000000000, 0.0000000000000000000, -0.0000000000000000000 ) ) ;
#365 = FACE_OUTER_BOUND ( 'NONE', #290, .T. ) ;
#366 = VECTOR ( 'NONE', #57, 39.37007874015748143 ) ;
#367 = MECHANICAL_DESIGN_GEOMETRIC_PRESENTATION_REPRESENTATION (  '', ( #206 ), #181 ) ;
#368 = CARTESIAN_POINT ( 'NONE',  ( -0.1250000000000000555, 0.0000000000000000000, 0.0000000000000000000 ) ) ;
#369 = ORIENTED_EDGE ( 'NONE', *, *, #224, .T. ) ;
#370 = ORIENTED_EDGE ( 'NONE', *, *, #86, .T. ) ;
#371 = EDGE_CURVE ( 'NONE', #253, #145, #76, .T. ) ;
#372 = CIRCLE ( 'NONE', #98, 0.2500000000000000000 ) ;
#373 = ORIENTED_EDGE ( 'NONE', *, *, #292, .T. ) ;
#374 = UNCERTAINTY_MEASURE_WITH_UNIT (LENGTH_MEASURE( 1.000000000000000082E-05 ), #295, 'distance_accuracy_value', 'NONE');
#375 = EDGE_CURVE ( 'NONE', #230, #78, #213, .T. ) ;
#376 = ORIENTED_EDGE ( 'NONE', *, *, #90, .F. ) ;
#377 = ORIENTED_EDGE ( 'NONE', *, *, #371, .T. ) ;
#378 = DIRECTION ( 'NONE',  ( -0.0000000000000000000, -0.0000000000000000000, -1.000000000000000000 ) ) ;
#379 = CARTESIAN_POINT ( 'NONE',  ( 0.0000000000000000000, 0.0000000000000000000, 3.000000000000000444 ) ) ;
ENDSEC;
END-ISO-10303-21;
