ISO-10303-21;
HEADER;
FILE_DESCRIPTION (( 'STEP AP214' ),
    '1' );
FILE_NAME ('Micro_SME-015-2.STEP',
    '2021-09-02T10:20:42',
    ( '' ),
    ( '' ),
    'SwSTEP 2.0',
    'SolidWorks 2020',
    '' );
FILE_SCHEMA (( 'AUTOMOTIVE_DESIGN' ));
ENDSEC;

DATA;
#1 = ADVANCED_FACE ( 'NONE', ( #260 ), #145, .T. ) ;
#2 = AXIS2_PLACEMENT_3D ( 'NONE', #259, #98, #207 ) ;
#3 = ORIENTED_EDGE ( 'NONE', *, *, #216, .T. ) ;
#4 = ORIENTED_EDGE ( 'NONE', *, *, #57, .T. ) ;
#5 = ORIENTED_EDGE ( 'NONE', *, *, #238, .T. ) ;
#6 = DIMENSIONAL_EXPONENTS ( 1.000000000000000000, 0.0000000000000000000, 0.0000000000000000000, 0.0000000000000000000, 0.0000000000000000000, 0.0000000000000000000, 0.0000000000000000000 ) ;
#7 = CARTESIAN_POINT ( 'NONE',  ( 0.0000000000000000000, 0.0000000000000000000, 1.485000000000000764 ) ) ;
#8 = DIRECTION ( 'NONE',  ( -1.224646799147353700E-16, -0.0000000000000000000, -1.000000000000000000 ) ) ;
#9 = FACE_OUTER_BOUND ( 'NONE', #94, .T. ) ;
#10 = CARTESIAN_POINT ( 'NONE',  ( -0.04750000000000064587, 0.0000000000000000000, 1.500000000000000222 ) ) ;
#11 = CARTESIAN_POINT ( 'NONE',  ( 0.0000000000000000000, 0.0000000000000000000, 0.0000000000000000000 ) ) ;
#12 = DIRECTION ( 'NONE',  ( -1.224646799147353700E-16, -0.0000000000000000000, -1.000000000000000000 ) ) ;
#13 = ADVANCED_FACE ( 'NONE', ( #117 ), #184, .T. ) ;
#14 = MANIFOLD_SOLID_BREP ( 'Cut-Revolve1', #284 ) ;
#15 = CARTESIAN_POINT ( 'NONE',  ( 0.0000000000000000000, 0.0000000000000000000, 1.500000000000000222 ) ) ;
#16 = CIRCLE ( 'NONE', #186, 0.06250000000000002776 ) ;
#17 = EDGE_LOOP ( 'NONE', ( #198, #65, #246, #277 ) ) ;
#18 = CARTESIAN_POINT ( 'NONE',  ( 0.0000000000000000000, 0.0000000000000000000, 0.0000000000000000000 ) ) ;
#19 = CARTESIAN_POINT ( 'NONE',  ( 0.06250000000000002776, 7.654042494670959086E-18, 1.500000000000000222 ) ) ;
#20 = AXIS2_PLACEMENT_3D ( 'NONE', #144, #283, #225 ) ;
#21 = ORIENTED_EDGE ( 'NONE', *, *, #194, .T. ) ;
#22 = ORIENTED_EDGE ( 'NONE', *, *, #150, .T. ) ;
#23 = VECTOR ( 'NONE', #120, 39.37007874015747433 ) ;
#24 = EDGE_LOOP ( 'NONE', ( #152, #87 ) ) ;
#25 = CARTESIAN_POINT ( 'NONE',  ( 2.694222958124177638E-18, 0.0000000000000000000, 0.02199999999999999872 ) ) ;
#26 = DIRECTION ( 'NONE',  ( 1.000000000000000000, 0.0000000000000000000, 0.0000000000000000000 ) ) ;
#27 = CARTESIAN_POINT ( 'NONE',  ( 0.06250000000000002776, 7.654042494670959086E-18, 1.485000000000000764 ) ) ;
#28 = DIRECTION ( 'NONE',  ( 1.000000000000000000, 0.0000000000000000000, 0.0000000000000000000 ) ) ;
#29 = DIRECTION ( 'NONE',  ( 1.224646799147353700E-16, 0.0000000000000000000, 1.000000000000000000 ) ) ;
#30 = PRODUCT_DEFINITION ( 'UNKNOWN', '', #217, #224 ) ;
#31 = CARTESIAN_POINT ( 'NONE',  ( 1.123695017159397759E-34, 0.0000000000000000000, 9.175666142611547931E-19 ) ) ;
#32 =( GEOMETRIC_REPRESENTATION_CONTEXT ( 3 ) GLOBAL_UNCERTAINTY_ASSIGNED_CONTEXT ( ( #89 ) ) GLOBAL_UNIT_ASSIGNED_CONTEXT ( ( #70, #122, #101 ) ) REPRESENTATION_CONTEXT ( 'NONE', 'WORKASPACE' ) );
#33 = ADVANCED_FACE ( 'NONE', ( #88 ), #181, .T. ) ;
#34 = AXIS2_PLACEMENT_3D ( 'NONE', #275, #97, #164 ) ;
#35 = EDGE_CURVE ( 'NONE', #299, #265, #215, .T. ) ;
#36 = CARTESIAN_POINT ( 'NONE',  ( 0.0000000000000000000, 0.0000000000000000000, 1.500000000000000222 ) ) ;
#37 = EDGE_LOOP ( 'NONE', ( #111, #263, #49, #90 ) ) ;
#38 = CIRCLE ( 'NONE', #197, 0.04750000000000064587 ) ;
#39 = AXIS2_PLACEMENT_3D ( 'NONE', #18, #56, #84 ) ;
#40 = DIRECTION ( 'NONE',  ( -1.000000000000000000, 0.0000000000000000000, 0.0000000000000000000 ) ) ;
#41 = SURFACE_STYLE_USAGE ( .BOTH. , #62 ) ;
#42 = UNCERTAINTY_MEASURE_WITH_UNIT (LENGTH_MEASURE( 1.000000000000000082E-05 ), #268, 'distance_accuracy_value', 'NONE');
#43 = DIRECTION ( 'NONE',  ( 0.0000000000000000000, 0.0000000000000000000, 1.000000000000000000 ) ) ;
#44 = DIRECTION ( 'NONE',  ( 1.224646799147353700E-16, 0.0000000000000000000, 1.000000000000000000 ) ) ;
#45 = EDGE_LOOP ( 'NONE', ( #112, #281, #201, #115 ) ) ;
#46 = STYLED_ITEM ( 'NONE', ( #187 ), #162 ) ;
#47 = CYLINDRICAL_SURFACE ( 'NONE', #220, 0.007492500000000000028 ) ;
#48 = AXIS2_PLACEMENT_3D ( 'NONE', #227, #29, #121 ) ;
#49 = ORIENTED_EDGE ( 'NONE', *, *, #194, .F. ) ;
#50 = CARTESIAN_POINT ( 'NONE',  ( 0.0000000000000000000, 0.0000000000000000000, 1.500000000000000222 ) ) ;
#51 = AXIS2_PLACEMENT_3D ( 'NONE', #274, #239, #293 ) ;
#52 = PRODUCT ( 'Micro_SME-015-2', 'Micro_SME-015-2', '', ( #236 ) ) ;
#53 =( LENGTH_UNIT ( ) NAMED_UNIT ( * ) SI_UNIT ( $, .METRE. ) );
#54 = DIRECTION ( 'NONE',  ( -0.0000000000000000000, -0.0000000000000000000, -1.000000000000000000 ) ) ;
#55 = DIRECTION ( 'NONE',  ( -1.000000000000000000, 0.0000000000000000000, 0.0000000000000000000 ) ) ;
#56 = DIRECTION ( 'NONE',  ( 0.0000000000000000000, 0.0000000000000000000, 1.000000000000000000 ) ) ;
#57 = EDGE_CURVE ( 'NONE', #182, #221, #91, .T. ) ;
#58 = VECTOR ( 'NONE', #166, 39.37007874015748143 ) ;
#59 = SHAPE_DEFINITION_REPRESENTATION ( #285, #162 ) ;
#60 = ORIENTED_EDGE ( 'NONE', *, *, #35, .F. ) ;
#61 = ADVANCED_FACE ( 'NONE', ( #9 ), #229, .T. ) ;
#62 = SURFACE_SIDE_STYLE ('',( #278 ) ) ;
#63 = ORIENTED_EDGE ( 'NONE', *, *, #188, .T. ) ;
#64 = DIRECTION ( 'NONE',  ( -0.0000000000000000000, -0.0000000000000000000, -1.000000000000000000 ) ) ;
#65 = ORIENTED_EDGE ( 'NONE', *, *, #147, .T. ) ;
#66 =( LENGTH_UNIT ( ) NAMED_UNIT ( * ) SI_UNIT ( $, .METRE. ) );
#67 = EDGE_LOOP ( 'NONE', ( #133, #243, #251, #242 ) ) ;
#68 = DIRECTION ( 'NONE',  ( -1.224646799147353700E-16, -0.0000000000000000000, -1.000000000000000000 ) ) ;
#69 = COLOUR_RGB ( '',0.7921568627450980005, 0.8196078431372548767, 0.9333333333333333481 ) ;
#70 =( CONVERSION_BASED_UNIT ( 'INCH', #204 ) LENGTH_UNIT ( ) NAMED_UNIT ( #219 ) );
#71 = VERTEX_POINT ( 'NONE', #27 ) ;
#72 = CARTESIAN_POINT ( 'NONE',  ( 0.0000000000000000000, 0.0000000000000000000, 1.500000000000000222 ) ) ;
#73 = CARTESIAN_POINT ( 'NONE',  ( 4.089867614698532979E-17, 0.0000000000000000000, 0.3339630346926196203 ) ) ;
#74 = AXIS2_PLACEMENT_3D ( 'NONE', #31, #12, #102 ) ;
#75 = DIRECTION ( 'NONE',  ( 1.000000000000000000, 0.0000000000000000000, 0.0000000000000000000 ) ) ;
#76 =( NAMED_UNIT ( * ) PLANE_ANGLE_UNIT ( ) SI_UNIT ( $, .RADIAN. ) );
#78 = AXIS2_PLACEMENT_3D ( 'NONE', #25, #137, #280 ) ;
#77 =( CONVERSION_BASED_UNIT ( 'INCH', #128 ) LENGTH_UNIT ( ) NAMED_UNIT ( #282 ) );
#79 = CARTESIAN_POINT ( 'NONE',  ( -0.007492499999999998293, 4.285804554466057710E-18, 0.02199999999999999872 ) ) ;
#80 = EDGE_CURVE ( 'NONE', #109, #135, #167, .T. ) ;
#81 = CARTESIAN_POINT ( 'NONE',  ( -0.04750000000000064587, 0.0000000000000000000, 1.500000000000000222 ) ) ;
#82 = CARTESIAN_POINT ( 'NONE',  ( 0.0000000000000000000, 0.0000000000000000000, 1.485000000000000764 ) ) ;
#83 = CARTESIAN_POINT ( 'NONE',  ( 0.007492500000000000028, 9.175666142611544079E-19, 0.0000000000000000000 ) ) ;
#84 = DIRECTION ( 'NONE',  ( 1.000000000000000000, 0.0000000000000000000, 0.0000000000000000000 ) ) ;
#85 = CONICAL_SURFACE ( 'NONE', #230, 0.007492500000000001763, 0.1745329251994338637 ) ;
#86 = VERTEX_POINT ( 'NONE', #10 ) ;
#87 = ORIENTED_EDGE ( 'NONE', *, *, #118, .T. ) ;
#88 = FACE_OUTER_BOUND ( 'NONE', #67, .T. ) ;
#89 = UNCERTAINTY_MEASURE_WITH_UNIT (LENGTH_MEASURE( 1.000000000000000082E-05 ), #70, 'distance_accuracy_value', 'NONE');
#90 = ORIENTED_EDGE ( 'NONE', *, *, #212, .F. ) ;
#91 = CIRCLE ( 'NONE', #290, 0.007492500000000001763 ) ;
#92 =( GEOMETRIC_REPRESENTATION_CONTEXT ( 3 ) GLOBAL_UNCERTAINTY_ASSIGNED_CONTEXT ( ( #42 ) ) GLOBAL_UNIT_ASSIGNED_CONTEXT ( ( #268, #76, #176 ) ) REPRESENTATION_CONTEXT ( 'NONE', 'WORKASPACE' ) );
#93 = ADVANCED_FACE ( 'NONE', ( #100 ), #266, .F. ) ;
#94 = EDGE_LOOP ( 'NONE', ( #4, #22, #60, #180 ) ) ;
#95 = VECTOR ( 'NONE', #64, 39.37007874015748143 ) ;
#96 =( GEOMETRIC_REPRESENTATION_CONTEXT ( 3 ) GLOBAL_UNCERTAINTY_ASSIGNED_CONTEXT ( ( #276 ) ) GLOBAL_UNIT_ASSIGNED_CONTEXT ( ( #77, #174, #237 ) ) REPRESENTATION_CONTEXT ( 'NONE', 'WORKASPACE' ) );
#97 = DIRECTION ( 'NONE',  ( 0.0000000000000000000, 0.0000000000000000000, 1.000000000000000000 ) ) ;
#98 = DIRECTION ( 'NONE',  ( -1.224646799147353700E-16, -0.0000000000000000000, -1.000000000000000000 ) ) ;
#99 = EDGE_CURVE ( 'NONE', #183, #71, #231, .T. ) ;
#100 = FACE_OUTER_BOUND ( 'NONE', #24, .T. ) ;
#101 =( NAMED_UNIT ( * ) SI_UNIT ( $, .STERADIAN. ) SOLID_ANGLE_UNIT ( ) );
#102 = DIRECTION ( 'NONE',  ( -1.000000000000000000, 0.0000000000000000000, 1.224646799147353700E-16 ) ) ;
#103 = EDGE_LOOP ( 'NONE', ( #165, #234, #218, #63 ) ) ;
#104 = CONICAL_SURFACE ( 'NONE', #146, 0.04750000000000064587, 0.7853981633974466137 ) ;
#105 = SURFACE_SIDE_STYLE ('',( #173 ) ) ;
#106 = AXIS2_PLACEMENT_3D ( 'NONE', #82, #271, #155 ) ;
#107 = CYLINDRICAL_SURFACE ( 'NONE', #161, 0.06250000000000002776 ) ;
#108 = FILL_AREA_STYLE ('',( #126 ) ) ;
#109 = VERTEX_POINT ( 'NONE', #256 ) ;
#110 = FACE_OUTER_BOUND ( 'NONE', #103, .T. ) ;
#111 = ORIENTED_EDGE ( 'NONE', *, *, #216, .F. ) ;
#112 = ORIENTED_EDGE ( 'NONE', *, *, #178, .F. ) ;
#113 = MECHANICAL_DESIGN_GEOMETRIC_PRESENTATION_REPRESENTATION (  '', ( #270 ), #32 ) ;
#114 = PRESENTATION_LAYER_ASSIGNMENT (  '', '', ( #46 ) ) ;
#115 = ORIENTED_EDGE ( 'NONE', *, *, #188, .F. ) ;
#116 = CARTESIAN_POINT ( 'NONE',  ( -0.007492499999999998293, 9.175666142611546005E-19, 0.02199999999999999872 ) ) ;
#117 = FACE_OUTER_BOUND ( 'NONE', #248, .T. ) ;
#118 = EDGE_CURVE ( 'NONE', #265, #299, #138, .T. ) ;
#119 = AXIS2_PLACEMENT_3D ( 'NONE', #72, #160, #40 ) ;
#120 = DIRECTION ( 'NONE',  ( -0.1736481776669311639, 2.126576849575783008E-17, 0.9848077530122080203 ) ) ;
#121 = DIRECTION ( 'NONE',  ( 1.000000000000000000, 0.0000000000000000000, 0.0000000000000000000 ) ) ;
#122 =( NAMED_UNIT ( * ) PLANE_ANGLE_UNIT ( ) SI_UNIT ( $, .RADIAN. ) );
#123 = LINE ( 'NONE', #116, #23 ) ;
#124 = CARTESIAN_POINT ( 'NONE',  ( -0.06250000000000002776, 0.0000000000000000000, 1.500000000000000222 ) ) ;
#125 = VECTOR ( 'NONE', #134, 39.37007874015748143 ) ;
#126 = FILL_AREA_STYLE_COLOUR ( '', #172 ) ;
#127 =( LENGTH_UNIT ( ) NAMED_UNIT ( * ) SI_UNIT ( $, .METRE. ) );
#128 = LENGTH_MEASURE_WITH_UNIT ( LENGTH_MEASURE( 0.02539999999999999897 ), #53 );
#129 = DIRECTION ( 'NONE',  ( 0.0000000000000000000, 0.0000000000000000000, 1.000000000000000000 ) ) ;
#130 = DIRECTION ( 'NONE',  ( 0.0000000000000000000, 0.0000000000000000000, -1.000000000000000000 ) ) ;
#131 = EDGE_CURVE ( 'NONE', #182, #299, #189, .T. ) ;
#132 = CIRCLE ( 'NONE', #51, 0.06250000000000002776 ) ;
#133 = ORIENTED_EDGE ( 'NONE', *, *, #99, .F. ) ;
#134 = DIRECTION ( 'NONE',  ( -1.224646799147353700E-16, -0.0000000000000000000, -1.000000000000000000 ) ) ;
#135 = VERTEX_POINT ( 'NONE', #233 ) ;
#136 = ADVANCED_FACE ( 'NONE', ( #235 ), #177, .T. ) ;
#137 = DIRECTION ( 'NONE',  ( -1.224646799147353700E-16, -0.0000000000000000000, -1.000000000000000000 ) ) ;
#138 = CIRCLE ( 'NONE', #74, 0.007492500000000000028 ) ;
#139 = VERTEX_POINT ( 'NONE', #141 ) ;
#140 = AXIS2_PLACEMENT_3D ( 'NONE', #170, #68, #253 ) ;
#141 = CARTESIAN_POINT ( 'NONE',  ( -0.06250000000000002776, 0.0000000000000000000, 1.485000000000000764 ) ) ;
#142 = ADVANCED_FACE ( 'NONE', ( #110 ), #85, .T. ) ;
#143 = CARTESIAN_POINT ( 'NONE',  ( 2.694222958124177638E-18, 0.0000000000000000000, 0.02199999999999999872 ) ) ;
#144 = CARTESIAN_POINT ( 'NONE',  ( 0.0000000000000000000, 0.0000000000000000000, 1.500000000000000222 ) ) ;
#145 = PLANE ( 'NONE',  #20 ) ;
#146 = AXIS2_PLACEMENT_3D ( 'NONE', #50, #196, #55 ) ;
#147 = EDGE_CURVE ( 'NONE', #221, #182, #240, .T. ) ;
#148 = LINE ( 'NONE', #193, #272 ) ;
#149 = DIRECTION ( 'NONE',  ( -0.7071067811865462405, 0.0000000000000000000, -0.7071067811865486830 ) ) ;
#150 = EDGE_CURVE ( 'NONE', #221, #265, #206, .T. ) ;
#151 = SURFACE_STYLE_USAGE ( .BOTH. , #105 ) ;
#152 = ORIENTED_EDGE ( 'NONE', *, *, #35, .T. ) ;
#153 = DIRECTION ( 'NONE',  ( -1.000000000000000000, 0.0000000000000000000, 0.0000000000000000000 ) ) ;
#154 = DIRECTION ( 'NONE',  ( 0.1736481776669313581, 0.0000000000000000000, 0.9848077530122077983 ) ) ;
#155 = DIRECTION ( 'NONE',  ( 1.000000000000000000, 0.0000000000000000000, 0.0000000000000000000 ) ) ;
#156 = AXIS2_PLACEMENT_3D ( 'NONE', #73, #223, #26 ) ;
#157 = MECHANICAL_DESIGN_GEOMETRIC_PRESENTATION_REPRESENTATION (  '', ( #46 ), #92 ) ;
#158 = ORIENTED_EDGE ( 'NONE', *, *, #57, .F. ) ;
#159 = CARTESIAN_POINT ( 'NONE',  ( 0.0000000000000000000, 0.0000000000000000000, 1.500000000000000222 ) ) ;
#160 = DIRECTION ( 'NONE',  ( -0.0000000000000000000, -0.0000000000000000000, -1.000000000000000000 ) ) ;
#161 = AXIS2_PLACEMENT_3D ( 'NONE', #159, #54, #153 ) ;
#162 = ADVANCED_BREP_SHAPE_REPRESENTATION ( 'Micro_SME-015-2', ( #14, #39 ), #96 ) ;
#163 = CARTESIAN_POINT ( 'NONE',  ( 0.007492500000000004365, 0.0000000000000000000, 0.02199999999999999872 ) ) ;
#164 = DIRECTION ( 'NONE',  ( 1.000000000000000000, 0.0000000000000000000, -0.0000000000000000000 ) ) ;
#165 = ORIENTED_EDGE ( 'NONE', *, *, #238, .F. ) ;
#166 = DIRECTION ( 'NONE',  ( -0.0000000000000000000, -0.0000000000000000000, -1.000000000000000000 ) ) ;
#167 = CIRCLE ( 'NONE', #156, 0.06250000000000002776 ) ;
#168 = FACE_OUTER_BOUND ( 'NONE', #37, .T. ) ;
#169 = DIRECTION ( 'NONE',  ( -1.224646799147353700E-16, -0.0000000000000000000, -1.000000000000000000 ) ) ;
#170 = CARTESIAN_POINT ( 'NONE',  ( 1.123695017159397759E-34, 0.0000000000000000000, 9.175666142611547931E-19 ) ) ;
#171 = CIRCLE ( 'NONE', #288, 0.04750000000000064587 ) ;
#172 = COLOUR_RGB ( '',0.7921568627450980005, 0.8196078431372548767, 0.9333333333333333481 ) ;
#173 = SURFACE_STYLE_FILL_AREA ( #108 ) ;
#174 =( NAMED_UNIT ( * ) PLANE_ANGLE_UNIT ( ) SI_UNIT ( $, .RADIAN. ) );
#175 = CARTESIAN_POINT ( 'NONE',  ( 0.04750000000000064587, 6.735557395310483192E-18, 1.500000000000000222 ) ) ;
#176 =( NAMED_UNIT ( * ) SI_UNIT ( $, .STERADIAN. ) SOLID_ANGLE_UNIT ( ) );
#177 = CYLINDRICAL_SURFACE ( 'NONE', #119, 0.06250000000000002776 ) ;
#178 = EDGE_CURVE ( 'NONE', #71, #135, #247, .T. ) ;
#179 = EDGE_LOOP ( 'NONE', ( #195, #3 ) ) ;
#180 = ORIENTED_EDGE ( 'NONE', *, *, #131, .F. ) ;
#181 = CONICAL_SURFACE ( 'NONE', #213, 0.04750000000000064587, 0.7853981633974466137 ) ;
#182 = VERTEX_POINT ( 'NONE', #79 ) ;
#183 = VERTEX_POINT ( 'NONE', #175 ) ;
#184 = CONICAL_SURFACE ( 'NONE', #48, 0.007492500000000001763, 0.1745329251994338637 ) ;
#185 = ADVANCED_FACE ( 'NONE', ( #269 ), #107, .T. ) ;
#186 = AXIS2_PLACEMENT_3D ( 'NONE', #7, #130, #28 ) ;
#187 = PRESENTATION_STYLE_ASSIGNMENT (( #151 ) ) ;
#188 = EDGE_CURVE ( 'NONE', #135, #109, #132, .T. ) ;
#189 = LINE ( 'NONE', #289, #264 ) ;
#190 = APPLICATION_CONTEXT ( 'automotive_design' ) ;
#191 = VECTOR ( 'NONE', #149, 39.37007874015748854 ) ;
#192 = LENGTH_MEASURE_WITH_UNIT ( LENGTH_MEASURE( 0.02539999999999999897 ), #127 );
#193 = CARTESIAN_POINT ( 'NONE',  ( 0.007492500000000004365, 0.0000000000000000000, 0.02199999999999999872 ) ) ;
#194 = EDGE_CURVE ( 'NONE', #139, #71, #208, .T. ) ;
#195 = ORIENTED_EDGE ( 'NONE', *, *, #205, .T. ) ;
#196 = DIRECTION ( 'NONE',  ( 0.0000000000000000000, 0.0000000000000000000, -1.000000000000000000 ) ) ;
#197 = AXIS2_PLACEMENT_3D ( 'NONE', #254, #43, #258 ) ;
#198 = ORIENTED_EDGE ( 'NONE', *, *, #150, .F. ) ;
#199 = FILL_AREA_STYLE_COLOUR ( '', #69 ) ;
#200 = CARTESIAN_POINT ( 'NONE',  ( 0.007492500000000000028, 9.175666142611544079E-19, -9.175666142611547931E-19 ) ) ;
#201 = ORIENTED_EDGE ( 'NONE', *, *, #291, .T. ) ;
#202 = VECTOR ( 'NONE', #210, 39.37007874015748854 ) ;
#203 = ORIENTED_EDGE ( 'NONE', *, *, #178, .T. ) ;
#204 = LENGTH_MEASURE_WITH_UNIT ( LENGTH_MEASURE( 0.02539999999999999897 ), #66 );
#205 = EDGE_CURVE ( 'NONE', #86, #183, #171, .T. ) ;
#206 = LINE ( 'NONE', #200, #125 ) ;
#207 = DIRECTION ( 'NONE',  ( -1.000000000000000000, 0.0000000000000000000, 1.224646799147353700E-16 ) ) ;
#208 = CIRCLE ( 'NONE', #106, 0.06250000000000002776 ) ;
#209 = FACE_OUTER_BOUND ( 'NONE', #17, .T. ) ;
#210 = DIRECTION ( 'NONE',  ( 0.7071067811865462405, 8.659560562354916834E-17, -0.7071067811865486830 ) ) ;
#211 = DIRECTION ( 'NONE',  ( -1.224646799147353700E-16, -0.0000000000000000000, -1.000000000000000000 ) ) ;
#212 = EDGE_CURVE ( 'NONE', #86, #139, #296, .T. ) ;
#213 = AXIS2_PLACEMENT_3D ( 'NONE', #15, #255, #287 ) ;
#214 = APPLICATION_PROTOCOL_DEFINITION ( 'draft international standard', 'automotive_design', 1998, #232 ) ;
#215 = CIRCLE ( 'NONE', #140, 0.007492500000000000028 ) ;
#216 = EDGE_CURVE ( 'NONE', #183, #86, #38, .T. ) ;
#217 = PRODUCT_DEFINITION_FORMATION_WITH_SPECIFIED_SOURCE ( 'ANY', '', #52, .NOT_KNOWN. ) ;
#218 = ORIENTED_EDGE ( 'NONE', *, *, #294, .T. ) ;
#219 = DIMENSIONAL_EXPONENTS ( 1.000000000000000000, 0.0000000000000000000, 0.0000000000000000000, 0.0000000000000000000, 0.0000000000000000000, 0.0000000000000000000, 0.0000000000000000000 ) ;
#220 = AXIS2_PLACEMENT_3D ( 'NONE', #11, #8, #286 ) ;
#221 = VERTEX_POINT ( 'NONE', #163 ) ;
#222 = DIRECTION ( 'NONE',  ( 1.000000000000000000, 0.0000000000000000000, 0.0000000000000000000 ) ) ;
#223 = DIRECTION ( 'NONE',  ( -1.224646799147353700E-16, -0.0000000000000000000, -1.000000000000000000 ) ) ;
#224 = PRODUCT_DEFINITION_CONTEXT ( 'detailed design', #232, 'design' ) ;
#225 = DIRECTION ( 'NONE',  ( 1.000000000000000000, 0.0000000000000000000, -0.0000000000000000000 ) ) ;
#226 = DIRECTION ( 'NONE',  ( -1.000000000000000000, 0.0000000000000000000, 0.0000000000000000000 ) ) ;
#227 = CARTESIAN_POINT ( 'NONE',  ( 2.694222958124177638E-18, 0.0000000000000000000, 0.02199999999999999872 ) ) ;
#228 = PRODUCT_RELATED_PRODUCT_CATEGORY ( 'part', '', ( #52 ) ) ;
#229 = CYLINDRICAL_SURFACE ( 'NONE', #2, 0.007492500000000000028 ) ;
#230 = AXIS2_PLACEMENT_3D ( 'NONE', #249, #44, #222 ) ;
#231 = LINE ( 'NONE', #262, #202 ) ;
#232 = APPLICATION_CONTEXT ( 'automotive_design' ) ;
#233 = CARTESIAN_POINT ( 'NONE',  ( 0.06250000000000006939, 7.654042494670963708E-18, 0.3339630346926196203 ) ) ;
#234 = ORIENTED_EDGE ( 'NONE', *, *, #147, .F. ) ;
#235 = FACE_OUTER_BOUND ( 'NONE', #241, .T. ) ;
#236 = PRODUCT_CONTEXT ( 'NONE', #190, 'mechanical' ) ;
#237 =( NAMED_UNIT ( * ) SI_UNIT ( $, .STERADIAN. ) SOLID_ANGLE_UNIT ( ) );
#238 = EDGE_CURVE ( 'NONE', #182, #109, #123, .T. ) ;
#239 = DIRECTION ( 'NONE',  ( -1.224646799147353700E-16, -0.0000000000000000000, -1.000000000000000000 ) ) ;
#240 = CIRCLE ( 'NONE', #78, 0.007492500000000001763 ) ;
#241 = EDGE_LOOP ( 'NONE', ( #21, #203, #245, #295 ) ) ;
#242 = ORIENTED_EDGE ( 'NONE', *, *, #267, .F. ) ;
#243 = ORIENTED_EDGE ( 'NONE', *, *, #205, .F. ) ;
#244 = PRESENTATION_STYLE_ASSIGNMENT (( #41 ) ) ;
#245 = ORIENTED_EDGE ( 'NONE', *, *, #80, .F. ) ;
#246 = ORIENTED_EDGE ( 'NONE', *, *, #131, .T. ) ;
#247 = LINE ( 'NONE', #19, #95 ) ;
#248 = EDGE_LOOP ( 'NONE', ( #158, #5, #298, #279 ) ) ;
#249 = CARTESIAN_POINT ( 'NONE',  ( 2.694222958124177638E-18, 0.0000000000000000000, 0.02199999999999999872 ) ) ;
#250 = ADVANCED_FACE ( 'NONE', ( #209 ), #47, .T. ) ;
#251 = ORIENTED_EDGE ( 'NONE', *, *, #212, .T. ) ;
#252 = LINE ( 'NONE', #124, #58 ) ;
#253 = DIRECTION ( 'NONE',  ( -1.000000000000000000, 0.0000000000000000000, 1.224646799147353700E-16 ) ) ;
#254 = CARTESIAN_POINT ( 'NONE',  ( 0.0000000000000000000, 0.0000000000000000000, 1.500000000000000222 ) ) ;
#255 = DIRECTION ( 'NONE',  ( 0.0000000000000000000, 0.0000000000000000000, -1.000000000000000000 ) ) ;
#256 = CARTESIAN_POINT ( 'NONE',  ( -0.06249999999999997918, 0.0000000000000000000, 0.3339630346926196203 ) ) ;
#257 = PRESENTATION_LAYER_ASSIGNMENT (  '', '', ( #270 ) ) ;
#258 = DIRECTION ( 'NONE',  ( 1.000000000000000000, 0.0000000000000000000, 0.0000000000000000000 ) ) ;
#259 = CARTESIAN_POINT ( 'NONE',  ( 0.0000000000000000000, 0.0000000000000000000, 0.0000000000000000000 ) ) ;
#260 = FACE_OUTER_BOUND ( 'NONE', #179, .T. ) ;
#261 = ADVANCED_FACE ( 'NONE', ( #168 ), #104, .T. ) ;
#262 = CARTESIAN_POINT ( 'NONE',  ( 0.04750000000000064587, 5.817072295950006528E-18, 1.500000000000000222 ) ) ;
#263 = ORIENTED_EDGE ( 'NONE', *, *, #99, .T. ) ;
#264 = VECTOR ( 'NONE', #169, 39.37007874015748143 ) ;
#265 = VERTEX_POINT ( 'NONE', #83 ) ;
#266 = PLANE ( 'NONE',  #34 ) ;
#267 = EDGE_CURVE ( 'NONE', #71, #139, #16, .T. ) ;
#268 =( CONVERSION_BASED_UNIT ( 'INCH', #192 ) LENGTH_UNIT ( ) NAMED_UNIT ( #6 ) );
#269 = FACE_OUTER_BOUND ( 'NONE', #45, .T. ) ;
#270 = STYLED_ITEM ( 'NONE', ( #244 ), #14 ) ;
#271 = DIRECTION ( 'NONE',  ( 0.0000000000000000000, 0.0000000000000000000, -1.000000000000000000 ) ) ;
#272 = VECTOR ( 'NONE', #154, 39.37007874015748143 ) ;
#273 = APPLICATION_PROTOCOL_DEFINITION ( 'draft international standard', 'automotive_design', 1998, #190 ) ;
#274 = CARTESIAN_POINT ( 'NONE',  ( 4.089867614698532979E-17, 0.0000000000000000000, 0.3339630346926196203 ) ) ;
#275 = CARTESIAN_POINT ( 'NONE',  ( 0.0000000000000000000, 0.0000000000000000000, 0.0000000000000000000 ) ) ;
#276 = UNCERTAINTY_MEASURE_WITH_UNIT (LENGTH_MEASURE( 1.000000000000000082E-05 ), #77, 'distance_accuracy_value', 'NONE');
#277 = ORIENTED_EDGE ( 'NONE', *, *, #118, .F. ) ;
#278 = SURFACE_STYLE_FILL_AREA ( #297 ) ;
#279 = ORIENTED_EDGE ( 'NONE', *, *, #294, .F. ) ;
#280 = DIRECTION ( 'NONE',  ( -1.000000000000000000, 0.0000000000000000000, 0.0000000000000000000 ) ) ;
#281 = ORIENTED_EDGE ( 'NONE', *, *, #267, .T. ) ;
#282 = DIMENSIONAL_EXPONENTS ( 1.000000000000000000, 0.0000000000000000000, 0.0000000000000000000, 0.0000000000000000000, 0.0000000000000000000, 0.0000000000000000000, 0.0000000000000000000 ) ;
#283 = DIRECTION ( 'NONE',  ( 0.0000000000000000000, 0.0000000000000000000, 1.000000000000000000 ) ) ;
#284 = CLOSED_SHELL ( 'NONE', ( #61, #13, #261, #136, #185, #1, #33, #142, #250, #93 ) ) ;
#285 = PRODUCT_DEFINITION_SHAPE ( 'NONE', 'NONE',  #30 ) ;
#286 = DIRECTION ( 'NONE',  ( -1.000000000000000000, 0.0000000000000000000, 1.224646799147353700E-16 ) ) ;
#287 = DIRECTION ( 'NONE',  ( -1.000000000000000000, 0.0000000000000000000, 0.0000000000000000000 ) ) ;
#288 = AXIS2_PLACEMENT_3D ( 'NONE', #36, #129, #75 ) ;
#289 = CARTESIAN_POINT ( 'NONE',  ( -0.007492500000000000028, 0.0000000000000000000, 9.175666142611547931E-19 ) ) ;
#290 = AXIS2_PLACEMENT_3D ( 'NONE', #143, #211, #226 ) ;
#291 = EDGE_CURVE ( 'NONE', #139, #109, #252, .T. ) ;
#292 = CARTESIAN_POINT ( 'NONE',  ( -0.007492500000000000028, 0.0000000000000000000, 1.835133228522309586E-18 ) ) ;
#293 = DIRECTION ( 'NONE',  ( 1.000000000000000000, 0.0000000000000000000, 0.0000000000000000000 ) ) ;
#294 = EDGE_CURVE ( 'NONE', #221, #135, #148, .T. ) ;
#295 = ORIENTED_EDGE ( 'NONE', *, *, #291, .F. ) ;
#296 = LINE ( 'NONE', #81, #191 ) ;
#297 = FILL_AREA_STYLE ('',( #199 ) ) ;
#298 = ORIENTED_EDGE ( 'NONE', *, *, #80, .T. ) ;
#299 = VERTEX_POINT ( 'NONE', #292 ) ;
ENDSEC;
END-ISO-10303-21;
