ISO-10303-21;
HEADER;
FILE_DESCRIPTION (( 'STEP AP214' ),
    '1' );
FILE_NAME ('00257.STEP',
    '2023-06-22T14:05:05',
    ( '' ),
    ( '' ),
    'SwSTEP 2.0',
    'SolidWorks 2023',
    '' );
FILE_SCHEMA (( 'AUTOMOTIVE_DESIGN' ));
ENDSEC;

DATA;
#1 = PRODUCT ( '00257', '00257', '', ( #270 ) ) ;
#2 = APPLICATION_CONTEXT ( 'automotive_design' ) ;
#3 = CARTESIAN_POINT ( 'NONE',  ( 0.000000000000000000, 0.000000000000000000, 0.000000000000000000 ) ) ;
#4 = FILL_AREA_STYLE ('',( #187 ) ) ;
#5 =( CONVERSION_BASED_UNIT ( 'INCH', #226 ) LENGTH_UNIT ( ) NAMED_UNIT ( #50 ) );
#6 = DIRECTION ( 'NONE',  ( -0.000000000000000000, -1.000000000000000000, -0.000000000000000000 ) ) ;
#7 = FILL_AREA_STYLE_COLOUR ( '', #309 ) ;
#8 = FILL_AREA_STYLE_COLOUR ( '', #60 ) ;
#9 = EDGE_LOOP ( 'NONE', ( #143, #186 ) ) ;
#10 = CARTESIAN_POINT ( 'NONE',  ( 1.913510623667739463E-17, 0.8125000000000000000, 0.1562500000000000000 ) ) ;
#11 = CIRCLE ( 'NONE', #139, 0.1562500000000000833 ) ;
#12 = CARTESIAN_POINT ( 'NONE',  ( 0.1562500000000000000, 2.500000000000000000, 0.000000000000000000 ) ) ;
#13 = ORIENTED_EDGE ( 'NONE', *, *, #157, .F. ) ;
#14 = EDGE_LOOP ( 'NONE', ( #242, #65, #271, #67 ) ) ;
#15 = COLOUR_RGB ( '',1.000000000000000000, 0.000000000000000000, 0.000000000000000000 ) ;
#16 = SURFACE_STYLE_FILL_AREA ( #297 ) ;
#17 =( GEOMETRIC_REPRESENTATION_CONTEXT ( 3 ) GLOBAL_UNCERTAINTY_ASSIGNED_CONTEXT ( ( #115 ) ) GLOBAL_UNIT_ASSIGNED_CONTEXT ( ( #198, #300, #86 ) ) REPRESENTATION_CONTEXT ( 'NONE', 'WORKASPACE' ) );
#18 =( LENGTH_UNIT ( ) NAMED_UNIT ( * ) SI_UNIT ( $, .METRE. ) );
#19 = PLANE ( 'NONE',  #286 ) ;
#20 = SURFACE_STYLE_USAGE ( .BOTH. , #45 ) ;
#21 = PRESENTATION_LAYER_ASSIGNMENT (  '', '', ( #303 ) ) ;
#22 =( NAMED_UNIT ( * ) SI_UNIT ( $, .STERADIAN. ) SOLID_ANGLE_UNIT ( ) );
#23 = CARTESIAN_POINT ( 'NONE',  ( 0.000000000000000000, 0.8125000000000000000, 0.000000000000000000 ) ) ;
#24 = LINE ( 'NONE', #282, #27 ) ;
#25 = SURFACE_STYLE_USAGE ( .BOTH. , #223 ) ;
#26 = CARTESIAN_POINT ( 'NONE',  ( 0.000000000000000000, 0.8125000000000000000, 0.000000000000000000 ) ) ;
#27 = VECTOR ( 'NONE', #6, 39.37007874015748143 ) ;
#28 = CARTESIAN_POINT ( 'NONE',  ( 0.000000000000000000, 0.000000000000000000, 0.000000000000000000 ) ) ;
#29 = SURFACE_STYLE_FILL_AREA ( #4 ) ;
#30 = CARTESIAN_POINT ( 'NONE',  ( -6.123233995736766036E-17, 2.500000000000000000, 0.000000000000000000 ) ) ;
#31 =( LENGTH_UNIT ( ) NAMED_UNIT ( * ) SI_UNIT ( $, .METRE. ) );
#32 = FILL_AREA_STYLE_COLOUR ( '', #15 ) ;
#33 = PRESENTATION_STYLE_ASSIGNMENT (( #231 ) ) ;
#34 =( NAMED_UNIT ( * ) SI_UNIT ( $, .STERADIAN. ) SOLID_ANGLE_UNIT ( ) );
#35 = DIRECTION ( 'NONE',  ( -0.000000000000000000, -1.000000000000000000, -0.000000000000000000 ) ) ;
#36 = DIRECTION ( 'NONE',  ( -1.000000000000000000, 0.000000000000000000, 0.000000000000000000 ) ) ;
#37 = EDGE_CURVE ( 'NONE', #296, #105, #151, .T. ) ;
#38 = CARTESIAN_POINT ( 'NONE',  ( 0.000000000000000000, 0.000000000000000000, 0.000000000000000000 ) ) ;
#39 = APPLICATION_PROTOCOL_DEFINITION ( 'draft international standard', 'automotive_design', 1998, #2 ) ;
#40 = EDGE_LOOP ( 'NONE', ( #13, #266, #164, #133 ) ) ;
#41 = DIRECTION ( 'NONE',  ( 0.000000000000000000, -1.000000000000000000, -0.000000000000000000 ) ) ;
#42 = AXIS2_PLACEMENT_3D ( 'NONE', #146, #43, #36 ) ;
#43 = DIRECTION ( 'NONE',  ( -3.628583108584750472E-17, 1.000000000000000000, -0.000000000000000000 ) ) ;
#44 = AXIS2_PLACEMENT_3D ( 'NONE', #26, #228, #97 ) ;
#45 = SURFACE_SIDE_STYLE ('',( #16 ) ) ;
#46 = AXIS2_PLACEMENT_3D ( 'NONE', #12, #85, #301 ) ;
#47 =( GEOMETRIC_REPRESENTATION_CONTEXT ( 3 ) GLOBAL_UNCERTAINTY_ASSIGNED_CONTEXT ( ( #209 ) ) GLOBAL_UNIT_ASSIGNED_CONTEXT ( ( #5, #293, #185 ) ) REPRESENTATION_CONTEXT ( 'NONE', 'WORKASPACE' ) );
#48 = EDGE_CURVE ( 'NONE', #105, #296, #144, .T. ) ;
#49 = FILL_AREA_STYLE ('',( #158 ) ) ;
#50 = DIMENSIONAL_EXPONENTS ( 1.000000000000000000, 0.000000000000000000, 0.000000000000000000, 0.000000000000000000, 0.000000000000000000, 0.000000000000000000, 0.000000000000000000 ) ;
#51 = AXIS2_PLACEMENT_3D ( 'NONE', #104, #216, #152 ) ;
#52 = SURFACE_STYLE_USAGE ( .BOTH. , #295 ) ;
#53 =( NAMED_UNIT ( * ) SI_UNIT ( $, .STERADIAN. ) SOLID_ANGLE_UNIT ( ) );
#54 = PRODUCT_DEFINITION ( 'UNKNOWN', '', #113, #305 ) ;
#55 = FILL_AREA_STYLE ('',( #8 ) ) ;
#56 = LENGTH_MEASURE_WITH_UNIT ( LENGTH_MEASURE( 0.02539999999999999897 ), #31 );
#57 = CARTESIAN_POINT ( 'NONE',  ( -6.123233995736766036E-17, 2.500000000000000000, 0.000000000000000000 ) ) ;
#58 = FILL_AREA_STYLE_COLOUR ( '', #274 ) ;
#59 = EDGE_LOOP ( 'NONE', ( #78, #64 ) ) ;
#60 = COLOUR_RGB ( '',1.000000000000000000, 0.000000000000000000, 0.000000000000000000 ) ;
#61 = APPLICATION_CONTEXT ( 'automotive_design' ) ;
#62 = ADVANCED_FACE ( 'NONE', ( #211 ), #195, .F. ) ;
#63 = PRESENTATION_STYLE_ASSIGNMENT (( #52 ) ) ;
#64 = ORIENTED_EDGE ( 'NONE', *, *, #48, .F. ) ;
#65 = ORIENTED_EDGE ( 'NONE', *, *, #157, .T. ) ;
#66 =( LENGTH_UNIT ( ) NAMED_UNIT ( * ) SI_UNIT ( $, .METRE. ) );
#67 = ORIENTED_EDGE ( 'NONE', *, *, #91, .F. ) ;
#68 = VERTEX_POINT ( 'NONE', #87 ) ;
#69 =( GEOMETRIC_REPRESENTATION_CONTEXT ( 3 ) GLOBAL_UNCERTAINTY_ASSIGNED_CONTEXT ( ( #136 ) ) GLOBAL_UNIT_ASSIGNED_CONTEXT ( ( #243, #101, #53 ) ) REPRESENTATION_CONTEXT ( 'NONE', 'WORKASPACE' ) );
#70 = AXIS2_PLACEMENT_3D ( 'NONE', #267, #83, #193 ) ;
#71 = CIRCLE ( 'NONE', #304, 0.1562500000000000833 ) ;
#72 = PRESENTATION_STYLE_ASSIGNMENT (( #25 ) ) ;
#73 = DIMENSIONAL_EXPONENTS ( 1.000000000000000000, 0.000000000000000000, 0.000000000000000000, 0.000000000000000000, 0.000000000000000000, 0.000000000000000000, 0.000000000000000000 ) ;
#74 = CARTESIAN_POINT ( 'NONE',  ( 1.913510623667739463E-17, 0.000000000000000000, 0.1562500000000000000 ) ) ;
#75 =( CONVERSION_BASED_UNIT ( 'INCH', #169 ) LENGTH_UNIT ( ) NAMED_UNIT ( #93 ) );
#76 = DIRECTION ( 'NONE',  ( -3.628583108584750472E-17, 1.000000000000000000, -0.000000000000000000 ) ) ;
#77 = LENGTH_MEASURE_WITH_UNIT ( LENGTH_MEASURE( 0.02539999999999999897 ), #66 );
#78 = ORIENTED_EDGE ( 'NONE', *, *, #37, .F. ) ;
#79 = CARTESIAN_POINT ( 'NONE',  ( 0.000000000000000000, 0.000000000000000000, 0.000000000000000000 ) ) ;
#80 = VERTEX_POINT ( 'NONE', #82 ) ;
#81 = AXIS2_PLACEMENT_3D ( 'NONE', #204, #179, #102 ) ;
#82 = CARTESIAN_POINT ( 'NONE',  ( 0.000000000000000000, 0.000000000000000000, -0.1562500000000000000 ) ) ;
#83 = DIRECTION ( 'NONE',  ( -3.628583108584750472E-17, 1.000000000000000000, -0.000000000000000000 ) ) ;
#84 = DIRECTION ( 'NONE',  ( 0.000000000000000000, 0.000000000000000000, 1.000000000000000000 ) ) ;
#85 = DIRECTION ( 'NONE',  ( 3.628583108584750472E-17, -1.000000000000000000, 0.000000000000000000 ) ) ;
#86 =( NAMED_UNIT ( * ) SI_UNIT ( $, .STERADIAN. ) SOLID_ANGLE_UNIT ( ) );
#87 = CARTESIAN_POINT ( 'NONE',  ( 0.1562500000000000000, 2.500000000000000000, 1.913510623667739771E-17 ) ) ;
#88 = EDGE_CURVE ( 'NONE', #105, #68, #170, .T. ) ;
#89 = PLANE ( 'NONE',  #167 ) ;
#90 = MECHANICAL_DESIGN_GEOMETRIC_PRESENTATION_REPRESENTATION (  '', ( #218 ), #130 ) ;
#91 = EDGE_CURVE ( 'NONE', #294, #80, #111, .T. ) ;
#92 = PRESENTATION_STYLE_ASSIGNMENT (( #20 ) ) ;
#93 = DIMENSIONAL_EXPONENTS ( 1.000000000000000000, 0.000000000000000000, 0.000000000000000000, 0.000000000000000000, 0.000000000000000000, 0.000000000000000000, 0.000000000000000000 ) ;
#94 = VECTOR ( 'NONE', #174, 39.37007874015748143 ) ;
#95 = MECHANICAL_DESIGN_GEOMETRIC_PRESENTATION_REPRESENTATION (  '', ( #281 ), #117 ) ;
#96 = DIRECTION ( 'NONE',  ( 0.000000000000000000, 0.000000000000000000, -1.000000000000000000 ) ) ;
#97 = DIRECTION ( 'NONE',  ( 0.000000000000000000, 0.000000000000000000, -1.000000000000000000 ) ) ;
#98 =( CONVERSION_BASED_UNIT ( 'INCH', #56 ) LENGTH_UNIT ( ) NAMED_UNIT ( #253 ) );
#99 = DIRECTION ( 'NONE',  ( -3.628583108584750472E-17, 1.000000000000000000, -0.000000000000000000 ) ) ;
#100 = COLOUR_RGB ( '',1.000000000000000000, 0.000000000000000000, 0.000000000000000000 ) ;
#101 =( NAMED_UNIT ( * ) PLANE_ANGLE_UNIT ( ) SI_UNIT ( $, .RADIAN. ) );
#102 = DIRECTION ( 'NONE',  ( 0.000000000000000000, 0.000000000000000000, -1.000000000000000000 ) ) ;
#103 = UNCERTAINTY_MEASURE_WITH_UNIT (LENGTH_MEASURE( 1.000000000000000082E-05 ), #200, 'distance_accuracy_value', 'NONE');
#104 = CARTESIAN_POINT ( 'NONE',  ( 1.028641826242700895E-34, 0.8125000000000000000, 0.000000000000000000 ) ) ;
#105 = VERTEX_POINT ( 'NONE', #275 ) ;
#106 = SURFACE_SIDE_STYLE ('',( #298 ) ) ;
#107 = ORIENTED_EDGE ( 'NONE', *, *, #37, .T. ) ;
#108 = MECHANICAL_DESIGN_GEOMETRIC_PRESENTATION_REPRESENTATION (  '', ( #303 ), #175 ) ;
#109 = DIRECTION ( 'NONE',  ( 1.000000000000000000, 0.000000000000000000, 0.000000000000000000 ) ) ;
#110 = ADVANCED_FACE ( 'NONE', ( #302 ), #89, .T. ) ;
#111 = LINE ( 'NONE', #196, #94 ) ;
#112 = AXIS2_PLACEMENT_3D ( 'NONE', #288, #35, #285 ) ;
#113 = PRODUCT_DEFINITION_FORMATION_WITH_SPECIFIED_SOURCE ( 'ANY', '', #1, .NOT_KNOWN. ) ;
#114 = EDGE_CURVE ( 'NONE', #129, #294, #197, .T. ) ;
#115 = UNCERTAINTY_MEASURE_WITH_UNIT (LENGTH_MEASURE( 1.000000000000000082E-05 ), #198, 'distance_accuracy_value', 'NONE');
#116 = CLOSED_SHELL ( 'NONE', ( #249, #308, #138, #62 ) ) ;
#117 =( GEOMETRIC_REPRESENTATION_CONTEXT ( 3 ) GLOBAL_UNCERTAINTY_ASSIGNED_CONTEXT ( ( #220 ) ) GLOBAL_UNIT_ASSIGNED_CONTEXT ( ( #98, #142, #34 ) ) REPRESENTATION_CONTEXT ( 'NONE', 'WORKASPACE' ) );
#118 = DIRECTION ( 'NONE',  ( 0.000000000000000000, 1.000000000000000000, 0.000000000000000000 ) ) ;
#119 = DIRECTION ( 'NONE',  ( 0.000000000000000000, 0.000000000000000000, -1.000000000000000000 ) ) ;
#120 =( NAMED_UNIT ( * ) PLANE_ANGLE_UNIT ( ) SI_UNIT ( $, .RADIAN. ) );
#121 = PRESENTATION_STYLE_ASSIGNMENT (( #289 ) ) ;
#122 = DIRECTION ( 'NONE',  ( -3.628583108584750472E-17, 1.000000000000000000, -0.000000000000000000 ) ) ;
#123 = PRESENTATION_STYLE_ASSIGNMENT (( #148 ) ) ;
#124 = EDGE_LOOP ( 'NONE', ( #107, #171, #194, #272 ) ) ;
#125 = CYLINDRICAL_SURFACE ( 'NONE', #70, 0.1562500000000000278 ) ;
#126 = DIRECTION ( 'NONE',  ( -1.000000000000000000, 0.000000000000000000, 0.000000000000000000 ) ) ;
#127 =( NAMED_UNIT ( * ) PLANE_ANGLE_UNIT ( ) SI_UNIT ( $, .RADIAN. ) );
#128 = ADVANCED_BREP_SHAPE_REPRESENTATION ( '00257', ( #307, #306, #238 ), #17 ) ;
#129 = VERTEX_POINT ( 'NONE', #10 ) ;
#130 =( GEOMETRIC_REPRESENTATION_CONTEXT ( 3 ) GLOBAL_UNCERTAINTY_ASSIGNED_CONTEXT ( ( #252 ) ) GLOBAL_UNIT_ASSIGNED_CONTEXT ( ( #75, #120, #229 ) ) REPRESENTATION_CONTEXT ( 'NONE', 'WORKASPACE' ) );
#131 = APPLICATION_PROTOCOL_DEFINITION ( 'draft international standard', 'automotive_design', 1998, #61 ) ;
#132 = CARTESIAN_POINT ( 'NONE',  ( 0.000000000000000000, 0.8125000000000001110, 0.000000000000000000 ) ) ;
#133 = ORIENTED_EDGE ( 'NONE', *, *, #214, .F. ) ;
#134 = AXIS2_PLACEMENT_3D ( 'NONE', #3, #205, #96 ) ;
#135 = SHAPE_DEFINITION_REPRESENTATION ( #292, #128 ) ;
#136 = UNCERTAINTY_MEASURE_WITH_UNIT (LENGTH_MEASURE( 1.000000000000000082E-05 ), #243, 'distance_accuracy_value', 'NONE');
#137 = PRESENTATION_LAYER_ASSIGNMENT (  '', '', ( #273 ) ) ;
#138 = ADVANCED_FACE ( 'NONE', ( #260 ), #125, .T. ) ;
#139 = AXIS2_PLACEMENT_3D ( 'NONE', #140, #122, #184 ) ;
#140 = CARTESIAN_POINT ( 'NONE',  ( -6.123233995736766036E-17, 2.500000000000000000, 0.000000000000000000 ) ) ;
#141 = DIRECTION ( 'NONE',  ( 0.000000000000000000, 0.000000000000000000, -1.000000000000000000 ) ) ;
#142 =( NAMED_UNIT ( * ) PLANE_ANGLE_UNIT ( ) SI_UNIT ( $, .RADIAN. ) );
#143 = ORIENTED_EDGE ( 'NONE', *, *, #210, .F. ) ;
#144 = CIRCLE ( 'NONE', #212, 0.1562500000000000000 ) ;
#145 =( CONVERSION_BASED_UNIT ( 'INCH', #77 ) LENGTH_UNIT ( ) NAMED_UNIT ( #255 ) );
#146 = CARTESIAN_POINT ( 'NONE',  ( 0.000000000000000000, 0.8125000000000001110, 0.000000000000000000 ) ) ;
#147 = EDGE_LOOP ( 'NONE', ( #215, #244 ) ) ;
#148 = SURFACE_STYLE_USAGE ( .BOTH. , #106 ) ;
#149 = ORIENTED_EDGE ( 'NONE', *, *, #48, .T. ) ;
#150 =( LENGTH_UNIT ( ) NAMED_UNIT ( * ) SI_UNIT ( $, .METRE. ) );
#151 = CIRCLE ( 'NONE', #42, 0.1562500000000000000 ) ;
#152 = DIRECTION ( 'NONE',  ( -1.000000000000000000, -3.628583108584750472E-17, 0.000000000000000000 ) ) ;
#153 = DIRECTION ( 'NONE',  ( -3.628583108584750472E-17, 1.000000000000000000, -0.000000000000000000 ) ) ;
#154 = ADVANCED_FACE ( 'NONE', ( #163 ), #206, .T. ) ;
#155 = DIMENSIONAL_EXPONENTS ( 1.000000000000000000, 0.000000000000000000, 0.000000000000000000, 0.000000000000000000, 0.000000000000000000, 0.000000000000000000, 0.000000000000000000 ) ;
#156 = CIRCLE ( 'NONE', #237, 0.1562500000000000000 ) ;
#157 = EDGE_CURVE ( 'NONE', #129, #236, #24, .T. ) ;
#158 = FILL_AREA_STYLE_COLOUR ( '', #100 ) ;
#159 = CARTESIAN_POINT ( 'NONE',  ( -0.1562500000000001110, 2.500000000000000000, 0.000000000000000000 ) ) ;
#160 = CYLINDRICAL_SURFACE ( 'NONE', #258, 0.1562500000000000000 ) ;
#161 = DIMENSIONAL_EXPONENTS ( 1.000000000000000000, 0.000000000000000000, 0.000000000000000000, 0.000000000000000000, 0.000000000000000000, 0.000000000000000000, 0.000000000000000000 ) ;
#162 = AXIS2_PLACEMENT_3D ( 'NONE', #30, #99, #208 ) ;
#163 = FACE_OUTER_BOUND ( 'NONE', #14, .T. ) ;
#164 = ORIENTED_EDGE ( 'NONE', *, *, #91, .T. ) ;
#165 = UNCERTAINTY_MEASURE_WITH_UNIT (LENGTH_MEASURE( 1.000000000000000082E-05 ), #145, 'distance_accuracy_value', 'NONE');
#166 = ORIENTED_EDGE ( 'NONE', *, *, #247, .T. ) ;
#167 = AXIS2_PLACEMENT_3D ( 'NONE', #38, #41, #233 ) ;
#168 =( LENGTH_UNIT ( ) NAMED_UNIT ( * ) SI_UNIT ( $, .METRE. ) );
#169 = LENGTH_MEASURE_WITH_UNIT ( LENGTH_MEASURE( 0.02539999999999999897 ), #283 );
#170 = LINE ( 'NONE', #268, #178 ) ;
#171 = ORIENTED_EDGE ( 'NONE', *, *, #88, .T. ) ;
#172 = ORIENTED_EDGE ( 'NONE', *, *, #88, .F. ) ;
#173 = MECHANICAL_DESIGN_GEOMETRIC_PRESENTATION_REPRESENTATION (  '', ( #273 ), #47 ) ;
#174 = DIRECTION ( 'NONE',  ( -0.000000000000000000, -1.000000000000000000, -0.000000000000000000 ) ) ;
#175 =( GEOMETRIC_REPRESENTATION_CONTEXT ( 3 ) GLOBAL_UNCERTAINTY_ASSIGNED_CONTEXT ( ( #165 ) ) GLOBAL_UNIT_ASSIGNED_CONTEXT ( ( #145, #127, #240 ) ) REPRESENTATION_CONTEXT ( 'NONE', 'WORKASPACE' ) );
#176 = SURFACE_STYLE_FILL_AREA ( #49 ) ;
#177 = EDGE_CURVE ( 'NONE', #296, #191, #230, .T. ) ;
#178 = VECTOR ( 'NONE', #248, 39.37007874015748143 ) ;
#179 = DIRECTION ( 'NONE',  ( -0.000000000000000000, -1.000000000000000000, -0.000000000000000000 ) ) ;
#180 = SURFACE_SIDE_STYLE ('',( #29 ) ) ;
#181 = FACE_OUTER_BOUND ( 'NONE', #124, .T. ) ;
#182 = SURFACE_STYLE_FILL_AREA ( #55 ) ;
#183 = EDGE_CURVE ( 'NONE', #191, #68, #71, .T. ) ;
#184 = DIRECTION ( 'NONE',  ( -1.000000000000000000, 0.000000000000000000, 0.000000000000000000 ) ) ;
#185 =( NAMED_UNIT ( * ) SI_UNIT ( $, .STERADIAN. ) SOLID_ANGLE_UNIT ( ) );
#186 = ORIENTED_EDGE ( 'NONE', *, *, #114, .F. ) ;
#187 = FILL_AREA_STYLE_COLOUR ( '', #246 ) ;
#188 = ORIENTED_EDGE ( 'NONE', *, *, #177, .T. ) ;
#189 = EDGE_CURVE ( 'NONE', #80, #236, #156, .T. ) ;
#190 = FACE_OUTER_BOUND ( 'NONE', #59, .T. ) ;
#191 = VERTEX_POINT ( 'NONE', #232 ) ;
#192 = PRESENTATION_LAYER_ASSIGNMENT (  '', '', ( #278 ) ) ;
#193 = DIRECTION ( 'NONE',  ( -1.000000000000000000, 0.000000000000000000, 0.000000000000000000 ) ) ;
#194 = ORIENTED_EDGE ( 'NONE', *, *, #183, .F. ) ;
#195 = PLANE ( 'NONE',  #46 ) ;
#196 = CARTESIAN_POINT ( 'NONE',  ( 0.000000000000000000, 0.000000000000000000, -0.1562500000000000000 ) ) ;
#197 = CIRCLE ( 'NONE', #112, 0.1562500000000000000 ) ;
#198 =( CONVERSION_BASED_UNIT ( 'INCH', #277 ) LENGTH_UNIT ( ) NAMED_UNIT ( #73 ) );
#199 = STYLED_ITEM ( 'NONE', ( #92 ), #257 ) ;
#200 =( CONVERSION_BASED_UNIT ( 'INCH', #222 ) LENGTH_UNIT ( ) NAMED_UNIT ( #155 ) );
#201 = FACE_OUTER_BOUND ( 'NONE', #40, .T. ) ;
#202 = PRESENTATION_LAYER_ASSIGNMENT (  '', '', ( #199 ) ) ;
#203 = CARTESIAN_POINT ( 'NONE',  ( -0.1562500000000000000, 0.8125000000000001110, 0.000000000000000000 ) ) ;
#204 = CARTESIAN_POINT ( 'NONE',  ( 0.000000000000000000, 0.000000000000000000, 0.000000000000000000 ) ) ;
#205 = DIRECTION ( 'NONE',  ( -0.000000000000000000, -1.000000000000000000, -0.000000000000000000 ) ) ;
#206 = CYLINDRICAL_SURFACE ( 'NONE', #134, 0.1562500000000000000 ) ;
#207 = CARTESIAN_POINT ( 'NONE',  ( 0.000000000000000000, 0.8125000000000000000, -0.1562500000000000000 ) ) ;
#208 = DIRECTION ( 'NONE',  ( -1.000000000000000000, 0.000000000000000000, 0.000000000000000000 ) ) ;
#209 = UNCERTAINTY_MEASURE_WITH_UNIT (LENGTH_MEASURE( 1.000000000000000082E-05 ), #5, 'distance_accuracy_value', 'NONE');
#210 = EDGE_CURVE ( 'NONE', #294, #129, #280, .T. ) ;
#211 = FACE_OUTER_BOUND ( 'NONE', #290, .T. ) ;
#212 = AXIS2_PLACEMENT_3D ( 'NONE', #132, #153, #126 ) ;
#213 = ORIENTED_EDGE ( 'NONE', *, *, #247, .F. ) ;
#214 = EDGE_CURVE ( 'NONE', #236, #80, #221, .T. ) ;
#215 = ORIENTED_EDGE ( 'NONE', *, *, #189, .T. ) ;
#216 = DIRECTION ( 'NONE',  ( -3.628583108584750472E-17, 1.000000000000000000, 0.000000000000000000 ) ) ;
#217 = CLOSED_SHELL ( 'NONE', ( #154, #257, #276, #110 ) ) ;
#218 = STYLED_ITEM ( 'NONE', ( #121 ), #306 ) ;
#219 = DIRECTION ( 'NONE',  ( 0.000000000000000000, -0.000000000000000000, 1.000000000000000000 ) ) ;
#220 = UNCERTAINTY_MEASURE_WITH_UNIT (LENGTH_MEASURE( 1.000000000000000082E-05 ), #98, 'distance_accuracy_value', 'NONE');
#221 = CIRCLE ( 'NONE', #81, 0.1562500000000000000 ) ;
#222 = LENGTH_MEASURE_WITH_UNIT ( LENGTH_MEASURE( 0.02539999999999999897 ), #150 );
#223 = SURFACE_SIDE_STYLE ('',( #176 ) ) ;
#224 = DIRECTION ( 'NONE',  ( -0.000000000000000000, -1.000000000000000000, -0.000000000000000000 ) ) ;
#225 = MECHANICAL_DESIGN_GEOMETRIC_PRESENTATION_REPRESENTATION (  '', ( #278 ), #69 ) ;
#226 = LENGTH_MEASURE_WITH_UNIT ( LENGTH_MEASURE( 0.02539999999999999897 ), #256 );
#227 = PRESENTATION_LAYER_ASSIGNMENT (  '', '', ( #218 ) ) ;
#228 = DIRECTION ( 'NONE',  ( -0.000000000000000000, -1.000000000000000000, -0.000000000000000000 ) ) ;
#229 =( NAMED_UNIT ( * ) SI_UNIT ( $, .STERADIAN. ) SOLID_ANGLE_UNIT ( ) );
#230 = LINE ( 'NONE', #159, #235 ) ;
#231 = SURFACE_STYLE_USAGE ( .BOTH. , #264 ) ;
#232 = CARTESIAN_POINT ( 'NONE',  ( -0.1562500000000001388, 2.500000000000000000, 0.000000000000000000 ) ) ;
#233 = DIRECTION ( 'NONE',  ( 0.000000000000000000, 0.000000000000000000, -1.000000000000000000 ) ) ;
#234 = PLANE ( 'NONE',  #51 ) ;
#235 = VECTOR ( 'NONE', #259, 39.37007874015748143 ) ;
#236 = VERTEX_POINT ( 'NONE', #74 ) ;
#237 = AXIS2_PLACEMENT_3D ( 'NONE', #28, #224, #141 ) ;
#238 = AXIS2_PLACEMENT_3D ( 'NONE', #241, #84, #109 ) ;
#239 = ORIENTED_EDGE ( 'NONE', *, *, #183, .T. ) ;
#240 =( NAMED_UNIT ( * ) SI_UNIT ( $, .STERADIAN. ) SOLID_ANGLE_UNIT ( ) );
#241 = CARTESIAN_POINT ( 'NONE',  ( 0.000000000000000000, 0.000000000000000000, 0.000000000000000000 ) ) ;
#242 = ORIENTED_EDGE ( 'NONE', *, *, #210, .T. ) ;
#243 =( CONVERSION_BASED_UNIT ( 'INCH', #269 ) LENGTH_UNIT ( ) NAMED_UNIT ( #161 ) );
#244 = ORIENTED_EDGE ( 'NONE', *, *, #214, .T. ) ;
#245 =( GEOMETRIC_REPRESENTATION_CONTEXT ( 3 ) GLOBAL_UNCERTAINTY_ASSIGNED_CONTEXT ( ( #103 ) ) GLOBAL_UNIT_ASSIGNED_CONTEXT ( ( #200, #279, #22 ) ) REPRESENTATION_CONTEXT ( 'NONE', 'WORKASPACE' ) );
#246 = COLOUR_RGB ( '',0.7921568627450980005, 0.8196078431372548767, 0.9333333333333333481 ) ;
#247 = EDGE_CURVE ( 'NONE', #68, #191, #11, .T. ) ;
#248 = DIRECTION ( 'NONE',  ( -3.628583108584750472E-17, 1.000000000000000000, -0.000000000000000000 ) ) ;
#249 = ADVANCED_FACE ( 'NONE', ( #181 ), #284, .T. ) ;
#250 = MECHANICAL_DESIGN_GEOMETRIC_PRESENTATION_REPRESENTATION (  '', ( #199 ), #245 ) ;
#251 = PRESENTATION_LAYER_ASSIGNMENT (  '', '', ( #281 ) ) ;
#252 = UNCERTAINTY_MEASURE_WITH_UNIT (LENGTH_MEASURE( 1.000000000000000082E-05 ), #75, 'distance_accuracy_value', 'NONE');
#253 = DIMENSIONAL_EXPONENTS ( 1.000000000000000000, 0.000000000000000000, 0.000000000000000000, 0.000000000000000000, 0.000000000000000000, 0.000000000000000000, 0.000000000000000000 ) ;
#254 = DIRECTION ( 'NONE',  ( -1.000000000000000000, 0.000000000000000000, 0.000000000000000000 ) ) ;
#255 = DIMENSIONAL_EXPONENTS ( 1.000000000000000000, 0.000000000000000000, 0.000000000000000000, 0.000000000000000000, 0.000000000000000000, 0.000000000000000000, 0.000000000000000000 ) ;
#256 =( LENGTH_UNIT ( ) NAMED_UNIT ( * ) SI_UNIT ( $, .METRE. ) );
#257 = ADVANCED_FACE ( 'NONE', ( #287 ), #19, .T. ) ;
#258 = AXIS2_PLACEMENT_3D ( 'NONE', #79, #261, #119 ) ;
#259 = DIRECTION ( 'NONE',  ( -3.628583108584750472E-17, 1.000000000000000000, -0.000000000000000000 ) ) ;
#260 = FACE_OUTER_BOUND ( 'NONE', #299, .T. ) ;
#261 = DIRECTION ( 'NONE',  ( -0.000000000000000000, -1.000000000000000000, -0.000000000000000000 ) ) ;
#262 = PRODUCT_RELATED_PRODUCT_CATEGORY ( 'part', '', ( #1 ) ) ;
#263 = SURFACE_STYLE_FILL_AREA ( #265 ) ;
#264 = SURFACE_SIDE_STYLE ('',( #182 ) ) ;
#265 = FILL_AREA_STYLE ('',( #58 ) ) ;
#266 = ORIENTED_EDGE ( 'NONE', *, *, #114, .T. ) ;
#267 = CARTESIAN_POINT ( 'NONE',  ( -6.123233995736766036E-17, 2.500000000000000000, 0.000000000000000000 ) ) ;
#268 = CARTESIAN_POINT ( 'NONE',  ( 0.1562499999999999722, 2.500000000000000000, 1.913510623667739771E-17 ) ) ;
#269 = LENGTH_MEASURE_WITH_UNIT ( LENGTH_MEASURE( 0.02539999999999999897 ), #168 );
#270 = PRODUCT_CONTEXT ( 'NONE', #61, 'mechanical' ) ;
#271 = ORIENTED_EDGE ( 'NONE', *, *, #189, .F. ) ;
#272 = ORIENTED_EDGE ( 'NONE', *, *, #177, .F. ) ;
#273 = STYLED_ITEM ( 'NONE', ( #72 ), #276 ) ;
#274 = COLOUR_RGB ( '',0.7921568627450980005, 0.8196078431372548767, 0.9333333333333333481 ) ;
#275 = CARTESIAN_POINT ( 'NONE',  ( 0.1562500000000000000, 0.8125000000000001110, 1.913510623667739771E-17 ) ) ;
#276 = ADVANCED_FACE ( 'NONE', ( #201 ), #160, .T. ) ;
#277 = LENGTH_MEASURE_WITH_UNIT ( LENGTH_MEASURE( 0.02539999999999999897 ), #18 );
#278 = STYLED_ITEM ( 'NONE', ( #123 ), #154 ) ;
#279 =( NAMED_UNIT ( * ) PLANE_ANGLE_UNIT ( ) SI_UNIT ( $, .RADIAN. ) );
#280 = CIRCLE ( 'NONE', #44, 0.1562500000000000000 ) ;
#281 = STYLED_ITEM ( 'NONE', ( #63 ), #307 ) ;
#282 = CARTESIAN_POINT ( 'NONE',  ( 1.913510623667739463E-17, 0.000000000000000000, 0.1562500000000000000 ) ) ;
#283 =( LENGTH_UNIT ( ) NAMED_UNIT ( * ) SI_UNIT ( $, .METRE. ) );
#284 = CYLINDRICAL_SURFACE ( 'NONE', #162, 0.1562500000000000278 ) ;
#285 = DIRECTION ( 'NONE',  ( 0.000000000000000000, 0.000000000000000000, -1.000000000000000000 ) ) ;
#286 = AXIS2_PLACEMENT_3D ( 'NONE', #23, #118, #219 ) ;
#287 = FACE_OUTER_BOUND ( 'NONE', #9, .T. ) ;
#288 = CARTESIAN_POINT ( 'NONE',  ( 0.000000000000000000, 0.8125000000000000000, 0.000000000000000000 ) ) ;
#289 = SURFACE_STYLE_USAGE ( .BOTH. , #180 ) ;
#290 = EDGE_LOOP ( 'NONE', ( #239, #166 ) ) ;
#291 = FILL_AREA_STYLE ('',( #7 ) ) ;
#292 = PRODUCT_DEFINITION_SHAPE ( 'NONE', 'NONE',  #54 ) ;
#293 =( NAMED_UNIT ( * ) PLANE_ANGLE_UNIT ( ) SI_UNIT ( $, .RADIAN. ) );
#294 = VERTEX_POINT ( 'NONE', #207 ) ;
#295 = SURFACE_SIDE_STYLE ('',( #263 ) ) ;
#296 = VERTEX_POINT ( 'NONE', #203 ) ;
#297 = FILL_AREA_STYLE ('',( #32 ) ) ;
#298 = SURFACE_STYLE_FILL_AREA ( #291 ) ;
#299 = EDGE_LOOP ( 'NONE', ( #172, #149, #188, #213 ) ) ;
#300 =( NAMED_UNIT ( * ) PLANE_ANGLE_UNIT ( ) SI_UNIT ( $, .RADIAN. ) );
#301 = DIRECTION ( 'NONE',  ( 1.000000000000000000, 3.628583108584750472E-17, 0.000000000000000000 ) ) ;
#302 = FACE_OUTER_BOUND ( 'NONE', #147, .T. ) ;
#303 = STYLED_ITEM ( 'NONE', ( #33 ), #110 ) ;
#304 = AXIS2_PLACEMENT_3D ( 'NONE', #57, #76, #254 ) ;
#305 = PRODUCT_DEFINITION_CONTEXT ( 'detailed design', #2, 'design' ) ;
#306 = MANIFOLD_SOLID_BREP ( 'Revolve - Tool Body (Straight Shanked)', #116 ) ;
#307 = MANIFOLD_SOLID_BREP ( 'Revolve - Cutting Edge', #217 ) ;
#308 = ADVANCED_FACE ( 'NONE', ( #190 ), #234, .F. ) ;
#309 = COLOUR_RGB ( '',1.000000000000000000, 0.000000000000000000, 0.000000000000000000 ) ;
ENDSEC;
END-ISO-10303-21;
