ISO-10303-21;
HEADER;
FILE_DESCRIPTION (( 'STEP AP214' ),
    '1' );
FILE_NAME ('12227.STEP',
    '2023-06-30T21:51:08',
    ( '' ),
    ( '' ),
    'SwSTEP 2.0',
    'SolidWorks 2023',
    '' );
FILE_SCHEMA (( 'AUTOMOTIVE_DESIGN' ));
ENDSEC;

DATA;
#1 =( NAMED_UNIT ( * ) PLANE_ANGLE_UNIT ( ) SI_UNIT ( $, .RADIAN. ) );
#2 = SURFACE_STYLE_FILL_AREA ( #8 ) ;
#3 = APPLICATION_PROTOCOL_DEFINITION ( 'draft international standard', 'automotive_design', 1998, #287 ) ;
#4 = UNCERTAINTY_MEASURE_WITH_UNIT (LENGTH_MEASURE( 1.000000000000000082E-05 ), #230, 'distance_accuracy_value', 'NONE');
#5 = DIRECTION ( 'NONE',  ( -1.224646799147353454E-16, 1.000000000000000000, -0.000000000000000000 ) ) ;
#6 = AXIS2_PLACEMENT_3D ( 'NONE', #186, #114, #370 ) ;
#7 = DIRECTION ( 'NONE',  ( -1.000000000000000000, -1.224646799147353454E-16, 0.000000000000000000 ) ) ;
#8 = FILL_AREA_STYLE ('',( #151 ) ) ;
#9 =( CONVERSION_BASED_UNIT ( 'INCH', #206 ) LENGTH_UNIT ( ) NAMED_UNIT ( #121 ) );
#10 = ADVANCED_FACE ( 'NONE', ( #96 ), #275, .F. ) ;
#11 = AXIS2_PLACEMENT_3D ( 'NONE', #367, #357, #130 ) ;
#12 = ORIENTED_EDGE ( 'NONE', *, *, #117, .T. ) ;
#13 =( CONVERSION_BASED_UNIT ( 'INCH', #274 ) LENGTH_UNIT ( ) NAMED_UNIT ( #112 ) );
#14 = VERTEX_POINT ( 'NONE', #125 ) ;
#15 = ADVANCED_FACE ( 'NONE', ( #16 ), #237, .F. ) ;
#16 = FACE_OUTER_BOUND ( 'NONE', #46, .T. ) ;
#17 = PRESENTATION_LAYER_ASSIGNMENT (  '', '', ( #76 ) ) ;
#18 = CYLINDRICAL_SURFACE ( 'NONE', #60, 0.1874999999999999167 ) ;
#19 = ORIENTED_EDGE ( 'NONE', *, *, #180, .F. ) ;
#20 = DIRECTION ( 'NONE',  ( 0.000000000000000000, 0.000000000000000000, -1.000000000000000000 ) ) ;
#21 = CARTESIAN_POINT ( 'NONE',  ( -1.224646799147353700E-16, 3.000000000000000444, 0.000000000000000000 ) ) ;
#22 = EDGE_CURVE ( 'NONE', #101, #358, #64, .T. ) ;
#23 = ADVANCED_BREP_SHAPE_REPRESENTATION ( '12227', ( #93, #218, #268 ), #300 ) ;
#24 =( GEOMETRIC_REPRESENTATION_CONTEXT ( 3 ) GLOBAL_UNCERTAINTY_ASSIGNED_CONTEXT ( ( #4 ) ) GLOBAL_UNIT_ASSIGNED_CONTEXT ( ( #230, #1, #311 ) ) REPRESENTATION_CONTEXT ( 'NONE', 'WORKASPACE' ) );
#25 = SURFACE_SIDE_STYLE ('',( #49 ) ) ;
#26 =( LENGTH_UNIT ( ) NAMED_UNIT ( * ) SI_UNIT ( $, .METRE. ) );
#27 = CIRCLE ( 'NONE', #182, 0.1875000000000000278 ) ;
#28 = PRESENTATION_STYLE_ASSIGNMENT (( #318 ) ) ;
#29 = CARTESIAN_POINT ( 'NONE',  ( 0.000000000000000000, 1.000000000000000000, 0.000000000000000000 ) ) ;
#30 = CARTESIAN_POINT ( 'NONE',  ( 0.1874999999999998890, 3.000000000000000444, 2.296212748401286801E-17 ) ) ;
#31 = UNCERTAINTY_MEASURE_WITH_UNIT (LENGTH_MEASURE( 1.000000000000000082E-05 ), #362, 'distance_accuracy_value', 'NONE');
#32 = SURFACE_STYLE_USAGE ( .BOTH. , #63 ) ;
#33 =( NAMED_UNIT ( * ) PLANE_ANGLE_UNIT ( ) SI_UNIT ( $, .RADIAN. ) );
#34 = DIRECTION ( 'NONE',  ( -1.224646799147353454E-16, 1.000000000000000000, 0.000000000000000000 ) ) ;
#35 = DIRECTION ( 'NONE',  ( -1.224646799147353454E-16, 1.000000000000000000, -0.000000000000000000 ) ) ;
#36 = COLOUR_RGB ( '',1.000000000000000000, 0.000000000000000000, 0.000000000000000000 ) ;
#37 = AXIS2_PLACEMENT_3D ( 'NONE', #82, #259, #113 ) ;
#38 = ORIENTED_EDGE ( 'NONE', *, *, #286, .T. ) ;
#39 = SURFACE_STYLE_USAGE ( .BOTH. , #238 ) ;
#40 =( NAMED_UNIT ( * ) SI_UNIT ( $, .STERADIAN. ) SOLID_ANGLE_UNIT ( ) );
#41 = DIRECTION ( 'NONE',  ( -1.000000000000000000, 0.000000000000000000, 0.000000000000000000 ) ) ;
#42 = ORIENTED_EDGE ( 'NONE', *, *, #180, .T. ) ;
#43 = CARTESIAN_POINT ( 'NONE',  ( -2.296212748401287726E-17, 0.1875000000000000278, 0.000000000000000000 ) ) ;
#44 = ORIENTED_EDGE ( 'NONE', *, *, #225, .T. ) ;
#45 = CARTESIAN_POINT ( 'NONE',  ( 0.000000000000000000, 0.1875000000000000555, 0.000000000000000000 ) ) ;
#46 = EDGE_LOOP ( 'NONE', ( #240, #329 ) ) ;
#47 = LINE ( 'NONE', #368, #276 ) ;
#48 = DIRECTION ( 'NONE',  ( -0.000000000000000000, -1.000000000000000000, -0.000000000000000000 ) ) ;
#49 = SURFACE_STYLE_FILL_AREA ( #250 ) ;
#50 = DIRECTION ( 'NONE',  ( -0.000000000000000000, -1.000000000000000000, -0.000000000000000000 ) ) ;
#51 = MECHANICAL_DESIGN_GEOMETRIC_PRESENTATION_REPRESENTATION (  '', ( #193 ), #61 ) ;
#52 =( NAMED_UNIT ( * ) SI_UNIT ( $, .STERADIAN. ) SOLID_ANGLE_UNIT ( ) );
#53 = AXIS2_PLACEMENT_3D ( 'NONE', #269, #95, #192 ) ;
#54 = DIMENSIONAL_EXPONENTS ( 1.000000000000000000, 0.000000000000000000, 0.000000000000000000, 0.000000000000000000, 0.000000000000000000, 0.000000000000000000, 0.000000000000000000 ) ;
#55 = AXIS2_PLACEMENT_3D ( 'NONE', #73, #195, #249 ) ;
#56 =( GEOMETRIC_REPRESENTATION_CONTEXT ( 3 ) GLOBAL_UNCERTAINTY_ASSIGNED_CONTEXT ( ( #235 ) ) GLOBAL_UNIT_ASSIGNED_CONTEXT ( ( #349, #179, #52 ) ) REPRESENTATION_CONTEXT ( 'NONE', 'WORKASPACE' ) );
#57 = DIRECTION ( 'NONE',  ( 0.000000000000000000, 0.000000000000000000, 1.000000000000000000 ) ) ;
#58 = SURFACE_SIDE_STYLE ('',( #145 ) ) ;
#59 = DIRECTION ( 'NONE',  ( -0.000000000000000000, -1.000000000000000000, -0.000000000000000000 ) ) ;
#60 = AXIS2_PLACEMENT_3D ( 'NONE', #134, #50, #246 ) ;
#61 =( GEOMETRIC_REPRESENTATION_CONTEXT ( 3 ) GLOBAL_UNCERTAINTY_ASSIGNED_CONTEXT ( ( #152 ) ) GLOBAL_UNIT_ASSIGNED_CONTEXT ( ( #9, #189, #301 ) ) REPRESENTATION_CONTEXT ( 'NONE', 'WORKASPACE' ) );
#62 = UNCERTAINTY_MEASURE_WITH_UNIT (LENGTH_MEASURE( 1.000000000000000082E-05 ), #204, 'distance_accuracy_value', 'NONE');
#63 = SURFACE_SIDE_STYLE ('',( #183 ) ) ;
#64 = CIRCLE ( 'NONE', #271, 0.1874999999999999722 ) ;
#65 = ORIENTED_EDGE ( 'NONE', *, *, #217, .T. ) ;
#66 = FILL_AREA_STYLE_COLOUR ( '', #324 ) ;
#67 = ORIENTED_EDGE ( 'NONE', *, *, #243, .F. ) ;
#68 =( CONVERSION_BASED_UNIT ( 'INCH', #211 ) LENGTH_UNIT ( ) NAMED_UNIT ( #54 ) );
#69 = AXIS2_PLACEMENT_3D ( 'NONE', #226, #147, #88 ) ;
#70 = ORIENTED_EDGE ( 'NONE', *, *, #321, .T. ) ;
#71 =( GEOMETRIC_REPRESENTATION_CONTEXT ( 3 ) GLOBAL_UNCERTAINTY_ASSIGNED_CONTEXT ( ( #294 ) ) GLOBAL_UNIT_ASSIGNED_CONTEXT ( ( #352, #233, #40 ) ) REPRESENTATION_CONTEXT ( 'NONE', 'WORKASPACE' ) );
#72 = ORIENTED_EDGE ( 'NONE', *, *, #286, .F. ) ;
#73 = CARTESIAN_POINT ( 'NONE',  ( 1.224646799147353454E-16, 1.000000000000000000, 0.000000000000000000 ) ) ;
#74 = ORIENTED_EDGE ( 'NONE', *, *, #310, .F. ) ;
#75 = FILL_AREA_STYLE_COLOUR ( '', #261 ) ;
#76 = STYLED_ITEM ( 'NONE', ( #319 ), #252 ) ;
#77 = CARTESIAN_POINT ( 'NONE',  ( 0.1874999999999999167, 1.000000000000000000, 2.296212748401286801E-17 ) ) ;
#78 = ADVANCED_FACE ( 'NONE', ( #119 ), #126, .T. ) ;
#79 = DIRECTION ( 'NONE',  ( -0.000000000000000000, -1.000000000000000000, -0.000000000000000000 ) ) ;
#80 =( GEOMETRIC_REPRESENTATION_CONTEXT ( 3 ) GLOBAL_UNCERTAINTY_ASSIGNED_CONTEXT ( ( #62 ) ) GLOBAL_UNIT_ASSIGNED_CONTEXT ( ( #204, #33, #306 ) ) REPRESENTATION_CONTEXT ( 'NONE', 'WORKASPACE' ) );
#81 = FILL_AREA_STYLE ('',( #110 ) ) ;
#82 = CARTESIAN_POINT ( 'NONE',  ( -1.224646799147353700E-16, 3.000000000000000444, 0.000000000000000000 ) ) ;
#83 = SURFACE_STYLE_FILL_AREA ( #81 ) ;
#84 = LENGTH_MEASURE_WITH_UNIT ( LENGTH_MEASURE( 0.02539999999999999897 ), #108 );
#85 = EDGE_CURVE ( 'NONE', #129, #328, #304, .T. ) ;
#86 = VECTOR ( 'NONE', #144, 39.37007874015748143 ) ;
#87 = ADVANCED_FACE ( 'NONE', ( #323 ), #184, .T. ) ;
#88 = DIRECTION ( 'NONE',  ( 0.000000000000000000, 0.000000000000000000, -1.000000000000000000 ) ) ;
#89 = FACE_OUTER_BOUND ( 'NONE', #356, .T. ) ;
#90 = DIMENSIONAL_EXPONENTS ( 1.000000000000000000, 0.000000000000000000, 0.000000000000000000, 0.000000000000000000, 0.000000000000000000, 0.000000000000000000, 0.000000000000000000 ) ;
#91 = DIRECTION ( 'NONE',  ( 1.000000000000000000, 0.000000000000000000, -1.224646799147353207E-16 ) ) ;
#92 = DIRECTION ( 'NONE',  ( 0.000000000000000000, 0.000000000000000000, 1.000000000000000000 ) ) ;
#93 = MANIFOLD_SOLID_BREP ( 'Revolve - Cutting Edge', #127 ) ;
#94 = FACE_OUTER_BOUND ( 'NONE', #280, .T. ) ;
#95 = DIRECTION ( 'NONE',  ( -0.000000000000000000, -1.000000000000000000, -0.000000000000000000 ) ) ;
#96 = FACE_OUTER_BOUND ( 'NONE', #247, .T. ) ;
#97 =( LENGTH_UNIT ( ) NAMED_UNIT ( * ) SI_UNIT ( $, .METRE. ) );
#98 = ORIENTED_EDGE ( 'NONE', *, *, #22, .T. ) ;
#99 = EDGE_CURVE ( 'NONE', #212, #135, #27, .T. ) ;
#100 = FACE_OUTER_BOUND ( 'NONE', #332, .T. ) ;
#101 = VERTEX_POINT ( 'NONE', #163 ) ;
#102 = DIRECTION ( 'NONE',  ( 0.000000000000000000, 0.000000000000000000, -1.000000000000000000 ) ) ;
#103 = FILL_AREA_STYLE_COLOUR ( '', #36 ) ;
#104 = CIRCLE ( 'NONE', #314, 0.1874999999999999722 ) ;
#105 = CARTESIAN_POINT ( 'NONE',  ( 0.000000000000000000, 0.1875000000000000555, 0.000000000000000000 ) ) ;
#106 = LINE ( 'NONE', #277, #171 ) ;
#107 = DIRECTION ( 'NONE',  ( -0.000000000000000000, -1.000000000000000000, -0.000000000000000000 ) ) ;
#108 =( LENGTH_UNIT ( ) NAMED_UNIT ( * ) SI_UNIT ( $, .METRE. ) );
#109 = STYLED_ITEM ( 'NONE', ( #158 ), #78 ) ;
#110 = FILL_AREA_STYLE_COLOUR ( '', #322 ) ;
#111 = SURFACE_STYLE_FILL_AREA ( #312 ) ;
#112 = DIMENSIONAL_EXPONENTS ( 1.000000000000000000, 0.000000000000000000, 0.000000000000000000, 0.000000000000000000, 0.000000000000000000, 0.000000000000000000, 0.000000000000000000 ) ;
#113 = DIRECTION ( 'NONE',  ( -1.000000000000000000, 0.000000000000000000, 0.000000000000000000 ) ) ;
#114 = DIRECTION ( 'NONE',  ( 0.000000000000000000, 0.000000000000000000, 1.000000000000000000 ) ) ;
#115 = DIMENSIONAL_EXPONENTS ( 1.000000000000000000, 0.000000000000000000, 0.000000000000000000, 0.000000000000000000, 0.000000000000000000, 0.000000000000000000, 0.000000000000000000 ) ;
#116 = DIRECTION ( 'NONE',  ( -1.000000000000000000, 0.000000000000000000, 0.000000000000000000 ) ) ;
#117 = EDGE_CURVE ( 'NONE', #155, #14, #106, .T. ) ;
#118 = PRODUCT_DEFINITION_CONTEXT ( 'detailed design', #258, 'design' ) ;
#119 = FACE_OUTER_BOUND ( 'NONE', #359, .T. ) ;
#120 = DIRECTION ( 'NONE',  ( 0.000000000000000000, 0.000000000000000000, -1.000000000000000000 ) ) ;
#121 = DIMENSIONAL_EXPONENTS ( 1.000000000000000000, 0.000000000000000000, 0.000000000000000000, 0.000000000000000000, 0.000000000000000000, 0.000000000000000000, 0.000000000000000000 ) ;
#122 = DIRECTION ( 'NONE',  ( 0.000000000000000000, 0.000000000000000000, -1.000000000000000000 ) ) ;
#123 = MECHANICAL_DESIGN_GEOMETRIC_PRESENTATION_REPRESENTATION (  '', ( #76 ), #330 ) ;
#124 = APPLICATION_PROTOCOL_DEFINITION ( 'draft international standard', 'automotive_design', 1998, #258 ) ;
#125 = CARTESIAN_POINT ( 'NONE',  ( 0.000000000000000000, 0.1875000000000000555, -0.1874999999999999722 ) ) ;
#126 = CYLINDRICAL_SURFACE ( 'NONE', #53, 0.1874999999999999167 ) ;
#127 = CLOSED_SHELL ( 'NONE', ( #252, #138, #315, #78, #327 ) ) ;
#128 =( NAMED_UNIT ( * ) SI_UNIT ( $, .STERADIAN. ) SOLID_ANGLE_UNIT ( ) );
#129 = VERTEX_POINT ( 'NONE', #77 ) ;
#130 = DIRECTION ( 'NONE',  ( 1.000000000000000000, 1.224646799147353454E-16, 0.000000000000000000 ) ) ;
#131 = VERTEX_POINT ( 'NONE', #336 ) ;
#132 = CIRCLE ( 'NONE', #69, 0.1874999999999998890 ) ;
#133 = ORIENTED_EDGE ( 'NONE', *, *, #85, .T. ) ;
#134 = CARTESIAN_POINT ( 'NONE',  ( 0.000000000000000000, 0.000000000000000000, 0.000000000000000000 ) ) ;
#135 = VERTEX_POINT ( 'NONE', #221 ) ;
#136 = CARTESIAN_POINT ( 'NONE',  ( 1.224646799147353454E-16, 1.000000000000000000, 0.000000000000000000 ) ) ;
#137 =( NAMED_UNIT ( * ) PLANE_ANGLE_UNIT ( ) SI_UNIT ( $, .RADIAN. ) );
#138 = ADVANCED_FACE ( 'NONE', ( #100 ), #18, .T. ) ;
#139 = CIRCLE ( 'NONE', #341, 0.1874999999999997780 ) ;
#140 = PRODUCT_DEFINITION_FORMATION_WITH_SPECIFIED_SOURCE ( 'ANY', '', #222, .NOT_KNOWN. ) ;
#141 = PRESENTATION_STYLE_ASSIGNMENT (( #339 ) ) ;
#142 = FILL_AREA_STYLE ('',( #103 ) ) ;
#143 = AXIS2_PLACEMENT_3D ( 'NONE', #334, #35, #41 ) ;
#144 = DIRECTION ( 'NONE',  ( -0.000000000000000000, -1.000000000000000000, -0.000000000000000000 ) ) ;
#145 = SURFACE_STYLE_FILL_AREA ( #142 ) ;
#146 =( LENGTH_UNIT ( ) NAMED_UNIT ( * ) SI_UNIT ( $, .METRE. ) );
#147 = DIRECTION ( 'NONE',  ( -0.000000000000000000, -1.000000000000000000, -0.000000000000000000 ) ) ;
#148 =( NAMED_UNIT ( * ) SI_UNIT ( $, .STERADIAN. ) SOLID_ANGLE_UNIT ( ) );
#149 = CARTESIAN_POINT ( 'NONE',  ( -2.296212748401287726E-17, 0.1875000000000000278, 0.000000000000000000 ) ) ;
#150 = FILL_AREA_STYLE ('',( #241 ) ) ;
#151 = FILL_AREA_STYLE_COLOUR ( '', #197 ) ;
#152 = UNCERTAINTY_MEASURE_WITH_UNIT (LENGTH_MEASURE( 1.000000000000000082E-05 ), #9, 'distance_accuracy_value', 'NONE');
#153 = FILL_AREA_STYLE ('',( #66 ) ) ;
#154 = PRODUCT_CONTEXT ( 'NONE', #287, 'mechanical' ) ;
#155 = VERTEX_POINT ( 'NONE', #309 ) ;
#156 = DIRECTION ( 'NONE',  ( 1.224646799147353207E-16, -0.000000000000000000, 1.000000000000000000 ) ) ;
#157 = EDGE_CURVE ( 'NONE', #131, #160, #47, .T. ) ;
#158 = PRESENTATION_STYLE_ASSIGNMENT (( #32 ) ) ;
#159 = MECHANICAL_DESIGN_GEOMETRIC_PRESENTATION_REPRESENTATION (  '', ( #224 ), #256 ) ;
#160 = VERTEX_POINT ( 'NONE', #281 ) ;
#161 = SURFACE_SIDE_STYLE ('',( #232 ) ) ;
#162 = ORIENTED_EDGE ( 'NONE', *, *, #291, .T. ) ;
#163 = CARTESIAN_POINT ( 'NONE',  ( 2.296212748401287109E-17, 0.1875000000000000555, 0.1874999999999999722 ) ) ;
#164 = AXIS2_PLACEMENT_3D ( 'NONE', #293, #156, #91 ) ;
#165 = ORIENTED_EDGE ( 'NONE', *, *, #355, .F. ) ;
#166 = DIRECTION ( 'NONE',  ( -1.224646799147353454E-16, 1.000000000000000000, -0.000000000000000000 ) ) ;
#167 = DIRECTION ( 'NONE',  ( 0.000000000000000000, 0.000000000000000000, -1.000000000000000000 ) ) ;
#168 = PRESENTATION_LAYER_ASSIGNMENT (  '', '', ( #109 ) ) ;
#169 = LENGTH_MEASURE_WITH_UNIT ( LENGTH_MEASURE( 0.02539999999999999897 ), #338 );
#170 = LINE ( 'NONE', #282, #86 ) ;
#171 = VECTOR ( 'NONE', #333, 39.37007874015748143 ) ;
#172 =( NAMED_UNIT ( * ) SI_UNIT ( $, .STERADIAN. ) SOLID_ANGLE_UNIT ( ) );
#173 = SURFACE_SIDE_STYLE ('',( #111 ) ) ;
#174 = CIRCLE ( 'NONE', #284, 0.1874999999999998890 ) ;
#175 = EDGE_CURVE ( 'NONE', #14, #212, #289, .T. ) ;
#176 = DIRECTION ( 'NONE',  ( 0.000000000000000000, 1.000000000000000000, 0.000000000000000000 ) ) ;
#177 = AXIS2_PLACEMENT_3D ( 'NONE', #326, #295, #116 ) ;
#178 = PRESENTATION_STYLE_ASSIGNMENT (( #288 ) ) ;
#179 =( NAMED_UNIT ( * ) PLANE_ANGLE_UNIT ( ) SI_UNIT ( $, .RADIAN. ) );
#180 = EDGE_CURVE ( 'NONE', #129, #131, #139, .T. ) ;
#181 = DIMENSIONAL_EXPONENTS ( 1.000000000000000000, 0.000000000000000000, 0.000000000000000000, 0.000000000000000000, 0.000000000000000000, 0.000000000000000000, 0.000000000000000000 ) ;
#182 = AXIS2_PLACEMENT_3D ( 'NONE', #43, #102, #365 ) ;
#183 = SURFACE_STYLE_FILL_AREA ( #150 ) ;
#184 = CYLINDRICAL_SURFACE ( 'NONE', #177, 0.1874999999999998890 ) ;
#185 = CARTESIAN_POINT ( 'NONE',  ( 1.224646799147353207E-16, 1.000000000000000000, 0.000000000000000000 ) ) ;
#186 = CARTESIAN_POINT ( 'NONE',  ( -2.296212748401287726E-17, 0.1875000000000000278, 0.000000000000000000 ) ) ;
#187 = SURFACE_STYLE_USAGE ( .BOTH. , #161 ) ;
#188 = ORIENTED_EDGE ( 'NONE', *, *, #291, .F. ) ;
#189 =( NAMED_UNIT ( * ) PLANE_ANGLE_UNIT ( ) SI_UNIT ( $, .RADIAN. ) );
#190 = MECHANICAL_DESIGN_GEOMETRIC_PRESENTATION_REPRESENTATION (  '', ( #346 ), #56 ) ;
#191 = ORIENTED_EDGE ( 'NONE', *, *, #85, .F. ) ;
#192 = DIRECTION ( 'NONE',  ( 0.000000000000000000, 0.000000000000000000, -1.000000000000000000 ) ) ;
#193 = STYLED_ITEM ( 'NONE', ( #351 ), #93 ) ;
#194 = ORIENTED_EDGE ( 'NONE', *, *, #157, .T. ) ;
#195 = DIRECTION ( 'NONE',  ( -1.224646799147353454E-16, 1.000000000000000000, -0.000000000000000000 ) ) ;
#196 = ORIENTED_EDGE ( 'NONE', *, *, #285, .T. ) ;
#197 = COLOUR_RGB ( '',1.000000000000000000, 0.000000000000000000, 0.000000000000000000 ) ;
#198 = CARTESIAN_POINT ( 'NONE',  ( 0.1874999999999999722, 0.1875000000000000555, 0.000000000000000000 ) ) ;
#199 = CARTESIAN_POINT ( 'NONE',  ( 2.296212748401285877E-17, 1.000000000000000000, 0.1874999999999998890 ) ) ;
#200 = CIRCLE ( 'NONE', #164, 0.1875000000000000278 ) ;
#201 = SURFACE_SIDE_STYLE ('',( #83 ) ) ;
#202 = AXIS2_PLACEMENT_3D ( 'NONE', #21, #279, #337 ) ;
#203 = PRESENTATION_LAYER_ASSIGNMENT (  '', '', ( #346 ) ) ;
#204 =( CONVERSION_BASED_UNIT ( 'INCH', #348 ) LENGTH_UNIT ( ) NAMED_UNIT ( #260 ) );
#205 = LENGTH_MEASURE_WITH_UNIT ( LENGTH_MEASURE( 0.02539999999999999897 ), #316 );
#206 = LENGTH_MEASURE_WITH_UNIT ( LENGTH_MEASURE( 0.02539999999999999897 ), #297 );
#207 = CARTESIAN_POINT ( 'NONE',  ( 0.1874999999999997502, 3.000000000000000444, 2.296212748401285877E-17 ) ) ;
#208 = ORIENTED_EDGE ( 'NONE', *, *, #243, .T. ) ;
#209 = CARTESIAN_POINT ( 'NONE',  ( 0.000000000000000000, 0.1875000000000000555, 0.000000000000000000 ) ) ;
#210 = ORIENTED_EDGE ( 'NONE', *, *, #99, .T. ) ;
#211 = LENGTH_MEASURE_WITH_UNIT ( LENGTH_MEASURE( 0.02539999999999999897 ), #267 );
#212 = VERTEX_POINT ( 'NONE', #198 ) ;
#213 = COLOUR_RGB ( '',1.000000000000000000, 0.000000000000000000, 0.000000000000000000 ) ;
#214 = DIRECTION ( 'NONE',  ( 1.000000000000000000, 0.000000000000000000, 0.000000000000000000 ) ) ;
#215 = ORIENTED_EDGE ( 'NONE', *, *, #321, .F. ) ;
#216 = VERTEX_POINT ( 'NONE', #199 ) ;
#217 = EDGE_CURVE ( 'NONE', #216, #101, #170, .T. ) ;
#218 = MANIFOLD_SOLID_BREP ( 'Revolve - Tool Body (Straight Shanked)', #369 ) ;
#219 = DIRECTION ( 'NONE',  ( -1.000000000000000000, 0.000000000000000000, 0.000000000000000000 ) ) ;
#220 = CIRCLE ( 'NONE', #55, 0.1874999999999997780 ) ;
#221 = CARTESIAN_POINT ( 'NONE',  ( -1.148106374200643863E-17, 0.000000000000000000, 0.000000000000000000 ) ) ;
#222 = PRODUCT ( '12227', '12227', '', ( #154 ) ) ;
#223 = MECHANICAL_DESIGN_GEOMETRIC_PRESENTATION_REPRESENTATION (  '', ( #266 ), #80 ) ;
#224 = STYLED_ITEM ( 'NONE', ( #141 ), #138 ) ;
#225 = EDGE_CURVE ( 'NONE', #212, #101, #354, .T. ) ;
#226 = CARTESIAN_POINT ( 'NONE',  ( 0.000000000000000000, 1.000000000000000000, 0.000000000000000000 ) ) ;
#227 = ADVANCED_FACE ( 'NONE', ( #89 ), #353, .T. ) ;
#228 = FILL_AREA_STYLE_COLOUR ( '', #213 ) ;
#229 = AXIS2_PLACEMENT_3D ( 'NONE', #29, #176, #373 ) ;
#230 =( CONVERSION_BASED_UNIT ( 'INCH', #205 ) LENGTH_UNIT ( ) NAMED_UNIT ( #181 ) );
#231 =( NAMED_UNIT ( * ) PLANE_ANGLE_UNIT ( ) SI_UNIT ( $, .RADIAN. ) );
#232 = SURFACE_STYLE_FILL_AREA ( #153 ) ;
#233 =( NAMED_UNIT ( * ) PLANE_ANGLE_UNIT ( ) SI_UNIT ( $, .RADIAN. ) );
#234 = AXIS2_PLACEMENT_3D ( 'NONE', #105, #79, #20 ) ;
#235 = UNCERTAINTY_MEASURE_WITH_UNIT (LENGTH_MEASURE( 1.000000000000000082E-05 ), #349, 'distance_accuracy_value', 'NONE');
#236 = SHAPE_DEFINITION_REPRESENTATION ( #255, #23 ) ;
#237 = PLANE ( 'NONE',  #11 ) ;
#238 = SURFACE_SIDE_STYLE ('',( #2 ) ) ;
#239 = CARTESIAN_POINT ( 'NONE',  ( 0.000000000000000000, 0.000000000000000000, 0.000000000000000000 ) ) ;
#240 = ORIENTED_EDGE ( 'NONE', *, *, #355, .T. ) ;
#241 = FILL_AREA_STYLE_COLOUR ( '', #317 ) ;
#242 =( NAMED_UNIT ( * ) PLANE_ANGLE_UNIT ( ) SI_UNIT ( $, .RADIAN. ) );
#243 = EDGE_CURVE ( 'NONE', #358, #135, #200, .T. ) ;
#244 = ORIENTED_EDGE ( 'NONE', *, *, #22, .F. ) ;
#245 = ORIENTED_EDGE ( 'NONE', *, *, #117, .F. ) ;
#246 = DIRECTION ( 'NONE',  ( 0.000000000000000000, 0.000000000000000000, -1.000000000000000000 ) ) ;
#247 = EDGE_LOOP ( 'NONE', ( #72, #19 ) ) ;
#248 = DIRECTION ( 'NONE',  ( -1.224646799147353454E-16, 1.000000000000000000, -0.000000000000000000 ) ) ;
#249 = DIRECTION ( 'NONE',  ( -1.000000000000000000, 0.000000000000000000, 0.000000000000000000 ) ) ;
#250 = FILL_AREA_STYLE ('',( #75 ) ) ;
#251 = PRESENTATION_LAYER_ASSIGNMENT (  '', '', ( #224 ) ) ;
#252 = ADVANCED_FACE ( 'NONE', ( #94 ), #350, .T. ) ;
#253 = AXIS2_PLACEMENT_3D ( 'NONE', #149, #57, #262 ) ;
#254 = AXIS2_PLACEMENT_3D ( 'NONE', #185, #34, #7 ) ;
#255 = PRODUCT_DEFINITION_SHAPE ( 'NONE', 'NONE',  #305 ) ;
#256 =( GEOMETRIC_REPRESENTATION_CONTEXT ( 3 ) GLOBAL_UNCERTAINTY_ASSIGNED_CONTEXT ( ( #31 ) ) GLOBAL_UNIT_ASSIGNED_CONTEXT ( ( #362, #137, #172 ) ) REPRESENTATION_CONTEXT ( 'NONE', 'WORKASPACE' ) );
#257 = CARTESIAN_POINT ( 'NONE',  ( 0.000000000000000000, 0.1875000000000000555, 0.000000000000000000 ) ) ;
#258 = APPLICATION_CONTEXT ( 'automotive_design' ) ;
#259 = DIRECTION ( 'NONE',  ( -1.224646799147353454E-16, 1.000000000000000000, -0.000000000000000000 ) ) ;
#260 = DIMENSIONAL_EXPONENTS ( 1.000000000000000000, 0.000000000000000000, 0.000000000000000000, 0.000000000000000000, 0.000000000000000000, 0.000000000000000000, 0.000000000000000000 ) ;
#261 = COLOUR_RGB ( '',1.000000000000000000, 0.000000000000000000, 0.000000000000000000 ) ;
#262 = DIRECTION ( 'NONE',  ( 1.000000000000000000, 0.000000000000000000, 0.000000000000000000 ) ) ;
#263 = DIMENSIONAL_EXPONENTS ( 1.000000000000000000, 0.000000000000000000, 0.000000000000000000, 0.000000000000000000, 0.000000000000000000, 0.000000000000000000, 0.000000000000000000 ) ;
#264 = UNCERTAINTY_MEASURE_WITH_UNIT (LENGTH_MEASURE( 1.000000000000000082E-05 ), #13, 'distance_accuracy_value', 'NONE');
#265 = ORIENTED_EDGE ( 'NONE', *, *, #175, .F. ) ;
#266 = STYLED_ITEM ( 'NONE', ( #28 ), #218 ) ;
#267 =( LENGTH_UNIT ( ) NAMED_UNIT ( * ) SI_UNIT ( $, .METRE. ) );
#268 = AXIS2_PLACEMENT_3D ( 'NONE', #239, #92, #214 ) ;
#269 = CARTESIAN_POINT ( 'NONE',  ( 0.000000000000000000, 0.000000000000000000, 0.000000000000000000 ) ) ;
#270 = ORIENTED_EDGE ( 'NONE', *, *, #217, .F. ) ;
#271 = AXIS2_PLACEMENT_3D ( 'NONE', #209, #59, #122 ) ;
#272 = PRESENTATION_LAYER_ASSIGNMENT (  '', '', ( #193 ) ) ;
#273 = ORIENTED_EDGE ( 'NONE', *, *, #99, .F. ) ;
#274 = LENGTH_MEASURE_WITH_UNIT ( LENGTH_MEASURE( 0.02539999999999999897 ), #26 );
#275 = PLANE ( 'NONE',  #254 ) ;
#276 = VECTOR ( 'NONE', #166, 39.37007874015748143 ) ;
#277 = CARTESIAN_POINT ( 'NONE',  ( 0.000000000000000000, 0.000000000000000000, -0.1874999999999999167 ) ) ;
#278 = CIRCLE ( 'NONE', #37, 0.1875000000000000278 ) ;
#279 = DIRECTION ( 'NONE',  ( -1.224646799147353454E-16, 1.000000000000000000, -0.000000000000000000 ) ) ;
#280 = EDGE_LOOP ( 'NONE', ( #98, #208, #273, #44 ) ) ;
#281 = CARTESIAN_POINT ( 'NONE',  ( -0.1875000000000001388, 3.000000000000000444, 0.000000000000000000 ) ) ;
#282 = CARTESIAN_POINT ( 'NONE',  ( 2.296212748401286185E-17, 0.000000000000000000, 0.1874999999999999167 ) ) ;
#283 = PRODUCT_RELATED_PRODUCT_CATEGORY ( 'part', '', ( #222 ) ) ;
#284 = AXIS2_PLACEMENT_3D ( 'NONE', #347, #107, #335 ) ;
#285 = EDGE_CURVE ( 'NONE', #155, #216, #174, .T. ) ;
#286 = EDGE_CURVE ( 'NONE', #131, #129, #220, .T. ) ;
#287 = APPLICATION_CONTEXT ( 'automotive_design' ) ;
#288 = SURFACE_STYLE_USAGE ( .BOTH. , #58 ) ;
#289 = CIRCLE ( 'NONE', #234, 0.1874999999999999722 ) ;
#290 = DIRECTION ( 'NONE',  ( -0.000000000000000000, -1.000000000000000000, -0.000000000000000000 ) ) ;
#291 = EDGE_CURVE ( 'NONE', #358, #14, #104, .T. ) ;
#292 = CIRCLE ( 'NONE', #202, 0.1875000000000000278 ) ;
#293 = CARTESIAN_POINT ( 'NONE',  ( -2.296212748401287726E-17, 0.1875000000000000278, 0.000000000000000000 ) ) ;
#294 = UNCERTAINTY_MEASURE_WITH_UNIT (LENGTH_MEASURE( 1.000000000000000082E-05 ), #352, 'distance_accuracy_value', 'NONE');
#295 = DIRECTION ( 'NONE',  ( -1.224646799147353454E-16, 1.000000000000000000, -0.000000000000000000 ) ) ;
#296 = ORIENTED_EDGE ( 'NONE', *, *, #285, .F. ) ;
#297 =( LENGTH_UNIT ( ) NAMED_UNIT ( * ) SI_UNIT ( $, .METRE. ) );
#298 = EDGE_LOOP ( 'NONE', ( #38, #133, #165, #307 ) ) ;
#299 = STYLED_ITEM ( 'NONE', ( #178 ), #315 ) ;
#300 =( GEOMETRIC_REPRESENTATION_CONTEXT ( 3 ) GLOBAL_UNCERTAINTY_ASSIGNED_CONTEXT ( ( #264 ) ) GLOBAL_UNIT_ASSIGNED_CONTEXT ( ( #13, #242, #128 ) ) REPRESENTATION_CONTEXT ( 'NONE', 'WORKASPACE' ) );
#301 =( NAMED_UNIT ( * ) SI_UNIT ( $, .STERADIAN. ) SOLID_ANGLE_UNIT ( ) );
#302 = EDGE_LOOP ( 'NONE', ( #296, #215 ) ) ;
#303 = MECHANICAL_DESIGN_GEOMETRIC_PRESENTATION_REPRESENTATION (  '', ( #109 ), #71 ) ;
#304 = LINE ( 'NONE', #207, #340 ) ;
#305 = PRODUCT_DEFINITION ( 'UNKNOWN', '', #140, #118 ) ;
#306 =( NAMED_UNIT ( * ) SI_UNIT ( $, .STERADIAN. ) SOLID_ANGLE_UNIT ( ) );
#307 = ORIENTED_EDGE ( 'NONE', *, *, #157, .F. ) ;
#308 = PRESENTATION_LAYER_ASSIGNMENT (  '', '', ( #266 ) ) ;
#309 = CARTESIAN_POINT ( 'NONE',  ( 0.000000000000000000, 1.000000000000000000, -0.1874999999999998890 ) ) ;
#310 = EDGE_CURVE ( 'NONE', #328, #160, #292, .T. ) ;
#311 =( NAMED_UNIT ( * ) SI_UNIT ( $, .STERADIAN. ) SOLID_ANGLE_UNIT ( ) );
#312 = FILL_AREA_STYLE ('',( #228 ) ) ;
#313 = SPHERICAL_SURFACE ( 'NONE', #253, 0.1875000000000000278 ) ;
#314 = AXIS2_PLACEMENT_3D ( 'NONE', #45, #48, #167 ) ;
#315 = ADVANCED_FACE ( 'NONE', ( #363 ), #366, .T. ) ;
#316 =( LENGTH_UNIT ( ) NAMED_UNIT ( * ) SI_UNIT ( $, .METRE. ) );
#317 = COLOUR_RGB ( '',1.000000000000000000, 0.000000000000000000, 0.000000000000000000 ) ;
#318 = SURFACE_STYLE_USAGE ( .BOTH. , #201 ) ;
#319 = PRESENTATION_STYLE_ASSIGNMENT (( #39 ) ) ;
#320 = UNCERTAINTY_MEASURE_WITH_UNIT (LENGTH_MEASURE( 1.000000000000000082E-05 ), #68, 'distance_accuracy_value', 'NONE');
#321 = EDGE_CURVE ( 'NONE', #216, #155, #132, .T. ) ;
#322 = COLOUR_RGB ( '',0.7921568627450980005, 0.8196078431372548767, 0.9333333333333333481 ) ;
#323 = FACE_OUTER_BOUND ( 'NONE', #298, .T. ) ;
#324 = COLOUR_RGB ( '',0.7921568627450980005, 0.8196078431372548767, 0.9333333333333333481 ) ;
#325 = ORIENTED_EDGE ( 'NONE', *, *, #175, .T. ) ;
#326 = CARTESIAN_POINT ( 'NONE',  ( -1.224646799147353700E-16, 3.000000000000000444, 0.000000000000000000 ) ) ;
#327 = ADVANCED_FACE ( 'NONE', ( #343 ), #313, .T. ) ;
#328 = VERTEX_POINT ( 'NONE', #30 ) ;
#329 = ORIENTED_EDGE ( 'NONE', *, *, #310, .T. ) ;
#330 =( GEOMETRIC_REPRESENTATION_CONTEXT ( 3 ) GLOBAL_UNCERTAINTY_ASSIGNED_CONTEXT ( ( #320 ) ) GLOBAL_UNIT_ASSIGNED_CONTEXT ( ( #68, #231, #148 ) ) REPRESENTATION_CONTEXT ( 'NONE', 'WORKASPACE' ) );
#331 = LENGTH_MEASURE_WITH_UNIT ( LENGTH_MEASURE( 0.02539999999999999897 ), #97 );
#332 = EDGE_LOOP ( 'NONE', ( #196, #65, #364, #265, #245 ) ) ;
#333 = DIRECTION ( 'NONE',  ( -0.000000000000000000, -1.000000000000000000, -0.000000000000000000 ) ) ;
#334 = CARTESIAN_POINT ( 'NONE',  ( -1.224646799147353700E-16, 3.000000000000000444, 0.000000000000000000 ) ) ;
#335 = DIRECTION ( 'NONE',  ( 0.000000000000000000, 0.000000000000000000, -1.000000000000000000 ) ) ;
#336 = CARTESIAN_POINT ( 'NONE',  ( -0.1874999999999996392, 1.000000000000000000, 0.000000000000000000 ) ) ;
#337 = DIRECTION ( 'NONE',  ( -1.000000000000000000, 0.000000000000000000, 0.000000000000000000 ) ) ;
#338 =( LENGTH_UNIT ( ) NAMED_UNIT ( * ) SI_UNIT ( $, .METRE. ) );
#339 = SURFACE_STYLE_USAGE ( .BOTH. , #25 ) ;
#340 = VECTOR ( 'NONE', #5, 39.37007874015748143 ) ;
#341 = AXIS2_PLACEMENT_3D ( 'NONE', #136, #248, #219 ) ;
#342 = SURFACE_STYLE_USAGE ( .BOTH. , #173 ) ;
#343 = FACE_OUTER_BOUND ( 'NONE', #361, .T. ) ;
#344 = CARTESIAN_POINT ( 'NONE',  ( -0.1875000000000000278, 0.1875000000000000555, 2.296212748401287109E-17 ) ) ;
#345 = PRESENTATION_LAYER_ASSIGNMENT (  '', '', ( #299 ) ) ;
#346 = STYLED_ITEM ( 'NONE', ( #372 ), #327 ) ;
#347 = CARTESIAN_POINT ( 'NONE',  ( 0.000000000000000000, 1.000000000000000000, 0.000000000000000000 ) ) ;
#348 = LENGTH_MEASURE_WITH_UNIT ( LENGTH_MEASURE( 0.02539999999999999897 ), #146 );
#349 =( CONVERSION_BASED_UNIT ( 'INCH', #84 ) LENGTH_UNIT ( ) NAMED_UNIT ( #263 ) );
#350 = SPHERICAL_SURFACE ( 'NONE', #6, 0.1875000000000000278 ) ;
#351 = PRESENTATION_STYLE_ASSIGNMENT (( #187 ) ) ;
#352 =( CONVERSION_BASED_UNIT ( 'INCH', #331 ) LENGTH_UNIT ( ) NAMED_UNIT ( #115 ) );
#353 = CYLINDRICAL_SURFACE ( 'NONE', #143, 0.1874999999999998890 ) ;
#354 = CIRCLE ( 'NONE', #360, 0.1874999999999999722 ) ;
#355 = EDGE_CURVE ( 'NONE', #160, #328, #278, .T. ) ;
#356 = EDGE_LOOP ( 'NONE', ( #191, #42, #194, #74 ) ) ;
#357 = DIRECTION ( 'NONE',  ( 1.224646799147353454E-16, -1.000000000000000000, 0.000000000000000000 ) ) ;
#358 = VERTEX_POINT ( 'NONE', #344 ) ;
#359 = EDGE_LOOP ( 'NONE', ( #270, #70, #12, #188, #244 ) ) ;
#360 = AXIS2_PLACEMENT_3D ( 'NONE', #257, #290, #120 ) ;
#361 = EDGE_LOOP ( 'NONE', ( #67, #162, #325, #210 ) ) ;
#362 =( CONVERSION_BASED_UNIT ( 'INCH', #169 ) LENGTH_UNIT ( ) NAMED_UNIT ( #90 ) );
#363 = FACE_OUTER_BOUND ( 'NONE', #302, .T. ) ;
#364 = ORIENTED_EDGE ( 'NONE', *, *, #225, .F. ) ;
#365 = DIRECTION ( 'NONE',  ( -1.000000000000000000, 0.000000000000000000, 0.000000000000000000 ) ) ;
#366 = PLANE ( 'NONE',  #229 ) ;
#367 = CARTESIAN_POINT ( 'NONE',  ( 0.1874999999999998890, 3.000000000000000444, 0.000000000000000000 ) ) ;
#368 = CARTESIAN_POINT ( 'NONE',  ( -0.1875000000000000278, 3.000000000000000444, 0.000000000000000000 ) ) ;
#369 = CLOSED_SHELL ( 'NONE', ( #87, #10, #227, #15 ) ) ;
#370 = DIRECTION ( 'NONE',  ( 1.000000000000000000, 0.000000000000000000, 0.000000000000000000 ) ) ;
#371 = MECHANICAL_DESIGN_GEOMETRIC_PRESENTATION_REPRESENTATION (  '', ( #299 ), #24 ) ;
#372 = PRESENTATION_STYLE_ASSIGNMENT (( #342 ) ) ;
#373 = DIRECTION ( 'NONE',  ( 0.000000000000000000, -0.000000000000000000, 1.000000000000000000 ) ) ;
ENDSEC;
END-ISO-10303-21;
