ISO-10303-21;
HEADER;
FILE_DESCRIPTION (( 'STEP AP214' ),
    '1' );
FILE_NAME ('00182.STEP',
    '2023-06-22T14:04:01',
    ( '' ),
    ( '' ),
    'SwSTEP 2.0',
    'SolidWorks 2023',
    '' );
FILE_SCHEMA (( 'AUTOMOTIVE_DESIGN' ));
ENDSEC;

DATA;
#1 = EDGE_CURVE ( 'NONE', #18, #134, #262, .T. ) ;
#2 = LINE ( 'NONE', #125, #12 ) ;
#3 = DIRECTION ( 'NONE',  ( 0.000000000000000000, 1.000000000000000000, 0.000000000000000000 ) ) ;
#4 = PRESENTATION_LAYER_ASSIGNMENT (  '', '', ( #34 ) ) ;
#5 = CARTESIAN_POINT ( 'NONE',  ( 0.000000000000000000, 1.000000000000000000, -0.1250000000000000000 ) ) ;
#6 = EDGE_CURVE ( 'NONE', #252, #144, #112, .T. ) ;
#7 = ADVANCED_BREP_SHAPE_REPRESENTATION ( '00182', ( #254, #259, #217 ), #178 ) ;
#8 = LENGTH_MEASURE_WITH_UNIT ( LENGTH_MEASURE( 0.02539999999999999897 ), #177 );
#9 = CARTESIAN_POINT ( 'NONE',  ( 0.000000000000000000, 0.000000000000000000, 0.000000000000000000 ) ) ;
#10 = DIRECTION ( 'NONE',  ( -0.000000000000000000, -1.000000000000000000, -0.000000000000000000 ) ) ;
#11 = DIMENSIONAL_EXPONENTS ( 1.000000000000000000, 0.000000000000000000, 0.000000000000000000, 0.000000000000000000, 0.000000000000000000, 0.000000000000000000, 0.000000000000000000 ) ;
#12 = VECTOR ( 'NONE', #173, 39.37007874015748143 ) ;
#13 = CIRCLE ( 'NONE', #304, 0.1250000000000000000 ) ;
#14 = ORIENTED_EDGE ( 'NONE', *, *, #96, .F. ) ;
#15 = VERTEX_POINT ( 'NONE', #256 ) ;
#16 = FILL_AREA_STYLE ('',( #210 ) ) ;
#17 = AXIS2_PLACEMENT_3D ( 'NONE', #174, #3, #170 ) ;
#18 = VERTEX_POINT ( 'NONE', #119 ) ;
#19 = DIRECTION ( 'NONE',  ( 0.000000000000000000, 0.000000000000000000, -1.000000000000000000 ) ) ;
#20 = CYLINDRICAL_SURFACE ( 'NONE', #257, 0.1250000000000000000 ) ;
#21 = MECHANICAL_DESIGN_GEOMETRIC_PRESENTATION_REPRESENTATION (  '', ( #34 ), #149 ) ;
#22 = ADVANCED_FACE ( 'NONE', ( #73 ), #287, .T. ) ;
#23 =( LENGTH_UNIT ( ) NAMED_UNIT ( * ) SI_UNIT ( $, .METRE. ) );
#24 =( LENGTH_UNIT ( ) NAMED_UNIT ( * ) SI_UNIT ( $, .METRE. ) );
#25 = SURFACE_SIDE_STYLE ('',( #197 ) ) ;
#26 =( NAMED_UNIT ( * ) SI_UNIT ( $, .STERADIAN. ) SOLID_ANGLE_UNIT ( ) );
#27 = STYLED_ITEM ( 'NONE', ( #182 ), #108 ) ;
#28 = AXIS2_PLACEMENT_3D ( 'NONE', #52, #180, #83 ) ;
#29 = CARTESIAN_POINT ( 'NONE',  ( 0.000000000000000000, 0.000000000000000000, -0.1250000000000000000 ) ) ;
#30 = SURFACE_STYLE_FILL_AREA ( #132 ) ;
#31 = SURFACE_STYLE_USAGE ( .BOTH. , #224 ) ;
#32 = EDGE_CURVE ( 'NONE', #111, #15, #140, .T. ) ;
#33 = AXIS2_PLACEMENT_3D ( 'NONE', #243, #147, #171 ) ;
#34 = STYLED_ITEM ( 'NONE', ( #141 ), #270 ) ;
#35 = CARTESIAN_POINT ( 'NONE',  ( 1.530808498934191509E-17, 0.000000000000000000, 0.1250000000000000000 ) ) ;
#36 = DIMENSIONAL_EXPONENTS ( 1.000000000000000000, 0.000000000000000000, 0.000000000000000000, 0.000000000000000000, 0.000000000000000000, 0.000000000000000000, 0.000000000000000000 ) ;
#37 = EDGE_LOOP ( 'NONE', ( #158, #234 ) ) ;
#38 = CARTESIAN_POINT ( 'NONE',  ( 0.1249999999999999584, 3.000000000000000444, 1.530808498934191817E-17 ) ) ;
#39 =( GEOMETRIC_REPRESENTATION_CONTEXT ( 3 ) GLOBAL_UNCERTAINTY_ASSIGNED_CONTEXT ( ( #133 ) ) GLOBAL_UNIT_ASSIGNED_CONTEXT ( ( #253, #40, #135 ) ) REPRESENTATION_CONTEXT ( 'NONE', 'WORKASPACE' ) );
#40 =( NAMED_UNIT ( * ) PLANE_ANGLE_UNIT ( ) SI_UNIT ( $, .RADIAN. ) );
#41 = ORIENTED_EDGE ( 'NONE', *, *, #165, .F. ) ;
#42 = ORIENTED_EDGE ( 'NONE', *, *, #71, .T. ) ;
#43 = SURFACE_STYLE_USAGE ( .BOTH. , #145 ) ;
#44 = LENGTH_MEASURE_WITH_UNIT ( LENGTH_MEASURE( 0.02539999999999999897 ), #168 );
#45 = FILL_AREA_STYLE ('',( #76 ) ) ;
#46 = PRESENTATION_STYLE_ASSIGNMENT (( #238 ) ) ;
#47 = PRODUCT_CONTEXT ( 'NONE', #230, 'mechanical' ) ;
#48 = FILL_AREA_STYLE ('',( #151 ) ) ;
#49 = COLOUR_RGB ( '',1.000000000000000000, 0.000000000000000000, 0.000000000000000000 ) ;
#50 = CIRCLE ( 'NONE', #199, 0.1250000000000000555 ) ;
#51 = APPLICATION_PROTOCOL_DEFINITION ( 'draft international standard', 'automotive_design', 1998, #298 ) ;
#52 = CARTESIAN_POINT ( 'NONE',  ( 0.000000000000000000, 0.000000000000000000, 0.000000000000000000 ) ) ;
#53 = COLOUR_RGB ( '',0.7921568627450980005, 0.8196078431372548767, 0.9333333333333333481 ) ;
#54 = LINE ( 'NONE', #223, #131 ) ;
#55 = DIRECTION ( 'NONE',  ( -1.000000000000000000, 0.000000000000000000, 0.000000000000000000 ) ) ;
#56 = AXIS2_PLACEMENT_3D ( 'NONE', #193, #167, #19 ) ;
#57 = PLANE ( 'NONE',  #85 ) ;
#58 = UNCERTAINTY_MEASURE_WITH_UNIT (LENGTH_MEASURE( 1.000000000000000082E-05 ), #121, 'distance_accuracy_value', 'NONE');
#59 = PRODUCT_DEFINITION_FORMATION_WITH_SPECIFIED_SOURCE ( 'ANY', '', #100, .NOT_KNOWN. ) ;
#60 = LINE ( 'NONE', #29, #116 ) ;
#61 = PRODUCT_RELATED_PRODUCT_CATEGORY ( 'part', '', ( #100 ) ) ;
#62 = ORIENTED_EDGE ( 'NONE', *, *, #208, .F. ) ;
#63 = EDGE_LOOP ( 'NONE', ( #65, #68, #301, #62 ) ) ;
#64 = DIRECTION ( 'NONE',  ( 3.061616997868386099E-17, -1.000000000000000000, 0.000000000000000000 ) ) ;
#65 = ORIENTED_EDGE ( 'NONE', *, *, #1, .T. ) ;
#66 = UNCERTAINTY_MEASURE_WITH_UNIT (LENGTH_MEASURE( 1.000000000000000082E-05 ), #120, 'distance_accuracy_value', 'NONE');
#67 =( NAMED_UNIT ( * ) PLANE_ANGLE_UNIT ( ) SI_UNIT ( $, .RADIAN. ) );
#68 = ORIENTED_EDGE ( 'NONE', *, *, #258, .T. ) ;
#69 = FILL_AREA_STYLE ('',( #281 ) ) ;
#70 = CIRCLE ( 'NONE', #244, 0.1250000000000000000 ) ;
#71 = EDGE_CURVE ( 'NONE', #297, #144, #2, .T. ) ;
#72 = APPLICATION_PROTOCOL_DEFINITION ( 'draft international standard', 'automotive_design', 1998, #230 ) ;
#73 = FACE_OUTER_BOUND ( 'NONE', #63, .T. ) ;
#74 = DIRECTION ( 'NONE',  ( 0.000000000000000000, 0.000000000000000000, 1.000000000000000000 ) ) ;
#75 = COLOUR_RGB ( '',1.000000000000000000, 0.000000000000000000, 0.000000000000000000 ) ;
#76 = FILL_AREA_STYLE_COLOUR ( '', #49 ) ;
#77 = FACE_OUTER_BOUND ( 'NONE', #211, .T. ) ;
#78 = CARTESIAN_POINT ( 'NONE',  ( 0.000000000000000000, 1.000000000000000000, 0.000000000000000000 ) ) ;
#79 = AXIS2_PLACEMENT_3D ( 'NONE', #260, #242, #261 ) ;
#80 = DIMENSIONAL_EXPONENTS ( 1.000000000000000000, 0.000000000000000000, 0.000000000000000000, 0.000000000000000000, 0.000000000000000000, 0.000000000000000000, 0.000000000000000000 ) ;
#81 = FILL_AREA_STYLE_COLOUR ( '', #212 ) ;
#82 = CARTESIAN_POINT ( 'NONE',  ( 7.582401355855259480E-33, 1.000000000000000000, 0.000000000000000000 ) ) ;
#83 = DIRECTION ( 'NONE',  ( 0.000000000000000000, 0.000000000000000000, -1.000000000000000000 ) ) ;
#84 = ADVANCED_FACE ( 'NONE', ( #290 ), #93, .T. ) ;
#85 = AXIS2_PLACEMENT_3D ( 'NONE', #102, #292, #101 ) ;
#86 = SURFACE_STYLE_USAGE ( .BOTH. , #296 ) ;
#87 = ORIENTED_EDGE ( 'NONE', *, *, #118, .F. ) ;
#88 = PRESENTATION_LAYER_ASSIGNMENT (  '', '', ( #183 ) ) ;
#89 = ORIENTED_EDGE ( 'NONE', *, *, #208, .T. ) ;
#90 = LENGTH_MEASURE_WITH_UNIT ( LENGTH_MEASURE( 0.02539999999999999897 ), #277 );
#91 = PRESENTATION_STYLE_ASSIGNMENT (( #86 ) ) ;
#92 = MECHANICAL_DESIGN_GEOMETRIC_PRESENTATION_REPRESENTATION (  '', ( #152 ), #110 ) ;
#93 = CYLINDRICAL_SURFACE ( 'NONE', #235, 0.1250000000000000000 ) ;
#94 = DIRECTION ( 'NONE',  ( -3.061616997868386099E-17, 1.000000000000000000, -0.000000000000000000 ) ) ;
#95 = DIRECTION ( 'NONE',  ( -1.000000000000000000, 0.000000000000000000, 0.000000000000000000 ) ) ;
#96 = EDGE_CURVE ( 'NONE', #297, #117, #122, .T. ) ;
#97 = MECHANICAL_DESIGN_GEOMETRIC_PRESENTATION_REPRESENTATION (  '', ( #183 ), #127 ) ;
#98 =( NAMED_UNIT ( * ) PLANE_ANGLE_UNIT ( ) SI_UNIT ( $, .RADIAN. ) );
#99 = STYLED_ITEM ( 'NONE', ( #91 ), #254 ) ;
#100 = PRODUCT ( '00182', '00182', '', ( #47 ) ) ;
#101 = DIRECTION ( 'NONE',  ( -1.000000000000000000, -3.061616997868386099E-17, 0.000000000000000000 ) ) ;
#102 = CARTESIAN_POINT ( 'NONE',  ( 5.858436651022893041E-35, 1.000000000000000000, 0.000000000000000000 ) ) ;
#103 = ADVANCED_FACE ( 'NONE', ( #126 ), #20, .T. ) ;
#104 = DIRECTION ( 'NONE',  ( 0.000000000000000000, 0.000000000000000000, -1.000000000000000000 ) ) ;
#105 = PRESENTATION_LAYER_ASSIGNMENT (  '', '', ( #283 ) ) ;
#106 = AXIS2_PLACEMENT_3D ( 'NONE', #275, #64, #237 ) ;
#107 = FILL_AREA_STYLE_COLOUR ( '', #53 ) ;
#108 = ADVANCED_FACE ( 'NONE', ( #221 ), #201, .T. ) ;
#109 = AXIS2_PLACEMENT_3D ( 'NONE', #236, #163, #214 ) ;
#110 =( GEOMETRIC_REPRESENTATION_CONTEXT ( 3 ) GLOBAL_UNCERTAINTY_ASSIGNED_CONTEXT ( ( #190 ) ) GLOBAL_UNIT_ASSIGNED_CONTEXT ( ( #278, #67, #285 ) ) REPRESENTATION_CONTEXT ( 'NONE', 'WORKASPACE' ) );
#111 = VERTEX_POINT ( 'NONE', #128 ) ;
#112 = CIRCLE ( 'NONE', #56, 0.1250000000000000000 ) ;
#113 = SURFACE_STYLE_FILL_AREA ( #16 ) ;
#114 = MECHANICAL_DESIGN_GEOMETRIC_PRESENTATION_REPRESENTATION (  '', ( #27 ), #207 ) ;
#115 = VECTOR ( 'NONE', #137, 39.37007874015748143 ) ;
#116 = VECTOR ( 'NONE', #156, 39.37007874015748143 ) ;
#117 = VERTEX_POINT ( 'NONE', #5 ) ;
#118 = EDGE_CURVE ( 'NONE', #134, #18, #13, .T. ) ;
#119 = CARTESIAN_POINT ( 'NONE',  ( -0.1250000000000000000, 1.000000000000000000, 0.000000000000000000 ) ) ;
#120 =( CONVERSION_BASED_UNIT ( 'INCH', #44 ) LENGTH_UNIT ( ) NAMED_UNIT ( #11 ) );
#121 =( CONVERSION_BASED_UNIT ( 'INCH', #146 ) LENGTH_UNIT ( ) NAMED_UNIT ( #184 ) );
#122 = CIRCLE ( 'NONE', #79, 0.1250000000000000000 ) ;
#123 = MECHANICAL_DESIGN_GEOMETRIC_PRESENTATION_REPRESENTATION (  '', ( #99 ), #39 ) ;
#124 =( NAMED_UNIT ( * ) SI_UNIT ( $, .STERADIAN. ) SOLID_ANGLE_UNIT ( ) );
#125 = CARTESIAN_POINT ( 'NONE',  ( 1.530808498934191509E-17, 0.000000000000000000, 0.1250000000000000000 ) ) ;
#126 = FACE_OUTER_BOUND ( 'NONE', #232, .T. ) ;
#127 =( GEOMETRIC_REPRESENTATION_CONTEXT ( 3 ) GLOBAL_UNCERTAINTY_ASSIGNED_CONTEXT ( ( #58 ) ) GLOBAL_UNIT_ASSIGNED_CONTEXT ( ( #121, #98, #26 ) ) REPRESENTATION_CONTEXT ( 'NONE', 'WORKASPACE' ) );
#128 = CARTESIAN_POINT ( 'NONE',  ( 0.1250000000000000278, 3.000000000000000444, 1.530808498934192125E-17 ) ) ;
#129 = DIRECTION ( 'NONE',  ( 0.000000000000000000, 0.000000000000000000, -1.000000000000000000 ) ) ;
#130 = DIRECTION ( 'NONE',  ( 0.000000000000000000, -1.000000000000000000, -0.000000000000000000 ) ) ;
#131 = VECTOR ( 'NONE', #251, 39.37007874015748143 ) ;
#132 = FILL_AREA_STYLE ('',( #81 ) ) ;
#133 = UNCERTAINTY_MEASURE_WITH_UNIT (LENGTH_MEASURE( 1.000000000000000082E-05 ), #253, 'distance_accuracy_value', 'NONE');
#134 = VERTEX_POINT ( 'NONE', #267 ) ;
#135 =( NAMED_UNIT ( * ) SI_UNIT ( $, .STERADIAN. ) SOLID_ANGLE_UNIT ( ) );
#136 = ORIENTED_EDGE ( 'NONE', *, *, #186, .T. ) ;
#137 = DIRECTION ( 'NONE',  ( -3.061616997868386099E-17, 1.000000000000000000, -0.000000000000000000 ) ) ;
#138 = UNCERTAINTY_MEASURE_WITH_UNIT (LENGTH_MEASURE( 1.000000000000000082E-05 ), #222, 'distance_accuracy_value', 'NONE');
#139 = ORIENTED_EDGE ( 'NONE', *, *, #225, .T. ) ;
#140 = CIRCLE ( 'NONE', #33, 0.1250000000000000555 ) ;
#141 = PRESENTATION_STYLE_ASSIGNMENT (( #231 ) ) ;
#142 =( GEOMETRIC_REPRESENTATION_CONTEXT ( 3 ) GLOBAL_UNCERTAINTY_ASSIGNED_CONTEXT ( ( #181 ) ) GLOBAL_UNIT_ASSIGNED_CONTEXT ( ( #200, #266, #124 ) ) REPRESENTATION_CONTEXT ( 'NONE', 'WORKASPACE' ) );
#143 = COLOUR_RGB ( '',1.000000000000000000, 0.000000000000000000, 0.000000000000000000 ) ;
#144 = VERTEX_POINT ( 'NONE', #35 ) ;
#145 = SURFACE_SIDE_STYLE ('',( #113 ) ) ;
#146 = LENGTH_MEASURE_WITH_UNIT ( LENGTH_MEASURE( 0.02539999999999999897 ), #263 );
#147 = DIRECTION ( 'NONE',  ( -3.061616997868386099E-17, 1.000000000000000000, -0.000000000000000000 ) ) ;
#148 = SHAPE_DEFINITION_REPRESENTATION ( #155, #7 ) ;
#149 =( GEOMETRIC_REPRESENTATION_CONTEXT ( 3 ) GLOBAL_UNCERTAINTY_ASSIGNED_CONTEXT ( ( #66 ) ) GLOBAL_UNIT_ASSIGNED_CONTEXT ( ( #120, #215, #308 ) ) REPRESENTATION_CONTEXT ( 'NONE', 'WORKASPACE' ) );
#150 = DIRECTION ( 'NONE',  ( -3.061616997868386099E-17, 1.000000000000000000, -0.000000000000000000 ) ) ;
#151 = FILL_AREA_STYLE_COLOUR ( '', #75 ) ;
#152 = STYLED_ITEM ( 'NONE', ( #213 ), #259 ) ;
#153 = DIRECTION ( 'NONE',  ( -0.000000000000000000, -1.000000000000000000, -0.000000000000000000 ) ) ;
#154 = CARTESIAN_POINT ( 'NONE',  ( 0.000000000000000000, 0.000000000000000000, -0.1250000000000000000 ) ) ;
#155 = PRODUCT_DEFINITION_SHAPE ( 'NONE', 'NONE',  #175 ) ;
#156 = DIRECTION ( 'NONE',  ( -0.000000000000000000, -1.000000000000000000, -0.000000000000000000 ) ) ;
#157 = DIMENSIONAL_EXPONENTS ( 1.000000000000000000, 0.000000000000000000, 0.000000000000000000, 0.000000000000000000, 0.000000000000000000, 0.000000000000000000, 0.000000000000000000 ) ;
#158 = ORIENTED_EDGE ( 'NONE', *, *, #6, .T. ) ;
#159 = ORIENTED_EDGE ( 'NONE', *, *, #295, .T. ) ;
#160 = SURFACE_SIDE_STYLE ('',( #189 ) ) ;
#161 = COLOUR_RGB ( '',0.7921568627450980005, 0.8196078431372548767, 0.9333333333333333481 ) ;
#162 = EDGE_LOOP ( 'NONE', ( #187, #14 ) ) ;
#163 = DIRECTION ( 'NONE',  ( -3.061616997868386099E-17, 1.000000000000000000, -0.000000000000000000 ) ) ;
#164 = PLANE ( 'NONE',  #17 ) ;
#165 = EDGE_CURVE ( 'NONE', #144, #252, #249, .T. ) ;
#166 = PRODUCT_DEFINITION_CONTEXT ( 'detailed design', #298, 'design' ) ;
#167 = DIRECTION ( 'NONE',  ( -0.000000000000000000, -1.000000000000000000, -0.000000000000000000 ) ) ;
#168 =( LENGTH_UNIT ( ) NAMED_UNIT ( * ) SI_UNIT ( $, .METRE. ) );
#169 = MECHANICAL_DESIGN_GEOMETRIC_PRESENTATION_REPRESENTATION (  '', ( #283 ), #142 ) ;
#170 = DIRECTION ( 'NONE',  ( 0.000000000000000000, -0.000000000000000000, 1.000000000000000000 ) ) ;
#171 = DIRECTION ( 'NONE',  ( -1.000000000000000000, 0.000000000000000000, 0.000000000000000000 ) ) ;
#172 = CARTESIAN_POINT ( 'NONE',  ( -6.123233995736772199E-17, 3.000000000000000444, 0.000000000000000000 ) ) ;
#173 = DIRECTION ( 'NONE',  ( -0.000000000000000000, -1.000000000000000000, -0.000000000000000000 ) ) ;
#174 = CARTESIAN_POINT ( 'NONE',  ( 0.000000000000000000, 1.000000000000000000, 0.000000000000000000 ) ) ;
#175 = PRODUCT_DEFINITION ( 'UNKNOWN', '', #59, #166 ) ;
#176 =( CONVERSION_BASED_UNIT ( 'INCH', #8 ) LENGTH_UNIT ( ) NAMED_UNIT ( #271 ) );
#177 =( LENGTH_UNIT ( ) NAMED_UNIT ( * ) SI_UNIT ( $, .METRE. ) );
#178 =( GEOMETRIC_REPRESENTATION_CONTEXT ( 3 ) GLOBAL_UNCERTAINTY_ASSIGNED_CONTEXT ( ( #138 ) ) GLOBAL_UNIT_ASSIGNED_CONTEXT ( ( #222, #219, #196 ) ) REPRESENTATION_CONTEXT ( 'NONE', 'WORKASPACE' ) );
#179 = CARTESIAN_POINT ( 'NONE',  ( -6.123233995736772199E-17, 3.000000000000000444, 0.000000000000000000 ) ) ;
#180 = DIRECTION ( 'NONE',  ( -0.000000000000000000, -1.000000000000000000, -0.000000000000000000 ) ) ;
#181 = UNCERTAINTY_MEASURE_WITH_UNIT (LENGTH_MEASURE( 1.000000000000000082E-05 ), #200, 'distance_accuracy_value', 'NONE');
#182 = PRESENTATION_STYLE_ASSIGNMENT (( #31 ) ) ;
#183 = STYLED_ITEM ( 'NONE', ( #46 ), #103 ) ;
#184 = DIMENSIONAL_EXPONENTS ( 1.000000000000000000, 0.000000000000000000, 0.000000000000000000, 0.000000000000000000, 0.000000000000000000, 0.000000000000000000, 0.000000000000000000 ) ;
#185 = ORIENTED_EDGE ( 'NONE', *, *, #258, .F. ) ;
#186 = EDGE_CURVE ( 'NONE', #117, #252, #60, .T. ) ;
#187 = ORIENTED_EDGE ( 'NONE', *, *, #225, .F. ) ;
#188 = FACE_OUTER_BOUND ( 'NONE', #280, .T. ) ;
#189 = SURFACE_STYLE_FILL_AREA ( #69 ) ;
#190 = UNCERTAINTY_MEASURE_WITH_UNIT (LENGTH_MEASURE( 1.000000000000000082E-05 ), #278, 'distance_accuracy_value', 'NONE');
#191 = EDGE_LOOP ( 'NONE', ( #299, #209, #136, #41 ) ) ;
#192 = LENGTH_MEASURE_WITH_UNIT ( LENGTH_MEASURE( 0.02539999999999999897 ), #300 );
#193 = CARTESIAN_POINT ( 'NONE',  ( 0.000000000000000000, 0.000000000000000000, 0.000000000000000000 ) ) ;
#194 = DIRECTION ( 'NONE',  ( -0.000000000000000000, -1.000000000000000000, -0.000000000000000000 ) ) ;
#195 = DIRECTION ( 'NONE',  ( 0.000000000000000000, 0.000000000000000000, -1.000000000000000000 ) ) ;
#196 =( NAMED_UNIT ( * ) SI_UNIT ( $, .STERADIAN. ) SOLID_ANGLE_UNIT ( ) );
#197 = SURFACE_STYLE_FILL_AREA ( #45 ) ;
#198 = SURFACE_STYLE_USAGE ( .BOTH. , #306 ) ;
#199 = AXIS2_PLACEMENT_3D ( 'NONE', #172, #94, #202 ) ;
#200 =( CONVERSION_BASED_UNIT ( 'INCH', #265 ) LENGTH_UNIT ( ) NAMED_UNIT ( #157 ) );
#201 = PLANE ( 'NONE',  #205 ) ;
#202 = DIRECTION ( 'NONE',  ( -1.000000000000000000, 0.000000000000000000, 0.000000000000000000 ) ) ;
#203 = CARTESIAN_POINT ( 'NONE',  ( 0.000000000000000000, 0.000000000000000000, 0.000000000000000000 ) ) ;
#204 = DIRECTION ( 'NONE',  ( -1.000000000000000000, 0.000000000000000000, 0.000000000000000000 ) ) ;
#205 = AXIS2_PLACEMENT_3D ( 'NONE', #203, #130, #269 ) ;
#206 = FACE_OUTER_BOUND ( 'NONE', #272, .T. ) ;
#207 =( GEOMETRIC_REPRESENTATION_CONTEXT ( 3 ) GLOBAL_UNCERTAINTY_ASSIGNED_CONTEXT ( ( #250 ) ) GLOBAL_UNIT_ASSIGNED_CONTEXT ( ( #176, #245, #248 ) ) REPRESENTATION_CONTEXT ( 'NONE', 'WORKASPACE' ) );
#208 = EDGE_CURVE ( 'NONE', #18, #15, #54, .T. ) ;
#209 = ORIENTED_EDGE ( 'NONE', *, *, #96, .T. ) ;
#210 = FILL_AREA_STYLE_COLOUR ( '', #161 ) ;
#211 = EDGE_LOOP ( 'NONE', ( #228, #87 ) ) ;
#212 = COLOUR_RGB ( '',1.000000000000000000, 0.000000000000000000, 0.000000000000000000 ) ;
#213 = PRESENTATION_STYLE_ASSIGNMENT (( #43 ) ) ;
#214 = DIRECTION ( 'NONE',  ( -1.000000000000000000, 0.000000000000000000, 0.000000000000000000 ) ) ;
#215 =( NAMED_UNIT ( * ) PLANE_ANGLE_UNIT ( ) SI_UNIT ( $, .RADIAN. ) );
#216 = CLOSED_SHELL ( 'NONE', ( #22, #220, #246, #264 ) ) ;
#217 = AXIS2_PLACEMENT_3D ( 'NONE', #288, #74, #286 ) ;
#218 = LENGTH_MEASURE_WITH_UNIT ( LENGTH_MEASURE( 0.02539999999999999897 ), #24 );
#219 =( NAMED_UNIT ( * ) PLANE_ANGLE_UNIT ( ) SI_UNIT ( $, .RADIAN. ) );
#220 = ADVANCED_FACE ( 'NONE', ( #77 ), #57, .F. ) ;
#221 = FACE_OUTER_BOUND ( 'NONE', #37, .T. ) ;
#222 =( CONVERSION_BASED_UNIT ( 'INCH', #218 ) LENGTH_UNIT ( ) NAMED_UNIT ( #36 ) );
#223 = CARTESIAN_POINT ( 'NONE',  ( -0.1250000000000001110, 3.000000000000000444, 0.000000000000000000 ) ) ;
#224 = SURFACE_SIDE_STYLE ('',( #30 ) ) ;
#225 = EDGE_CURVE ( 'NONE', #117, #297, #70, .T. ) ;
#226 = LINE ( 'NONE', #38, #115 ) ;
#227 = DIMENSIONAL_EXPONENTS ( 1.000000000000000000, 0.000000000000000000, 0.000000000000000000, 0.000000000000000000, 0.000000000000000000, 0.000000000000000000, 0.000000000000000000 ) ;
#228 = ORIENTED_EDGE ( 'NONE', *, *, #1, .F. ) ;
#229 = FACE_OUTER_BOUND ( 'NONE', #162, .T. ) ;
#230 = APPLICATION_CONTEXT ( 'automotive_design' ) ;
#231 = SURFACE_STYLE_USAGE ( .BOTH. , #160 ) ;
#232 = EDGE_LOOP ( 'NONE', ( #139, #42, #273, #305 ) ) ;
#233 = PLANE ( 'NONE',  #106 ) ;
#234 = ORIENTED_EDGE ( 'NONE', *, *, #165, .T. ) ;
#235 = AXIS2_PLACEMENT_3D ( 'NONE', #239, #194, #195 ) ;
#236 = CARTESIAN_POINT ( 'NONE',  ( 7.582401355855259480E-33, 1.000000000000000000, 0.000000000000000000 ) ) ;
#237 = DIRECTION ( 'NONE',  ( 1.000000000000000000, 3.061616997868386099E-17, 0.000000000000000000 ) ) ;
#238 = SURFACE_STYLE_USAGE ( .BOTH. , #25 ) ;
#239 = CARTESIAN_POINT ( 'NONE',  ( 0.000000000000000000, 0.000000000000000000, 0.000000000000000000 ) ) ;
#240 = PRESENTATION_LAYER_ASSIGNMENT (  '', '', ( #152 ) ) ;
#241 = CARTESIAN_POINT ( 'NONE',  ( 1.530808498934191509E-17, 1.000000000000000000, 0.1250000000000000000 ) ) ;
#242 = DIRECTION ( 'NONE',  ( -0.000000000000000000, -1.000000000000000000, -0.000000000000000000 ) ) ;
#243 = CARTESIAN_POINT ( 'NONE',  ( -6.123233995736772199E-17, 3.000000000000000444, 0.000000000000000000 ) ) ;
#244 = AXIS2_PLACEMENT_3D ( 'NONE', #78, #153, #104 ) ;
#245 =( NAMED_UNIT ( * ) PLANE_ANGLE_UNIT ( ) SI_UNIT ( $, .RADIAN. ) );
#246 = ADVANCED_FACE ( 'NONE', ( #206 ), #293, .T. ) ;
#247 = PRESENTATION_LAYER_ASSIGNMENT (  '', '', ( #27 ) ) ;
#248 =( NAMED_UNIT ( * ) SI_UNIT ( $, .STERADIAN. ) SOLID_ANGLE_UNIT ( ) );
#249 = CIRCLE ( 'NONE', #28, 0.1250000000000000000 ) ;
#250 = UNCERTAINTY_MEASURE_WITH_UNIT (LENGTH_MEASURE( 1.000000000000000082E-05 ), #176, 'distance_accuracy_value', 'NONE');
#251 = DIRECTION ( 'NONE',  ( -3.061616997868386099E-17, 1.000000000000000000, -0.000000000000000000 ) ) ;
#252 = VERTEX_POINT ( 'NONE', #154 ) ;
#253 =( CONVERSION_BASED_UNIT ( 'INCH', #90 ) LENGTH_UNIT ( ) NAMED_UNIT ( #80 ) );
#254 = MANIFOLD_SOLID_BREP ( 'Revolve - Cutting Edge', #274 ) ;
#255 = ORIENTED_EDGE ( 'NONE', *, *, #118, .T. ) ;
#256 = CARTESIAN_POINT ( 'NONE',  ( -0.1250000000000001388, 3.000000000000000444, 0.000000000000000000 ) ) ;
#257 = AXIS2_PLACEMENT_3D ( 'NONE', #9, #10, #129 ) ;
#258 = EDGE_CURVE ( 'NONE', #134, #111, #226, .T. ) ;
#259 = MANIFOLD_SOLID_BREP ( 'Revolve - Tool Body (Straight Shanked)', #216 ) ;
#260 = CARTESIAN_POINT ( 'NONE',  ( 0.000000000000000000, 1.000000000000000000, 0.000000000000000000 ) ) ;
#261 = DIRECTION ( 'NONE',  ( 0.000000000000000000, 0.000000000000000000, -1.000000000000000000 ) ) ;
#262 = CIRCLE ( 'NONE', #109, 0.1250000000000000000 ) ;
#263 =( LENGTH_UNIT ( ) NAMED_UNIT ( * ) SI_UNIT ( $, .METRE. ) );
#264 = ADVANCED_FACE ( 'NONE', ( #188 ), #233, .F. ) ;
#265 = LENGTH_MEASURE_WITH_UNIT ( LENGTH_MEASURE( 0.02539999999999999897 ), #23 );
#266 =( NAMED_UNIT ( * ) PLANE_ANGLE_UNIT ( ) SI_UNIT ( $, .RADIAN. ) );
#267 = CARTESIAN_POINT ( 'NONE',  ( 0.1250000000000000278, 1.000000000000000000, 1.530808498934192125E-17 ) ) ;
#268 = DIRECTION ( 'NONE',  ( -3.061616997868386099E-17, 1.000000000000000000, -0.000000000000000000 ) ) ;
#269 = DIRECTION ( 'NONE',  ( 0.000000000000000000, 0.000000000000000000, -1.000000000000000000 ) ) ;
#270 = ADVANCED_FACE ( 'NONE', ( #229 ), #164, .T. ) ;
#271 = DIMENSIONAL_EXPONENTS ( 1.000000000000000000, 0.000000000000000000, 0.000000000000000000, 0.000000000000000000, 0.000000000000000000, 0.000000000000000000, 0.000000000000000000 ) ;
#272 = EDGE_LOOP ( 'NONE', ( #185, #255, #89, #303 ) ) ;
#273 = ORIENTED_EDGE ( 'NONE', *, *, #6, .F. ) ;
#274 = CLOSED_SHELL ( 'NONE', ( #103, #270, #84, #108 ) ) ;
#275 = CARTESIAN_POINT ( 'NONE',  ( 0.1250000000000000000, 3.000000000000000444, 0.000000000000000000 ) ) ;
#276 = ORIENTED_EDGE ( 'NONE', *, *, #32, .T. ) ;
#277 =( LENGTH_UNIT ( ) NAMED_UNIT ( * ) SI_UNIT ( $, .METRE. ) );
#278 =( CONVERSION_BASED_UNIT ( 'INCH', #192 ) LENGTH_UNIT ( ) NAMED_UNIT ( #227 ) );
#279 = SURFACE_STYLE_FILL_AREA ( #294 ) ;
#280 = EDGE_LOOP ( 'NONE', ( #159, #276 ) ) ;
#281 = FILL_AREA_STYLE_COLOUR ( '', #143 ) ;
#282 = PRESENTATION_STYLE_ASSIGNMENT (( #198 ) ) ;
#283 = STYLED_ITEM ( 'NONE', ( #282 ), #84 ) ;
#284 = AXIS2_PLACEMENT_3D ( 'NONE', #179, #268, #55 ) ;
#285 =( NAMED_UNIT ( * ) SI_UNIT ( $, .STERADIAN. ) SOLID_ANGLE_UNIT ( ) );
#286 = DIRECTION ( 'NONE',  ( 1.000000000000000000, 0.000000000000000000, 0.000000000000000000 ) ) ;
#287 = CYLINDRICAL_SURFACE ( 'NONE', #302, 0.1250000000000000278 ) ;
#288 = CARTESIAN_POINT ( 'NONE',  ( 0.000000000000000000, 0.000000000000000000, 0.000000000000000000 ) ) ;
#289 = PRESENTATION_LAYER_ASSIGNMENT (  '', '', ( #99 ) ) ;
#290 = FACE_OUTER_BOUND ( 'NONE', #191, .T. ) ;
#291 = DIRECTION ( 'NONE',  ( -3.061616997868386099E-17, 1.000000000000000000, -0.000000000000000000 ) ) ;
#292 = DIRECTION ( 'NONE',  ( -3.061616997868386099E-17, 1.000000000000000000, 0.000000000000000000 ) ) ;
#293 = CYLINDRICAL_SURFACE ( 'NONE', #284, 0.1250000000000000278 ) ;
#294 = FILL_AREA_STYLE ('',( #107 ) ) ;
#295 = EDGE_CURVE ( 'NONE', #15, #111, #50, .T. ) ;
#296 = SURFACE_SIDE_STYLE ('',( #279 ) ) ;
#297 = VERTEX_POINT ( 'NONE', #241 ) ;
#298 = APPLICATION_CONTEXT ( 'automotive_design' ) ;
#299 = ORIENTED_EDGE ( 'NONE', *, *, #71, .F. ) ;
#300 =( LENGTH_UNIT ( ) NAMED_UNIT ( * ) SI_UNIT ( $, .METRE. ) );
#301 = ORIENTED_EDGE ( 'NONE', *, *, #295, .F. ) ;
#302 = AXIS2_PLACEMENT_3D ( 'NONE', #309, #150, #95 ) ;
#303 = ORIENTED_EDGE ( 'NONE', *, *, #32, .F. ) ;
#304 = AXIS2_PLACEMENT_3D ( 'NONE', #82, #291, #204 ) ;
#305 = ORIENTED_EDGE ( 'NONE', *, *, #186, .F. ) ;
#306 = SURFACE_SIDE_STYLE ('',( #307 ) ) ;
#307 = SURFACE_STYLE_FILL_AREA ( #48 ) ;
#308 =( NAMED_UNIT ( * ) SI_UNIT ( $, .STERADIAN. ) SOLID_ANGLE_UNIT ( ) );
#309 = CARTESIAN_POINT ( 'NONE',  ( -6.123233995736772199E-17, 3.000000000000000444, 0.000000000000000000 ) ) ;
ENDSEC;
END-ISO-10303-21;
