ISO-10303-21;
HEADER;
FILE_DESCRIPTION (( 'STEP AP214' ),
    '1' );
FILE_NAME ('82594.STEP',
    '2023-06-30T22:48:22',
    ( '' ),
    ( '' ),
    'SwSTEP 2.0',
    'SolidWorks 2023',
    '' );
FILE_SCHEMA (( 'AUTOMOTIVE_DESIGN' ));
ENDSEC;

DATA;
#1 = PRESENTATION_LAYER_ASSIGNMENT (  '', '', ( #343 ) ) ;
#2 = EDGE_CURVE ( 'NONE', #200, #14, #231, .T. ) ;
#3 = DIRECTION ( 'NONE',  ( -0.000000000000000000, -1.000000000000000000, -0.000000000000000000 ) ) ;
#4 = PRESENTATION_STYLE_ASSIGNMENT (( #163 ) ) ;
#5 = FILL_AREA_STYLE_COLOUR ( '', #135 ) ;
#6 = CYLINDRICAL_SURFACE ( 'NONE', #294, 0.4999999999999997224 ) ;
#7 =( NAMED_UNIT ( * ) PLANE_ANGLE_UNIT ( ) SI_UNIT ( $, .RADIAN. ) );
#8 = UNCERTAINTY_MEASURE_WITH_UNIT (LENGTH_MEASURE( 1.000000000000000082E-05 ), #355, 'distance_accuracy_value', 'NONE');
#9 = VECTOR ( 'NONE', #228, 39.37007874015748143 ) ;
#10 =( CONVERSION_BASED_UNIT ( 'INCH', #121 ) LENGTH_UNIT ( ) NAMED_UNIT ( #103 ) );
#11 =( GEOMETRIC_REPRESENTATION_CONTEXT ( 3 ) GLOBAL_UNCERTAINTY_ASSIGNED_CONTEXT ( ( #8 ) ) GLOBAL_UNIT_ASSIGNED_CONTEXT ( ( #355, #7, #325 ) ) REPRESENTATION_CONTEXT ( 'NONE', 'WORKASPACE' ) );
#12 = ORIENTED_EDGE ( 'NONE', *, *, #116, .T. ) ;
#13 = EDGE_LOOP ( 'NONE', ( #66, #357 ) ) ;
#14 = VERTEX_POINT ( 'NONE', #330 ) ;
#15 = DIMENSIONAL_EXPONENTS ( 1.000000000000000000, 0.000000000000000000, 0.000000000000000000, 0.000000000000000000, 0.000000000000000000, 0.000000000000000000, 0.000000000000000000 ) ;
#16 = ORIENTED_EDGE ( 'NONE', *, *, #219, .F. ) ;
#17 = DIRECTION ( 'NONE',  ( -0.000000000000000000, -1.000000000000000000, -0.000000000000000000 ) ) ;
#18 = AXIS2_PLACEMENT_3D ( 'NONE', #222, #23, #314 ) ;
#19 = VERTEX_POINT ( 'NONE', #175 ) ;
#20 =( GEOMETRIC_REPRESENTATION_CONTEXT ( 3 ) GLOBAL_UNCERTAINTY_ASSIGNED_CONTEXT ( ( #249 ) ) GLOBAL_UNIT_ASSIGNED_CONTEXT ( ( #252, #113, #362 ) ) REPRESENTATION_CONTEXT ( 'NONE', 'WORKASPACE' ) );
#21 = AXIS2_PLACEMENT_3D ( 'NONE', #78, #324, #169 ) ;
#22 = ADVANCED_FACE ( 'NONE', ( #235 ), #335, .F. ) ;
#23 = DIRECTION ( 'NONE',  ( -0.000000000000000000, -1.000000000000000000, -0.000000000000000000 ) ) ;
#24 = DIRECTION ( 'NONE',  ( 0.000000000000000000, 0.000000000000000000, 1.000000000000000000 ) ) ;
#25 = CLOSED_SHELL ( 'NONE', ( #277, #319, #310, #150, #307 ) ) ;
#26 = STYLED_ITEM ( 'NONE', ( #247 ), #150 ) ;
#27 = AXIS2_PLACEMENT_3D ( 'NONE', #132, #85, #108 ) ;
#28 = VERTEX_POINT ( 'NONE', #178 ) ;
#29 = CARTESIAN_POINT ( 'NONE',  ( 6.123233995736764803E-17, 0.000000000000000000, 0.4999999999999998335 ) ) ;
#30 = FACE_OUTER_BOUND ( 'NONE', #13, .T. ) ;
#31 =( NAMED_UNIT ( * ) SI_UNIT ( $, .STERADIAN. ) SOLID_ANGLE_UNIT ( ) );
#32 = ORIENTED_EDGE ( 'NONE', *, *, #190, .T. ) ;
#33 = AXIS2_PLACEMENT_3D ( 'NONE', #63, #162, #284 ) ;
#34 = CARTESIAN_POINT ( 'NONE',  ( 0.000000000000000000, 0.000000000000000000, -0.4999999999999998335 ) ) ;
#35 = CARTESIAN_POINT ( 'NONE',  ( 0.4999999999999994449, 5.000000000000000000, 6.123233995736763571E-17 ) ) ;
#36 =( NAMED_UNIT ( * ) SI_UNIT ( $, .STERADIAN. ) SOLID_ANGLE_UNIT ( ) );
#37 = UNCERTAINTY_MEASURE_WITH_UNIT (LENGTH_MEASURE( 1.000000000000000082E-05 ), #10, 'distance_accuracy_value', 'NONE');
#38 = FACE_OUTER_BOUND ( 'NONE', #263, .T. ) ;
#39 =( NAMED_UNIT ( * ) SI_UNIT ( $, .STERADIAN. ) SOLID_ANGLE_UNIT ( ) );
#40 = EDGE_LOOP ( 'NONE', ( #12, #329 ) ) ;
#41 = AXIS2_PLACEMENT_3D ( 'NONE', #360, #332, #111 ) ;
#42 = DIRECTION ( 'NONE',  ( -0.000000000000000000, -1.000000000000000000, -0.000000000000000000 ) ) ;
#43 = ADVANCED_FACE ( 'NONE', ( #300 ), #358, .T. ) ;
#44 = ORIENTED_EDGE ( 'NONE', *, *, #186, .F. ) ;
#45 = PRESENTATION_STYLE_ASSIGNMENT (( #321 ) ) ;
#46 = ORIENTED_EDGE ( 'NONE', *, *, #237, .T. ) ;
#47 = STYLED_ITEM ( 'NONE', ( #365 ), #262 ) ;
#48 = DIRECTION ( 'NONE',  ( 0.000000000000000000, 0.000000000000000000, -1.000000000000000000 ) ) ;
#49 = AXIS2_PLACEMENT_3D ( 'NONE', #299, #174, #350 ) ;
#50 = EDGE_CURVE ( 'NONE', #72, #200, #128, .T. ) ;
#51 = LENGTH_MEASURE_WITH_UNIT ( LENGTH_MEASURE( 0.02539999999999999897 ), #217 );
#52 =( NAMED_UNIT ( * ) PLANE_ANGLE_UNIT ( ) SI_UNIT ( $, .RADIAN. ) );
#53 = CARTESIAN_POINT ( 'NONE',  ( -3.061616997868382155E-16, 5.000000000000000000, 0.000000000000000000 ) ) ;
#54 =( GEOMETRIC_REPRESENTATION_CONTEXT ( 3 ) GLOBAL_UNCERTAINTY_ASSIGNED_CONTEXT ( ( #257 ) ) GLOBAL_UNIT_ASSIGNED_CONTEXT ( ( #134, #64, #31 ) ) REPRESENTATION_CONTEXT ( 'NONE', 'WORKASPACE' ) );
#55 = AXIS2_PLACEMENT_3D ( 'NONE', #271, #131, #152 ) ;
#56 = FILL_AREA_STYLE ('',( #155 ) ) ;
#57 = LENGTH_MEASURE_WITH_UNIT ( LENGTH_MEASURE( 0.02539999999999999897 ), #373 );
#58 = PRODUCT ( '82594', '82594', '', ( #272 ) ) ;
#59 = CARTESIAN_POINT ( 'NONE',  ( 0.000000000000000000, 0.000000000000000000, 0.000000000000000000 ) ) ;
#60 = FACE_OUTER_BOUND ( 'NONE', #80, .T. ) ;
#61 = PRODUCT_DEFINITION_FORMATION_WITH_SPECIFIED_SOURCE ( 'ANY', '', #58, .NOT_KNOWN. ) ;
#62 = ORIENTED_EDGE ( 'NONE', *, *, #156, .F. ) ;
#63 = CARTESIAN_POINT ( 'NONE',  ( 0.000000000000000000, 2.625000000000000000, 0.000000000000000000 ) ) ;
#64 =( NAMED_UNIT ( * ) PLANE_ANGLE_UNIT ( ) SI_UNIT ( $, .RADIAN. ) );
#65 = DIRECTION ( 'NONE',  ( -2.593075071645456980E-16, 1.000000000000000000, 0.000000000000000000 ) ) ;
#66 = ORIENTED_EDGE ( 'NONE', *, *, #364, .F. ) ;
#67 = CARTESIAN_POINT ( 'NONE',  ( 0.5000000000000000000, 0.5000000000000001110, 0.000000000000000000 ) ) ;
#68 = AXIS2_PLACEMENT_3D ( 'NONE', #372, #65, #95 ) ;
#69 =( GEOMETRIC_REPRESENTATION_CONTEXT ( 3 ) GLOBAL_UNCERTAINTY_ASSIGNED_CONTEXT ( ( #291 ) ) GLOBAL_UNIT_ASSIGNED_CONTEXT ( ( #182, #52, #273 ) ) REPRESENTATION_CONTEXT ( 'NONE', 'WORKASPACE' ) );
#70 = FILL_AREA_STYLE ('',( #264 ) ) ;
#71 = CARTESIAN_POINT ( 'NONE',  ( 0.000000000000000000, 0.5000000000000001110, 0.000000000000000000 ) ) ;
#72 = VERTEX_POINT ( 'NONE', #118 ) ;
#73 = SPHERICAL_SURFACE ( 'NONE', #227, 0.5000000000000000000 ) ;
#74 = DIRECTION ( 'NONE',  ( 0.000000000000000000, 0.000000000000000000, -1.000000000000000000 ) ) ;
#75 = ORIENTED_EDGE ( 'NONE', *, *, #364, .T. ) ;
#76 = PRESENTATION_LAYER_ASSIGNMENT (  '', '', ( #248 ) ) ;
#77 = CIRCLE ( 'NONE', #120, 0.4999999999999997224 ) ;
#78 = CARTESIAN_POINT ( 'NONE',  ( -3.061616997868382155E-16, 5.000000000000000000, 0.000000000000000000 ) ) ;
#79 = ORIENTED_EDGE ( 'NONE', *, *, #229, .T. ) ;
#80 = EDGE_LOOP ( 'NONE', ( #221, #107 ) ) ;
#81 = DIRECTION ( 'NONE',  ( 1.000000000000000000, 2.593075071645456980E-16, 0.000000000000000000 ) ) ;
#82 = DIRECTION ( 'NONE',  ( 1.000000000000000000, 0.000000000000000000, 0.000000000000000000 ) ) ;
#83 = COLOUR_RGB ( '',1.000000000000000000, 0.000000000000000000, 0.000000000000000000 ) ;
#84 = CARTESIAN_POINT ( 'NONE',  ( 0.4999999999999997224, 5.000000000000000000, 6.123233995736764803E-17 ) ) ;
#85 = DIRECTION ( 'NONE',  ( -0.000000000000000000, -1.000000000000000000, -0.000000000000000000 ) ) ;
#86 = CIRCLE ( 'NONE', #269, 0.5000000000000000000 ) ;
#87 = LENGTH_MEASURE_WITH_UNIT ( LENGTH_MEASURE( 0.02539999999999999897 ), #214 );
#88 =( NAMED_UNIT ( * ) PLANE_ANGLE_UNIT ( ) SI_UNIT ( $, .RADIAN. ) );
#89 = DIRECTION ( 'NONE',  ( -1.000000000000000000, 0.000000000000000000, 0.000000000000000000 ) ) ;
#90 = CARTESIAN_POINT ( 'NONE',  ( -3.061616997868383141E-16, 5.000000000000000000, 0.000000000000000000 ) ) ;
#91 = COLOUR_RGB ( '',1.000000000000000000, 0.000000000000000000, 0.000000000000000000 ) ;
#92 = LENGTH_MEASURE_WITH_UNIT ( LENGTH_MEASURE( 0.02539999999999999897 ), #256 );
#93 = CARTESIAN_POINT ( 'NONE',  ( 6.123233995736763571E-17, 2.625000000000000000, 0.4999999999999997224 ) ) ;
#94 = CARTESIAN_POINT ( 'NONE',  ( 3.096936297289577434E-16, 2.625000000000000000, 0.000000000000000000 ) ) ;
#95 = DIRECTION ( 'NONE',  ( -1.000000000000000000, -2.593075071645456980E-16, 0.000000000000000000 ) ) ;
#96 = SURFACE_STYLE_FILL_AREA ( #170 ) ;
#97 = CIRCLE ( 'NONE', #33, 0.4999999999999997224 ) ;
#98 = COLOUR_RGB ( '',1.000000000000000000, 0.000000000000000000, 0.000000000000000000 ) ;
#99 = ORIENTED_EDGE ( 'NONE', *, *, #2, .T. ) ;
#100 = CARTESIAN_POINT ( 'NONE',  ( 0.000000000000000000, 0.5000000000000001110, 0.000000000000000000 ) ) ;
#101 = EDGE_LOOP ( 'NONE', ( #62, #267, #232, #195, #104 ) ) ;
#102 =( NAMED_UNIT ( * ) PLANE_ANGLE_UNIT ( ) SI_UNIT ( $, .RADIAN. ) );
#103 = DIMENSIONAL_EXPONENTS ( 1.000000000000000000, 0.000000000000000000, 0.000000000000000000, 0.000000000000000000, 0.000000000000000000, 0.000000000000000000, 0.000000000000000000 ) ;
#104 = ORIENTED_EDGE ( 'NONE', *, *, #346, .F. ) ;
#105 = CIRCLE ( 'NONE', #302, 0.5000000000000000000 ) ;
#106 = AXIS2_PLACEMENT_3D ( 'NONE', #366, #306, #82 ) ;
#107 = ORIENTED_EDGE ( 'NONE', *, *, #326, .F. ) ;
#108 = DIRECTION ( 'NONE',  ( 0.000000000000000000, 0.000000000000000000, -1.000000000000000000 ) ) ;
#109 = EDGE_CURVE ( 'NONE', #205, #72, #286, .T. ) ;
#110 =( GEOMETRIC_REPRESENTATION_CONTEXT ( 3 ) GLOBAL_UNCERTAINTY_ASSIGNED_CONTEXT ( ( #305 ) ) GLOBAL_UNIT_ASSIGNED_CONTEXT ( ( #139, #347, #39 ) ) REPRESENTATION_CONTEXT ( 'NONE', 'WORKASPACE' ) );
#111 = DIRECTION ( 'NONE',  ( -1.000000000000000000, 0.000000000000000000, 0.000000000000000000 ) ) ;
#112 = FACE_OUTER_BOUND ( 'NONE', #101, .T. ) ;
#113 =( NAMED_UNIT ( * ) PLANE_ANGLE_UNIT ( ) SI_UNIT ( $, .RADIAN. ) );
#114 = AXIS2_PLACEMENT_3D ( 'NONE', #59, #3, #158 ) ;
#115 =( GEOMETRIC_REPRESENTATION_CONTEXT ( 3 ) GLOBAL_UNCERTAINTY_ASSIGNED_CONTEXT ( ( #37 ) ) GLOBAL_UNIT_ASSIGNED_CONTEXT ( ( #10, #102, #194 ) ) REPRESENTATION_CONTEXT ( 'NONE', 'WORKASPACE' ) );
#116 = EDGE_CURVE ( 'NONE', #224, #147, #348, .T. ) ;
#117 = DIRECTION ( 'NONE',  ( -2.593075071645456980E-16, 1.000000000000000000, -0.000000000000000000 ) ) ;
#118 = CARTESIAN_POINT ( 'NONE',  ( 0.000000000000000000, 0.5000000000000001110, -0.5000000000000000000 ) ) ;
#119 = FACE_OUTER_BOUND ( 'NONE', #349, .T. ) ;
#120 = AXIS2_PLACEMENT_3D ( 'NONE', #218, #17, #359 ) ;
#121 = LENGTH_MEASURE_WITH_UNIT ( LENGTH_MEASURE( 0.02539999999999999897 ), #293 );
#122 = PRODUCT_DEFINITION_SHAPE ( 'NONE', 'NONE',  #168 ) ;
#123 = PRESENTATION_LAYER_ASSIGNMENT (  '', '', ( #260 ) ) ;
#124 = DIRECTION ( 'NONE',  ( 0.000000000000000000, 0.000000000000000000, 1.000000000000000000 ) ) ;
#125 = ORIENTED_EDGE ( 'NONE', *, *, #186, .T. ) ;
#126 = SURFACE_SIDE_STYLE ('',( #351 ) ) ;
#127 = ORIENTED_EDGE ( 'NONE', *, *, #190, .F. ) ;
#128 = CIRCLE ( 'NONE', #18, 0.5000000000000000000 ) ;
#129 = DIRECTION ( 'NONE',  ( 2.593075071645456980E-16, -1.000000000000000000, 0.000000000000000000 ) ) ;
#130 = DIRECTION ( 'NONE',  ( 0.000000000000000000, 0.000000000000000000, -1.000000000000000000 ) ) ;
#131 = DIRECTION ( 'NONE',  ( -2.593075071645456980E-16, 1.000000000000000000, -0.000000000000000000 ) ) ;
#132 = CARTESIAN_POINT ( 'NONE',  ( 0.000000000000000000, 0.5000000000000001110, 0.000000000000000000 ) ) ;
#133 = CIRCLE ( 'NONE', #27, 0.5000000000000000000 ) ;
#134 =( CONVERSION_BASED_UNIT ( 'INCH', #57 ) LENGTH_UNIT ( ) NAMED_UNIT ( #15 ) );
#135 = COLOUR_RGB ( '',0.7921568627450980005, 0.8196078431372548767, 0.9333333333333333481 ) ;
#136 = STYLED_ITEM ( 'NONE', ( #259 ), #310 ) ;
#137 = CARTESIAN_POINT ( 'NONE',  ( -0.5000000000000000000, 5.000000000000000000, 0.000000000000000000 ) ) ;
#138 = ORIENTED_EDGE ( 'NONE', *, *, #156, .T. ) ;
#139 =( CONVERSION_BASED_UNIT ( 'INCH', #92 ) LENGTH_UNIT ( ) NAMED_UNIT ( #193 ) );
#140 = MECHANICAL_DESIGN_GEOMETRIC_PRESENTATION_REPRESENTATION (  '', ( #26 ), #171 ) ;
#141 = PLANE ( 'NONE',  #68 ) ;
#142 = SURFACE_STYLE_FILL_AREA ( #344 ) ;
#143 = VERTEX_POINT ( 'NONE', #197 ) ;
#144 = SURFACE_SIDE_STYLE ('',( #167 ) ) ;
#145 = EDGE_CURVE ( 'NONE', #147, #224, #238, .T. ) ;
#146 = VECTOR ( 'NONE', #192, 39.37007874015748143 ) ;
#147 = VERTEX_POINT ( 'NONE', #84 ) ;
#148 = ORIENTED_EDGE ( 'NONE', *, *, #244, .T. ) ;
#149 = DIMENSIONAL_EXPONENTS ( 1.000000000000000000, 0.000000000000000000, 0.000000000000000000, 0.000000000000000000, 0.000000000000000000, 0.000000000000000000, 0.000000000000000000 ) ;
#150 = ADVANCED_FACE ( 'NONE', ( #112 ), #188, .T. ) ;
#151 = PRESENTATION_LAYER_ASSIGNMENT (  '', '', ( #47 ) ) ;
#152 = DIRECTION ( 'NONE',  ( -1.000000000000000000, 0.000000000000000000, 0.000000000000000000 ) ) ;
#153 = APPLICATION_PROTOCOL_DEFINITION ( 'draft international standard', 'automotive_design', 1998, #323 ) ;
#154 = STYLED_ITEM ( 'NONE', ( #45 ), #319 ) ;
#155 = FILL_AREA_STYLE_COLOUR ( '', #320 ) ;
#156 = EDGE_CURVE ( 'NONE', #180, #14, #281, .T. ) ;
#157 = ORIENTED_EDGE ( 'NONE', *, *, #109, .F. ) ;
#158 = DIRECTION ( 'NONE',  ( 0.000000000000000000, 0.000000000000000000, -1.000000000000000000 ) ) ;
#159 = FACE_OUTER_BOUND ( 'NONE', #191, .T. ) ;
#160 = MECHANICAL_DESIGN_GEOMETRIC_PRESENTATION_REPRESENTATION (  '', ( #248 ), #54 ) ;
#161 = DIRECTION ( 'NONE',  ( 0.000000000000000000, 0.000000000000000000, -1.000000000000000000 ) ) ;
#162 = DIRECTION ( 'NONE',  ( -0.000000000000000000, -1.000000000000000000, -0.000000000000000000 ) ) ;
#163 = SURFACE_STYLE_USAGE ( .BOTH. , #282 ) ;
#164 = CARTESIAN_POINT ( 'NONE',  ( 0.000000000000000000, 2.625000000000000000, -0.4999999999999997224 ) ) ;
#165 = CIRCLE ( 'NONE', #220, 0.5000000000000000000 ) ;
#166 = MECHANICAL_DESIGN_GEOMETRIC_PRESENTATION_REPRESENTATION (  '', ( #154 ), #11 ) ;
#167 = SURFACE_STYLE_FILL_AREA ( #70 ) ;
#168 = PRODUCT_DEFINITION ( 'UNKNOWN', '', #61, #243 ) ;
#169 = DIRECTION ( 'NONE',  ( -1.000000000000000000, 0.000000000000000000, 0.000000000000000000 ) ) ;
#170 = FILL_AREA_STYLE ('',( #230 ) ) ;
#171 =( GEOMETRIC_REPRESENTATION_CONTEXT ( 3 ) GLOBAL_UNCERTAINTY_ASSIGNED_CONTEXT ( ( #369 ) ) GLOBAL_UNIT_ASSIGNED_CONTEXT ( ( #367, #88, #311 ) ) REPRESENTATION_CONTEXT ( 'NONE', 'WORKASPACE' ) );
#172 = ORIENTED_EDGE ( 'NONE', *, *, #50, .F. ) ;
#173 = MECHANICAL_DESIGN_GEOMETRIC_PRESENTATION_REPRESENTATION (  '', ( #136 ), #115 ) ;
#174 = DIRECTION ( 'NONE',  ( 0.000000000000000000, 1.000000000000000000, 0.000000000000000000 ) ) ;
#175 = CARTESIAN_POINT ( 'NONE',  ( -0.5000000000000000000, 0.5000000000000001110, 6.123233995736764803E-17 ) ) ;
#176 = PRESENTATION_STYLE_ASSIGNMENT (( #292 ) ) ;
#177 = DIMENSIONAL_EXPONENTS ( 1.000000000000000000, 0.000000000000000000, 0.000000000000000000, 0.000000000000000000, 0.000000000000000000, 0.000000000000000000, 0.000000000000000000 ) ;
#178 = CARTESIAN_POINT ( 'NONE',  ( -3.061616997868383018E-17, 0.000000000000000000, 0.000000000000000000 ) ) ;
#179 = VECTOR ( 'NONE', #304, 39.37007874015748143 ) ;
#180 = VERTEX_POINT ( 'NONE', #93 ) ;
#181 = COLOUR_RGB ( '',1.000000000000000000, 0.000000000000000000, 0.000000000000000000 ) ;
#182 =( CONVERSION_BASED_UNIT ( 'INCH', #209 ) LENGTH_UNIT ( ) NAMED_UNIT ( #212 ) );
#183 = SURFACE_STYLE_USAGE ( .BOTH. , #278 ) ;
#184 = PRESENTATION_LAYER_ASSIGNMENT (  '', '', ( #26 ) ) ;
#185 = SHAPE_DEFINITION_REPRESENTATION ( #122, #327 ) ;
#186 = EDGE_CURVE ( 'NONE', #143, #224, #370, .T. ) ;
#187 =( NAMED_UNIT ( * ) PLANE_ANGLE_UNIT ( ) SI_UNIT ( $, .RADIAN. ) );
#188 = CYLINDRICAL_SURFACE ( 'NONE', #114, 0.4999999999999998335 ) ;
#189 =( CONVERSION_BASED_UNIT ( 'INCH', #87 ) LENGTH_UNIT ( ) NAMED_UNIT ( #149 ) );
#190 = EDGE_CURVE ( 'NONE', #19, #28, #165, .T. ) ;
#191 = EDGE_LOOP ( 'NONE', ( #127, #148, #239, #46 ) ) ;
#192 = DIRECTION ( 'NONE',  ( -2.593075071645456980E-16, 1.000000000000000000, -0.000000000000000000 ) ) ;
#193 = DIMENSIONAL_EXPONENTS ( 1.000000000000000000, 0.000000000000000000, 0.000000000000000000, 0.000000000000000000, 0.000000000000000000, 0.000000000000000000, 0.000000000000000000 ) ;
#194 =( NAMED_UNIT ( * ) SI_UNIT ( $, .STERADIAN. ) SOLID_ANGLE_UNIT ( ) );
#195 = ORIENTED_EDGE ( 'NONE', *, *, #244, .F. ) ;
#196 = DIRECTION ( 'NONE',  ( 1.000000000000000000, 0.000000000000000000, 0.000000000000000000 ) ) ;
#197 = CARTESIAN_POINT ( 'NONE',  ( -0.4999999999999990563, 2.625000000000000000, 0.000000000000000000 ) ) ;
#198 = ORIENTED_EDGE ( 'NONE', *, *, #287, .T. ) ;
#199 = DIRECTION ( 'NONE',  ( -0.000000000000000000, -1.000000000000000000, -0.000000000000000000 ) ) ;
#200 = VERTEX_POINT ( 'NONE', #67 ) ;
#201 =( LENGTH_UNIT ( ) NAMED_UNIT ( * ) SI_UNIT ( $, .METRE. ) );
#202 = AXIS2_PLACEMENT_3D ( 'NONE', #53, #274, #203 ) ;
#203 = DIRECTION ( 'NONE',  ( -1.000000000000000000, 0.000000000000000000, 0.000000000000000000 ) ) ;
#204 = CIRCLE ( 'NONE', #55, 0.4999999999999993894 ) ;
#205 = VERTEX_POINT ( 'NONE', #164 ) ;
#206 = ORIENTED_EDGE ( 'NONE', *, *, #346, .T. ) ;
#207 = SURFACE_STYLE_USAGE ( .BOTH. , #144 ) ;
#208 = ORIENTED_EDGE ( 'NONE', *, *, #116, .F. ) ;
#209 = LENGTH_MEASURE_WITH_UNIT ( LENGTH_MEASURE( 0.02539999999999999897 ), #242 );
#210 = FILL_AREA_STYLE_COLOUR ( '', #83 ) ;
#211 = CARTESIAN_POINT ( 'NONE',  ( 0.4999999999999997224, 5.000000000000000000, 0.000000000000000000 ) ) ;
#212 = DIMENSIONAL_EXPONENTS ( 1.000000000000000000, 0.000000000000000000, 0.000000000000000000, 0.000000000000000000, 0.000000000000000000, 0.000000000000000000, 0.000000000000000000 ) ;
#213 = MECHANICAL_DESIGN_GEOMETRIC_PRESENTATION_REPRESENTATION (  '', ( #47 ), #20 ) ;
#214 =( LENGTH_UNIT ( ) NAMED_UNIT ( * ) SI_UNIT ( $, .METRE. ) );
#215 = PRODUCT_RELATED_PRODUCT_CATEGORY ( 'part', '', ( #58 ) ) ;
#216 = APPLICATION_PROTOCOL_DEFINITION ( 'draft international standard', 'automotive_design', 1998, #352 ) ;
#217 =( LENGTH_UNIT ( ) NAMED_UNIT ( * ) SI_UNIT ( $, .METRE. ) );
#218 = CARTESIAN_POINT ( 'NONE',  ( 0.000000000000000000, 2.625000000000000000, 0.000000000000000000 ) ) ;
#219 = EDGE_CURVE ( 'NONE', #334, #147, #288, .T. ) ;
#220 = AXIS2_PLACEMENT_3D ( 'NONE', #315, #250, #317 ) ;
#221 = ORIENTED_EDGE ( 'NONE', *, *, #229, .F. ) ;
#222 = CARTESIAN_POINT ( 'NONE',  ( 0.000000000000000000, 0.5000000000000001110, 0.000000000000000000 ) ) ;
#223 = PRESENTATION_STYLE_ASSIGNMENT (( #339 ) ) ;
#224 = VERTEX_POINT ( 'NONE', #340 ) ;
#225 = DIRECTION ( 'NONE',  ( -2.593075071645456980E-16, 1.000000000000000000, -0.000000000000000000 ) ) ;
#226 = AXIS2_PLACEMENT_3D ( 'NONE', #234, #42, #130 ) ;
#227 = AXIS2_PLACEMENT_3D ( 'NONE', #297, #124, #196 ) ;
#228 = DIRECTION ( 'NONE',  ( -0.000000000000000000, -1.000000000000000000, -0.000000000000000000 ) ) ;
#229 = EDGE_CURVE ( 'NONE', #205, #180, #97, .T. ) ;
#230 = FILL_AREA_STYLE_COLOUR ( '', #181 ) ;
#231 = CIRCLE ( 'NONE', #280, 0.5000000000000000000 ) ;
#232 = ORIENTED_EDGE ( 'NONE', *, *, #109, .T. ) ;
#233 = ORIENTED_EDGE ( 'NONE', *, *, #145, .F. ) ;
#234 = CARTESIAN_POINT ( 'NONE',  ( 0.000000000000000000, 0.000000000000000000, 0.000000000000000000 ) ) ;
#235 = FACE_OUTER_BOUND ( 'NONE', #40, .T. ) ;
#236 =( LENGTH_UNIT ( ) NAMED_UNIT ( * ) SI_UNIT ( $, .METRE. ) );
#237 = EDGE_CURVE ( 'NONE', #200, #28, #105, .T. ) ;
#238 = CIRCLE ( 'NONE', #21, 0.5000000000000000000 ) ;
#239 = ORIENTED_EDGE ( 'NONE', *, *, #50, .T. ) ;
#240 = CARTESIAN_POINT ( 'NONE',  ( 0.4999999999999997224, 2.625000000000000000, 6.123233995736764803E-17 ) ) ;
#241 = ORIENTED_EDGE ( 'NONE', *, *, #237, .F. ) ;
#242 =( LENGTH_UNIT ( ) NAMED_UNIT ( * ) SI_UNIT ( $, .METRE. ) );
#243 = PRODUCT_DEFINITION_CONTEXT ( 'detailed design', #352, 'design' ) ;
#244 = EDGE_CURVE ( 'NONE', #19, #72, #86, .T. ) ;
#245 = AXIS2_PLACEMENT_3D ( 'NONE', #94, #312, #341 ) ;
#246 = LENGTH_MEASURE_WITH_UNIT ( LENGTH_MEASURE( 0.02539999999999999897 ), #201 );
#247 = PRESENTATION_STYLE_ASSIGNMENT (( #251 ) ) ;
#248 = STYLED_ITEM ( 'NONE', ( #223 ), #277 ) ;
#249 = UNCERTAINTY_MEASURE_WITH_UNIT (LENGTH_MEASURE( 1.000000000000000082E-05 ), #252, 'distance_accuracy_value', 'NONE');
#250 = DIRECTION ( 'NONE',  ( 1.224646799147353207E-16, -0.000000000000000000, 1.000000000000000000 ) ) ;
#251 = SURFACE_STYLE_USAGE ( .BOTH. , #303 ) ;
#252 =( CONVERSION_BASED_UNIT ( 'INCH', #51 ) LENGTH_UNIT ( ) NAMED_UNIT ( #266 ) );
#253 = ADVANCED_FACE ( 'NONE', ( #30 ), #141, .F. ) ;
#254 = VECTOR ( 'NONE', #117, 39.37007874015748143 ) ;
#255 = SURFACE_STYLE_FILL_AREA ( #289 ) ;
#256 =( LENGTH_UNIT ( ) NAMED_UNIT ( * ) SI_UNIT ( $, .METRE. ) );
#257 = UNCERTAINTY_MEASURE_WITH_UNIT (LENGTH_MEASURE( 1.000000000000000082E-05 ), #134, 'distance_accuracy_value', 'NONE');
#258 = FILL_AREA_STYLE ('',( #5 ) ) ;
#259 = PRESENTATION_STYLE_ASSIGNMENT (( #207 ) ) ;
#260 = STYLED_ITEM ( 'NONE', ( #176 ), #265 ) ;
#261 = CYLINDRICAL_SURFACE ( 'NONE', #226, 0.4999999999999998335 ) ;
#262 = MANIFOLD_SOLID_BREP ( 'Revolve - Tool Body (Straight Shanked)', #338 ) ;
#263 = EDGE_LOOP ( 'NONE', ( #79, #138, #296, #172, #157 ) ) ;
#264 = FILL_AREA_STYLE_COLOUR ( '', #98 ) ;
#265 = MANIFOLD_SOLID_BREP ( 'Revolve - Cutting Edge', #25 ) ;
#266 = DIMENSIONAL_EXPONENTS ( 1.000000000000000000, 0.000000000000000000, 0.000000000000000000, 0.000000000000000000, 0.000000000000000000, 0.000000000000000000, 0.000000000000000000 ) ;
#267 = ORIENTED_EDGE ( 'NONE', *, *, #326, .T. ) ;
#268 = LENGTH_MEASURE_WITH_UNIT ( LENGTH_MEASURE( 0.02539999999999999897 ), #236 );
#269 = AXIS2_PLACEMENT_3D ( 'NONE', #71, #290, #161 ) ;
#270 = EDGE_LOOP ( 'NONE', ( #206, #32, #241, #99 ) ) ;
#271 = CARTESIAN_POINT ( 'NONE',  ( 3.096936297289577434E-16, 2.625000000000000000, 0.000000000000000000 ) ) ;
#272 = PRODUCT_CONTEXT ( 'NONE', #323, 'mechanical' ) ;
#273 =( NAMED_UNIT ( * ) SI_UNIT ( $, .STERADIAN. ) SOLID_ANGLE_UNIT ( ) );
#274 = DIRECTION ( 'NONE',  ( -2.593075071645456980E-16, 1.000000000000000000, -0.000000000000000000 ) ) ;
#275 = SURFACE_STYLE_FILL_AREA ( #56 ) ;
#276 =( GEOMETRIC_REPRESENTATION_CONTEXT ( 3 ) GLOBAL_UNCERTAINTY_ASSIGNED_CONTEXT ( ( #283 ) ) GLOBAL_UNIT_ASSIGNED_CONTEXT ( ( #189, #187, #36 ) ) REPRESENTATION_CONTEXT ( 'NONE', 'WORKASPACE' ) );
#277 = ADVANCED_FACE ( 'NONE', ( #371 ), #285, .T. ) ;
#278 = SURFACE_SIDE_STYLE ('',( #275 ) ) ;
#279 = CARTESIAN_POINT ( 'NONE',  ( -6.123233995736766036E-17, 0.5000000000000000000, 0.000000000000000000 ) ) ;
#280 = AXIS2_PLACEMENT_3D ( 'NONE', #100, #199, #74 ) ;
#281 = LINE ( 'NONE', #29, #9 ) ;
#282 = SURFACE_SIDE_STYLE ('',( #142 ) ) ;
#283 = UNCERTAINTY_MEASURE_WITH_UNIT (LENGTH_MEASURE( 1.000000000000000082E-05 ), #189, 'distance_accuracy_value', 'NONE');
#284 = DIRECTION ( 'NONE',  ( 0.000000000000000000, 0.000000000000000000, -1.000000000000000000 ) ) ;
#285 = SPHERICAL_SURFACE ( 'NONE', #313, 0.5000000000000000000 ) ;
#286 = LINE ( 'NONE', #34, #179 ) ;
#287 = EDGE_CURVE ( 'NONE', #334, #143, #363, .T. ) ;
#288 = LINE ( 'NONE', #35, #254 ) ;
#289 = FILL_AREA_STYLE ('',( #318 ) ) ;
#290 = DIRECTION ( 'NONE',  ( -0.000000000000000000, -1.000000000000000000, -0.000000000000000000 ) ) ;
#291 = UNCERTAINTY_MEASURE_WITH_UNIT (LENGTH_MEASURE( 1.000000000000000082E-05 ), #182, 'distance_accuracy_value', 'NONE');
#292 = SURFACE_STYLE_USAGE ( .BOTH. , #126 ) ;
#293 =( LENGTH_UNIT ( ) NAMED_UNIT ( * ) SI_UNIT ( $, .METRE. ) );
#294 = AXIS2_PLACEMENT_3D ( 'NONE', #90, #225, #89 ) ;
#295 = ADVANCED_FACE ( 'NONE', ( #119 ), #6, .T. ) ;
#296 = ORIENTED_EDGE ( 'NONE', *, *, #2, .F. ) ;
#297 = CARTESIAN_POINT ( 'NONE',  ( -6.123233995736766036E-17, 0.5000000000000000000, 0.000000000000000000 ) ) ;
#298 = ORIENTED_EDGE ( 'NONE', *, *, #219, .T. ) ;
#299 = CARTESIAN_POINT ( 'NONE',  ( 0.000000000000000000, 2.625000000000000000, 0.000000000000000000 ) ) ;
#300 = FACE_OUTER_BOUND ( 'NONE', #354, .T. ) ;
#301 = DIMENSIONAL_EXPONENTS ( 1.000000000000000000, 0.000000000000000000, 0.000000000000000000, 0.000000000000000000, 0.000000000000000000, 0.000000000000000000, 0.000000000000000000 ) ;
#302 = AXIS2_PLACEMENT_3D ( 'NONE', #333, #48, #322 ) ;
#303 = SURFACE_SIDE_STYLE ('',( #337 ) ) ;
#304 = DIRECTION ( 'NONE',  ( -0.000000000000000000, -1.000000000000000000, -0.000000000000000000 ) ) ;
#305 = UNCERTAINTY_MEASURE_WITH_UNIT (LENGTH_MEASURE( 1.000000000000000082E-05 ), #139, 'distance_accuracy_value', 'NONE');
#306 = DIRECTION ( 'NONE',  ( 0.000000000000000000, 0.000000000000000000, 1.000000000000000000 ) ) ;
#307 = ADVANCED_FACE ( 'NONE', ( #159 ), #73, .T. ) ;
#308 = PRESENTATION_LAYER_ASSIGNMENT (  '', '', ( #154 ) ) ;
#309 = SURFACE_SIDE_STYLE ('',( #255 ) ) ;
#310 = ADVANCED_FACE ( 'NONE', ( #60 ), #331, .T. ) ;
#311 =( NAMED_UNIT ( * ) SI_UNIT ( $, .STERADIAN. ) SOLID_ANGLE_UNIT ( ) );
#312 = DIRECTION ( 'NONE',  ( -2.593075071645456980E-16, 1.000000000000000000, -0.000000000000000000 ) ) ;
#313 = AXIS2_PLACEMENT_3D ( 'NONE', #279, #24, #316 ) ;
#314 = DIRECTION ( 'NONE',  ( 0.000000000000000000, 0.000000000000000000, -1.000000000000000000 ) ) ;
#315 = CARTESIAN_POINT ( 'NONE',  ( -6.123233995736766036E-17, 0.5000000000000000000, 0.000000000000000000 ) ) ;
#316 = DIRECTION ( 'NONE',  ( 1.000000000000000000, 0.000000000000000000, 0.000000000000000000 ) ) ;
#317 = DIRECTION ( 'NONE',  ( 1.000000000000000000, 0.000000000000000000, -1.224646799147353207E-16 ) ) ;
#318 = FILL_AREA_STYLE_COLOUR ( '', #336 ) ;
#319 = ADVANCED_FACE ( 'NONE', ( #38 ), #261, .T. ) ;
#320 = COLOUR_RGB ( '',0.7921568627450980005, 0.8196078431372548767, 0.9333333333333333481 ) ;
#321 = SURFACE_STYLE_USAGE ( .BOTH. , #353 ) ;
#322 = DIRECTION ( 'NONE',  ( -1.000000000000000000, 0.000000000000000000, 0.000000000000000000 ) ) ;
#323 = APPLICATION_CONTEXT ( 'automotive_design' ) ;
#324 = DIRECTION ( 'NONE',  ( -2.593075071645456980E-16, 1.000000000000000000, -0.000000000000000000 ) ) ;
#325 =( NAMED_UNIT ( * ) SI_UNIT ( $, .STERADIAN. ) SOLID_ANGLE_UNIT ( ) );
#326 = EDGE_CURVE ( 'NONE', #180, #205, #77, .T. ) ;
#327 = ADVANCED_BREP_SHAPE_REPRESENTATION ( '82594', ( #265, #262, #106 ), #69 ) ;
#328 = PRESENTATION_LAYER_ASSIGNMENT (  '', '', ( #136 ) ) ;
#329 = ORIENTED_EDGE ( 'NONE', *, *, #145, .T. ) ;
#330 = CARTESIAN_POINT ( 'NONE',  ( 6.123233995736766036E-17, 0.5000000000000001110, 0.5000000000000000000 ) ) ;
#331 = PLANE ( 'NONE',  #49 ) ;
#332 = DIRECTION ( 'NONE',  ( -2.593075071645456980E-16, 1.000000000000000000, -0.000000000000000000 ) ) ;
#333 = CARTESIAN_POINT ( 'NONE',  ( -6.123233995736766036E-17, 0.5000000000000000000, 0.000000000000000000 ) ) ;
#334 = VERTEX_POINT ( 'NONE', #240 ) ;
#335 = PLANE ( 'NONE',  #342 ) ;
#336 = COLOUR_RGB ( '',1.000000000000000000, 0.000000000000000000, 0.000000000000000000 ) ;
#337 = SURFACE_STYLE_FILL_AREA ( #361 ) ;
#338 = CLOSED_SHELL ( 'NONE', ( #43, #253, #295, #22 ) ) ;
#339 = SURFACE_STYLE_USAGE ( .BOTH. , #309 ) ;
#340 = CARTESIAN_POINT ( 'NONE',  ( -0.5000000000000002220, 5.000000000000000000, 0.000000000000000000 ) ) ;
#341 = DIRECTION ( 'NONE',  ( -1.000000000000000000, 0.000000000000000000, 0.000000000000000000 ) ) ;
#342 = AXIS2_PLACEMENT_3D ( 'NONE', #211, #129, #81 ) ;
#343 = STYLED_ITEM ( 'NONE', ( #4 ), #307 ) ;
#344 = FILL_AREA_STYLE ('',( #345 ) ) ;
#345 = FILL_AREA_STYLE_COLOUR ( '', #91 ) ;
#346 = EDGE_CURVE ( 'NONE', #14, #19, #133, .T. ) ;
#347 =( NAMED_UNIT ( * ) PLANE_ANGLE_UNIT ( ) SI_UNIT ( $, .RADIAN. ) );
#348 = CIRCLE ( 'NONE', #202, 0.5000000000000000000 ) ;
#349 = EDGE_LOOP ( 'NONE', ( #16, #198, #125, #233 ) ) ;
#350 = DIRECTION ( 'NONE',  ( 0.000000000000000000, -0.000000000000000000, 1.000000000000000000 ) ) ;
#351 = SURFACE_STYLE_FILL_AREA ( #258 ) ;
#352 = APPLICATION_CONTEXT ( 'automotive_design' ) ;
#353 = SURFACE_SIDE_STYLE ('',( #96 ) ) ;
#354 = EDGE_LOOP ( 'NONE', ( #75, #298, #208, #44 ) ) ;
#355 =( CONVERSION_BASED_UNIT ( 'INCH', #268 ) LENGTH_UNIT ( ) NAMED_UNIT ( #177 ) );
#356 = MECHANICAL_DESIGN_GEOMETRIC_PRESENTATION_REPRESENTATION (  '', ( #343 ), #110 ) ;
#357 = ORIENTED_EDGE ( 'NONE', *, *, #287, .F. ) ;
#358 = CYLINDRICAL_SURFACE ( 'NONE', #41, 0.4999999999999997224 ) ;
#359 = DIRECTION ( 'NONE',  ( 0.000000000000000000, 0.000000000000000000, -1.000000000000000000 ) ) ;
#360 = CARTESIAN_POINT ( 'NONE',  ( -3.061616997868383141E-16, 5.000000000000000000, 0.000000000000000000 ) ) ;
#361 = FILL_AREA_STYLE ('',( #210 ) ) ;
#362 =( NAMED_UNIT ( * ) SI_UNIT ( $, .STERADIAN. ) SOLID_ANGLE_UNIT ( ) );
#363 = CIRCLE ( 'NONE', #245, 0.4999999999999993894 ) ;
#364 = EDGE_CURVE ( 'NONE', #143, #334, #204, .T. ) ;
#365 = PRESENTATION_STYLE_ASSIGNMENT (( #183 ) ) ;
#366 = CARTESIAN_POINT ( 'NONE',  ( 0.000000000000000000, 0.000000000000000000, 0.000000000000000000 ) ) ;
#367 =( CONVERSION_BASED_UNIT ( 'INCH', #246 ) LENGTH_UNIT ( ) NAMED_UNIT ( #301 ) );
#368 = MECHANICAL_DESIGN_GEOMETRIC_PRESENTATION_REPRESENTATION (  '', ( #260 ), #276 ) ;
#369 = UNCERTAINTY_MEASURE_WITH_UNIT (LENGTH_MEASURE( 1.000000000000000082E-05 ), #367, 'distance_accuracy_value', 'NONE');
#370 = LINE ( 'NONE', #137, #146 ) ;
#371 = FACE_OUTER_BOUND ( 'NONE', #270, .T. ) ;
#372 = CARTESIAN_POINT ( 'NONE',  ( 3.096936297289577927E-16, 2.625000000000000000, 0.000000000000000000 ) ) ;
#373 =( LENGTH_UNIT ( ) NAMED_UNIT ( * ) SI_UNIT ( $, .METRE. ) );
ENDSEC;
END-ISO-10303-21;
