ISO-10303-21;
HEADER;
FILE_DESCRIPTION (( 'STEP AP214' ),
    '1' );
FILE_NAME ('83188.STEP',
    '2023-06-23T08:02:09',
    ( '' ),
    ( '' ),
    'SwSTEP 2.0',
    'SolidWorks 2023',
    '' );
FILE_SCHEMA (( 'AUTOMOTIVE_DESIGN' ));
ENDSEC;

DATA;
#1 = PRESENTATION_LAYER_ASSIGNMENT (  '', '', ( #170 ) ) ;
#2 = MECHANICAL_DESIGN_GEOMETRIC_PRESENTATION_REPRESENTATION (  '', ( #41 ), #238 ) ;
#3 = APPLICATION_PROTOCOL_DEFINITION ( 'draft international standard', 'automotive_design', 1998, #216 ) ;
#4 = CARTESIAN_POINT ( 'NONE',  ( 0.000000000000000000, 0.1875000000000001110, 0.000000000000000000 ) ) ;
#5 = CARTESIAN_POINT ( 'NONE',  ( 0.000000000000000000, 0.000000000000000000, 0.000000000000000000 ) ) ;
#6 = CIRCLE ( 'NONE', #134, 0.09375000000000009714 ) ;
#7 = AXIS2_PLACEMENT_3D ( 'NONE', #70, #148, #233 ) ;
#8 = ORIENTED_EDGE ( 'NONE', *, *, #249, .T. ) ;
#9 = EDGE_LOOP ( 'NONE', ( #262, #339 ) ) ;
#10 = DIRECTION ( 'NONE',  ( -0.000000000000000000, -1.000000000000000000, -0.000000000000000000 ) ) ;
#11 = CARTESIAN_POINT ( 'NONE',  ( 6.123233995736766036E-17, 2.000000000000000000, 0.000000000000000000 ) ) ;
#12 = VERTEX_POINT ( 'NONE', #62 ) ;
#13 =( GEOMETRIC_REPRESENTATION_CONTEXT ( 3 ) GLOBAL_UNCERTAINTY_ASSIGNED_CONTEXT ( ( #193 ) ) GLOBAL_UNIT_ASSIGNED_CONTEXT ( ( #49, #51, #277 ) ) REPRESENTATION_CONTEXT ( 'NONE', 'WORKASPACE' ) );
#14 = COLOUR_RGB ( '',1.000000000000000000, 0.000000000000000000, 0.000000000000000000 ) ;
#15 =( NAMED_UNIT ( * ) PLANE_ANGLE_UNIT ( ) SI_UNIT ( $, .RADIAN. ) );
#16 = DIRECTION ( 'NONE',  ( -3.378335997647870959E-17, -1.000000000000000000, 0.000000000000000000 ) ) ;
#17 = VERTEX_POINT ( 'NONE', #292 ) ;
#18 =( CONVERSION_BASED_UNIT ( 'INCH', #85 ) LENGTH_UNIT ( ) NAMED_UNIT ( #227 ) );
#19 = PRESENTATION_LAYER_ASSIGNMENT (  '', '', ( #61 ) ) ;
#20 = CARTESIAN_POINT ( 'NONE',  ( 0.07810000000000000275, 0.1875000000000001110, 9.564491501340828324E-18 ) ) ;
#21 = LENGTH_MEASURE_WITH_UNIT ( LENGTH_MEASURE( 0.02539999999999999897 ), #79 );
#22 = ADVANCED_FACE ( 'NONE', ( #128 ), #344, .F. ) ;
#23 = FILL_AREA_STYLE_COLOUR ( '', #223 ) ;
#24 = CYLINDRICAL_SURFACE ( 'NONE', #91, 0.07810000000000000275 ) ;
#25 = SURFACE_SIDE_STYLE ('',( #275 ) ) ;
#26 = CARTESIAN_POINT ( 'NONE',  ( 0.000000000000000000, 0.000000000000000000, 0.000000000000000000 ) ) ;
#27 = AXIS2_PLACEMENT_3D ( 'NONE', #40, #16, #130 ) ;
#28 = LINE ( 'NONE', #157, #356 ) ;
#29 = MECHANICAL_DESIGN_GEOMETRIC_PRESENTATION_REPRESENTATION (  '', ( #189 ), #58 ) ;
#30 =( GEOMETRIC_REPRESENTATION_CONTEXT ( 3 ) GLOBAL_UNCERTAINTY_ASSIGNED_CONTEXT ( ( #313 ) ) GLOBAL_UNIT_ASSIGNED_CONTEXT ( ( #212, #287, #259 ) ) REPRESENTATION_CONTEXT ( 'NONE', 'WORKASPACE' ) );
#31 = CARTESIAN_POINT ( 'NONE',  ( 9.564491501340828324E-18, 0.000000000000000000, 0.07810000000000000275 ) ) ;
#32 = ORIENTED_EDGE ( 'NONE', *, *, #217, .T. ) ;
#33 = EDGE_CURVE ( 'NONE', #124, #289, #6, .T. ) ;
#34 = APPLICATION_CONTEXT ( 'automotive_design' ) ;
#35 = PRODUCT_DEFINITION ( 'UNKNOWN', '', #127, #150 ) ;
#36 = DIRECTION ( 'NONE',  ( 0.000000000000000000, 0.000000000000000000, -1.000000000000000000 ) ) ;
#37 = ORIENTED_EDGE ( 'NONE', *, *, #162, .F. ) ;
#38 = ORIENTED_EDGE ( 'NONE', *, *, #358, .F. ) ;
#39 = CIRCLE ( 'NONE', #264, 0.09375000000000001388 ) ;
#40 = CARTESIAN_POINT ( 'NONE',  ( 0.09375000000000006939, 2.000000000000000000, 0.000000000000000000 ) ) ;
#41 = STYLED_ITEM ( 'NONE', ( #270 ), #271 ) ;
#42 = DIRECTION ( 'NONE',  ( -1.000000000000000000, 0.000000000000000000, 0.000000000000000000 ) ) ;
#43 = EDGE_LOOP ( 'NONE', ( #220, #163 ) ) ;
#44 = CYLINDRICAL_SURFACE ( 'NONE', #7, 0.09375000000000005551 ) ;
#45 = CARTESIAN_POINT ( 'NONE',  ( 0.000000000000000000, 0.1874999999999999722, 0.000000000000000000 ) ) ;
#46 = VECTOR ( 'NONE', #50, 39.37007874015748143 ) ;
#47 = ADVANCED_FACE ( 'NONE', ( #68 ), #190, .T. ) ;
#48 = CIRCLE ( 'NONE', #197, 0.09375000000000001388 ) ;
#49 =( CONVERSION_BASED_UNIT ( 'INCH', #303 ) LENGTH_UNIT ( ) NAMED_UNIT ( #326 ) );
#50 = DIRECTION ( 'NONE',  ( 3.378335997647870959E-17, 1.000000000000000000, -0.000000000000000000 ) ) ;
#51 =( NAMED_UNIT ( * ) PLANE_ANGLE_UNIT ( ) SI_UNIT ( $, .RADIAN. ) );
#52 = FACE_OUTER_BOUND ( 'NONE', #132, .T. ) ;
#53 = CARTESIAN_POINT ( 'NONE',  ( 0.07810000000000000275, 0.1875000000000001110, 1.052277762167363810E-17 ) ) ;
#54 = DIRECTION ( 'NONE',  ( 0.000000000000000000, 0.000000000000000000, -1.000000000000000000 ) ) ;
#55 = DIRECTION ( 'NONE',  ( 0.000000000000000000, 0.000000000000000000, -1.000000000000000000 ) ) ;
#56 = EDGE_CURVE ( 'NONE', #267, #17, #156, .T. ) ;
#57 = AXIS2_PLACEMENT_3D ( 'NONE', #4, #117, #234 ) ;
#58 =( GEOMETRIC_REPRESENTATION_CONTEXT ( 3 ) GLOBAL_UNCERTAINTY_ASSIGNED_CONTEXT ( ( #185 ) ) GLOBAL_UNIT_ASSIGNED_CONTEXT ( ( #138, #328, #141 ) ) REPRESENTATION_CONTEXT ( 'NONE', 'WORKASPACE' ) );
#59 = ORIENTED_EDGE ( 'NONE', *, *, #33, .T. ) ;
#60 = CARTESIAN_POINT ( 'NONE',  ( 0.000000000000000000, 0.1874999999999999722, 0.000000000000000000 ) ) ;
#61 = STYLED_ITEM ( 'NONE', ( #199 ), #228 ) ;
#62 = CARTESIAN_POINT ( 'NONE',  ( 9.564491501340828324E-18, 0.1874999999999999722, 0.07810000000000000275 ) ) ;
#63 = ORIENTED_EDGE ( 'NONE', *, *, #358, .T. ) ;
#64 = DIRECTION ( 'NONE',  ( 3.378335997647870959E-17, 1.000000000000000000, -0.000000000000000000 ) ) ;
#65 = AXIS2_PLACEMENT_3D ( 'NONE', #11, #169, #110 ) ;
#66 = EDGE_LOOP ( 'NONE', ( #96, #224, #37, #194 ) ) ;
#67 = DIRECTION ( 'NONE',  ( -0.000000000000000000, -1.000000000000000000, -0.000000000000000000 ) ) ;
#68 = FACE_OUTER_BOUND ( 'NONE', #246, .T. ) ;
#69 = PRESENTATION_STYLE_ASSIGNMENT (( #327 ) ) ;
#70 = CARTESIAN_POINT ( 'NONE',  ( 6.123233995736766036E-17, 2.000000000000000000, 0.000000000000000000 ) ) ;
#71 = FILL_AREA_STYLE_COLOUR ( '', #203 ) ;
#72 = DIRECTION ( 'NONE',  ( 3.378335997647870959E-17, 1.000000000000000000, -0.000000000000000000 ) ) ;
#73 =( NAMED_UNIT ( * ) SI_UNIT ( $, .STERADIAN. ) SOLID_ANGLE_UNIT ( ) );
#74 = CARTESIAN_POINT ( 'NONE',  ( -0.07810000000000000275, 0.1875000000000001110, 0.000000000000000000 ) ) ;
#75 = LINE ( 'NONE', #137, #46 ) ;
#76 = DIRECTION ( 'NONE',  ( 0.000000000000000000, 0.000000000000000000, -1.000000000000000000 ) ) ;
#77 = FILL_AREA_STYLE ('',( #278 ) ) ;
#78 =( NAMED_UNIT ( * ) PLANE_ANGLE_UNIT ( ) SI_UNIT ( $, .RADIAN. ) );
#79 =( LENGTH_UNIT ( ) NAMED_UNIT ( * ) SI_UNIT ( $, .METRE. ) );
#80 = DIRECTION ( 'NONE',  ( 3.378335997647870959E-17, 1.000000000000000000, -0.000000000000000000 ) ) ;
#81 = CARTESIAN_POINT ( 'NONE',  ( 1.452617642477878901E-18, 0.2304980216144648930, 0.000000000000000000 ) ) ;
#82 = DIRECTION ( 'NONE',  ( 3.378335997647870959E-17, 1.000000000000000000, -0.000000000000000000 ) ) ;
#83 = SURFACE_STYLE_USAGE ( .BOTH. , #273 ) ;
#84 = UNCERTAINTY_MEASURE_WITH_UNIT (LENGTH_MEASURE( 1.000000000000000082E-05 ), #191, 'distance_accuracy_value', 'NONE');
#85 = LENGTH_MEASURE_WITH_UNIT ( LENGTH_MEASURE( 0.02539999999999999897 ), #153 );
#86 = EDGE_CURVE ( 'NONE', #195, #348, #39, .T. ) ;
#87 = LENGTH_MEASURE_WITH_UNIT ( LENGTH_MEASURE( 0.02539999999999999897 ), #116 );
#88 = DIRECTION ( 'NONE',  ( 0.000000000000000000, 0.000000000000000000, 1.000000000000000000 ) ) ;
#89 = CARTESIAN_POINT ( 'NONE',  ( 0.000000000000000000, 0.000000000000000000, -0.07810000000000000275 ) ) ;
#90 = COLOUR_RGB ( '',0.7921568627450980005, 0.8196078431372548767, 0.9333333333333333481 ) ;
#91 = AXIS2_PLACEMENT_3D ( 'NONE', #26, #144, #76 ) ;
#92 = DIRECTION ( 'NONE',  ( -1.000000000000000000, 0.000000000000000000, 0.000000000000000000 ) ) ;
#93 = ORIENTED_EDGE ( 'NONE', *, *, #321, .T. ) ;
#94 = PRESENTATION_LAYER_ASSIGNMENT (  '', '', ( #189 ) ) ;
#95 = VERTEX_POINT ( 'NONE', #135 ) ;
#96 = ORIENTED_EDGE ( 'NONE', *, *, #114, .T. ) ;
#97 = CARTESIAN_POINT ( 'NONE',  ( 4.456836681127841203E-35, 0.1874999999999999722, 0.000000000000000000 ) ) ;
#98 = ORIENTED_EDGE ( 'NONE', *, *, #112, .F. ) ;
#99 = PLANE ( 'NONE',  #329 ) ;
#100 = AXIS2_PLACEMENT_3D ( 'NONE', #294, #149, #54 ) ;
#101 =( GEOMETRIC_REPRESENTATION_CONTEXT ( 3 ) GLOBAL_UNCERTAINTY_ASSIGNED_CONTEXT ( ( #214 ) ) GLOBAL_UNIT_ASSIGNED_CONTEXT ( ( #213, #15, #226 ) ) REPRESENTATION_CONTEXT ( 'NONE', 'WORKASPACE' ) );
#102 = EDGE_CURVE ( 'NONE', #295, #17, #334, .T. ) ;
#103 = CARTESIAN_POINT ( 'NONE',  ( 1.452617642477878901E-18, 0.2304980216144648930, 0.000000000000000000 ) ) ;
#104 = SURFACE_STYLE_USAGE ( .BOTH. , #143 ) ;
#105 = FILL_AREA_STYLE ('',( #145 ) ) ;
#106 = CARTESIAN_POINT ( 'NONE',  ( 0.000000000000000000, 0.1874999999999999722, 0.000000000000000000 ) ) ;
#107 = AXIS2_PLACEMENT_3D ( 'NONE', #45, #206, #301 ) ;
#108 = LENGTH_MEASURE_WITH_UNIT ( LENGTH_MEASURE( 0.02539999999999999897 ), #276 );
#109 = DIRECTION ( 'NONE',  ( 3.378335997647870959E-17, 1.000000000000000000, -0.000000000000000000 ) ) ;
#110 = DIRECTION ( 'NONE',  ( -1.000000000000000000, 0.000000000000000000, 0.000000000000000000 ) ) ;
#111 = DIRECTION ( 'NONE',  ( 0.000000000000000000, 0.000000000000000000, -1.000000000000000000 ) ) ;
#112 = EDGE_CURVE ( 'NONE', #242, #124, #304, .T. ) ;
#113 = FILL_AREA_STYLE ('',( #283 ) ) ;
#114 = EDGE_CURVE ( 'NONE', #267, #12, #286, .T. ) ;
#115 = SHAPE_DEFINITION_REPRESENTATION ( #293, #168 ) ;
#116 =( LENGTH_UNIT ( ) NAMED_UNIT ( * ) SI_UNIT ( $, .METRE. ) );
#117 = DIRECTION ( 'NONE',  ( 3.378335997647870959E-17, 1.000000000000000000, -0.000000000000000000 ) ) ;
#118 = APPLICATION_PROTOCOL_DEFINITION ( 'draft international standard', 'automotive_design', 1998, #34 ) ;
#119 = AXIS2_PLACEMENT_3D ( 'NONE', #121, #241, #36 ) ;
#120 = UNCERTAINTY_MEASURE_WITH_UNIT (LENGTH_MEASURE( 1.000000000000000082E-05 ), #18, 'distance_accuracy_value', 'NONE');
#121 = CARTESIAN_POINT ( 'NONE',  ( 0.000000000000000000, 0.000000000000000000, 0.000000000000000000 ) ) ;
#122 = EDGE_LOOP ( 'NONE', ( #98, #8, #93, #243 ) ) ;
#123 = CARTESIAN_POINT ( 'NONE',  ( 0.000000000000000000, 0.1875000000000001110, 0.000000000000000000 ) ) ;
#124 = VERTEX_POINT ( 'NONE', #175 ) ;
#125 = STYLED_ITEM ( 'NONE', ( #355 ), #129 ) ;
#126 = EDGE_CURVE ( 'NONE', #124, #348, #75, .T. ) ;
#127 = PRODUCT_DEFINITION_FORMATION_WITH_SPECIFIED_SOURCE ( 'ANY', '', #266, .NOT_KNOWN. ) ;
#128 = FACE_OUTER_BOUND ( 'NONE', #198, .T. ) ;
#129 = MANIFOLD_SOLID_BREP ( 'Revolve - Tool Body (Reduced Cut Diameter)', #318 ) ;
#130 = DIRECTION ( 'NONE',  ( 1.000000000000000000, -3.378335997647870959E-17, 0.000000000000000000 ) ) ;
#131 = MANIFOLD_SOLID_BREP ( 'Revolve - Cutting Edge', #187 ) ;
#132 = EDGE_LOOP ( 'NONE', ( #32, #196, #38, #349 ) ) ;
#133 = ADVANCED_FACE ( 'NONE', ( #345 ), #200, .F. ) ;
#134 = AXIS2_PLACEMENT_3D ( 'NONE', #103, #209, #92 ) ;
#135 = CARTESIAN_POINT ( 'NONE',  ( -0.07810000000000000275, 0.1875000000000001110, 0.000000000000000000 ) ) ;
#136 =( GEOMETRIC_REPRESENTATION_CONTEXT ( 3 ) GLOBAL_UNCERTAINTY_ASSIGNED_CONTEXT ( ( #120 ) ) GLOBAL_UNIT_ASSIGNED_CONTEXT ( ( #18, #78, #330 ) ) REPRESENTATION_CONTEXT ( 'NONE', 'WORKASPACE' ) );
#137 = CARTESIAN_POINT ( 'NONE',  ( 0.09375000000000012490, 2.000000000000000000, 1.148106374200644325E-17 ) ) ;
#138 =( CONVERSION_BASED_UNIT ( 'INCH', #21 ) LENGTH_UNIT ( ) NAMED_UNIT ( #142 ) );
#139 = CARTESIAN_POINT ( 'NONE',  ( 0.09375000000000006939, 2.000000000000000000, 1.148106374200644633E-17 ) ) ;
#140 = CARTESIAN_POINT ( 'NONE',  ( 6.123233995736766036E-17, 2.000000000000000000, 0.000000000000000000 ) ) ;
#141 =( NAMED_UNIT ( * ) SI_UNIT ( $, .STERADIAN. ) SOLID_ANGLE_UNIT ( ) );
#142 = DIMENSIONAL_EXPONENTS ( 1.000000000000000000, 0.000000000000000000, 0.000000000000000000, 0.000000000000000000, 0.000000000000000000, 0.000000000000000000, 0.000000000000000000 ) ;
#143 = SURFACE_SIDE_STYLE ('',( #167 ) ) ;
#144 = DIRECTION ( 'NONE',  ( -0.000000000000000000, -1.000000000000000000, -0.000000000000000000 ) ) ;
#145 = FILL_AREA_STYLE_COLOUR ( '', #90 ) ;
#146 = AXIS2_PLACEMENT_3D ( 'NONE', #81, #154, #253 ) ;
#147 = PRESENTATION_STYLE_ASSIGNMENT (( #83 ) ) ;
#148 = DIRECTION ( 'NONE',  ( 3.378335997647870959E-17, 1.000000000000000000, -0.000000000000000000 ) ) ;
#149 = DIRECTION ( 'NONE',  ( -0.000000000000000000, -1.000000000000000000, -0.000000000000000000 ) ) ;
#150 = PRODUCT_DEFINITION_CONTEXT ( 'detailed design', #216, 'design' ) ;
#151 = DIRECTION ( 'NONE',  ( 1.000000000000000000, 0.000000000000000000, 0.000000000000000000 ) ) ;
#152 = SURFACE_STYLE_FILL_AREA ( #113 ) ;
#153 =( LENGTH_UNIT ( ) NAMED_UNIT ( * ) SI_UNIT ( $, .METRE. ) );
#154 = DIRECTION ( 'NONE',  ( 3.378335997647870959E-17, 1.000000000000000000, -0.000000000000000000 ) ) ;
#155 = PRODUCT_CONTEXT ( 'NONE', #34, 'mechanical' ) ;
#156 = LINE ( 'NONE', #89, #164 ) ;
#157 = CARTESIAN_POINT ( 'NONE',  ( -0.09374999999999998612, 2.000000000000000000, 0.000000000000000000 ) ) ;
#158 = FACE_OUTER_BOUND ( 'NONE', #66, .T. ) ;
#159 = CIRCLE ( 'NONE', #325, 0.07810000000000000275 ) ;
#160 = ORIENTED_EDGE ( 'NONE', *, *, #126, .F. ) ;
#161 = ORIENTED_EDGE ( 'NONE', *, *, #229, .T. ) ;
#162 = EDGE_CURVE ( 'NONE', #17, #295, #324, .T. ) ;
#163 = ORIENTED_EDGE ( 'NONE', *, *, #102, .T. ) ;
#164 = VECTOR ( 'NONE', #202, 39.37007874015748143 ) ;
#165 = AXIS2_PLACEMENT_3D ( 'NONE', #350, #67, #245 ) ;
#166 = ORIENTED_EDGE ( 'NONE', *, *, #272, .F. ) ;
#167 = SURFACE_STYLE_FILL_AREA ( #222 ) ;
#168 = ADVANCED_BREP_SHAPE_REPRESENTATION ( '83188', ( #131, #129, #343 ), #101 ) ;
#169 = DIRECTION ( 'NONE',  ( 3.378335997647870959E-17, 1.000000000000000000, -0.000000000000000000 ) ) ;
#170 = STYLED_ITEM ( 'NONE', ( #69 ), #131 ) ;
#171 = PRESENTATION_LAYER_ASSIGNMENT (  '', '', ( #41 ) ) ;
#172 = SURFACE_SIDE_STYLE ('',( #181 ) ) ;
#173 = SURFACE_SIDE_STYLE ('',( #352 ) ) ;
#174 = DIRECTION ( 'NONE',  ( -1.000000000000000000, 0.000000000000000000, 0.000000000000000000 ) ) ;
#175 = CARTESIAN_POINT ( 'NONE',  ( 0.09375000000000009714, 0.2304980216144648930, 1.148106374200644787E-17 ) ) ;
#176 = DIRECTION ( 'NONE',  ( -0.3420201433256709334, 0.9396926207859076507, 0.000000000000000000 ) ) ;
#177 = UNCERTAINTY_MEASURE_WITH_UNIT (LENGTH_MEASURE( 1.000000000000000082E-05 ), #239, 'distance_accuracy_value', 'NONE');
#178 = DIMENSIONAL_EXPONENTS ( 1.000000000000000000, 0.000000000000000000, 0.000000000000000000, 0.000000000000000000, 0.000000000000000000, 0.000000000000000000, 0.000000000000000000 ) ;
#179 = DIRECTION ( 'NONE',  ( 0.000000000000000000, 1.000000000000000000, 0.000000000000000000 ) ) ;
#180 = MECHANICAL_DESIGN_GEOMETRIC_PRESENTATION_REPRESENTATION (  '', ( #338 ), #310 ) ;
#181 = SURFACE_STYLE_FILL_AREA ( #250 ) ;
#182 =( NAMED_UNIT ( * ) PLANE_ANGLE_UNIT ( ) SI_UNIT ( $, .RADIAN. ) );
#183 = ADVANCED_FACE ( 'NONE', ( #225 ), #44, .T. ) ;
#184 = DIRECTION ( 'NONE',  ( -1.000000000000000000, 0.000000000000000000, 0.000000000000000000 ) ) ;
#185 = UNCERTAINTY_MEASURE_WITH_UNIT (LENGTH_MEASURE( 1.000000000000000082E-05 ), #138, 'distance_accuracy_value', 'NONE');
#186 = AXIS2_PLACEMENT_3D ( 'NONE', #97, #64, #353 ) ;
#187 = CLOSED_SHELL ( 'NONE', ( #256, #271, #228, #354 ) ) ;
#188 = CARTESIAN_POINT ( 'NONE',  ( 0.000000000000000000, 0.000000000000000000, 0.000000000000000000 ) ) ;
#189 = STYLED_ITEM ( 'NONE', ( #147 ), #354 ) ;
#190 = CYLINDRICAL_SURFACE ( 'NONE', #65, 0.09375000000000005551 ) ;
#191 =( CONVERSION_BASED_UNIT ( 'INCH', #108 ) LENGTH_UNIT ( ) NAMED_UNIT ( #306 ) );
#192 = DIRECTION ( 'NONE',  ( -1.000000000000000000, 0.000000000000000000, 0.000000000000000000 ) ) ;
#193 = UNCERTAINTY_MEASURE_WITH_UNIT (LENGTH_MEASURE( 1.000000000000000082E-05 ), #49, 'distance_accuracy_value', 'NONE');
#194 = ORIENTED_EDGE ( 'NONE', *, *, #56, .F. ) ;
#195 = VERTEX_POINT ( 'NONE', #260 ) ;
#196 = ORIENTED_EDGE ( 'NONE', *, *, #112, .T. ) ;
#197 = AXIS2_PLACEMENT_3D ( 'NONE', #231, #80, #207 ) ;
#198 = EDGE_LOOP ( 'NONE', ( #323, #219 ) ) ;
#199 = PRESENTATION_STYLE_ASSIGNMENT (( #307 ) ) ;
#200 = PLANE ( 'NONE',  #186 ) ;
#201 = DIMENSIONAL_EXPONENTS ( 1.000000000000000000, 0.000000000000000000, 0.000000000000000000, 0.000000000000000000, 0.000000000000000000, 0.000000000000000000, 0.000000000000000000 ) ;
#202 = DIRECTION ( 'NONE',  ( -0.000000000000000000, -1.000000000000000000, -0.000000000000000000 ) ) ;
#203 = COLOUR_RGB ( '',1.000000000000000000, 0.000000000000000000, 0.000000000000000000 ) ;
#204 = LINE ( 'NONE', #74, #252 ) ;
#205 = ADVANCED_FACE ( 'NONE', ( #359 ), #342, .T. ) ;
#206 = DIRECTION ( 'NONE',  ( -0.000000000000000000, -1.000000000000000000, -0.000000000000000000 ) ) ;
#207 = DIRECTION ( 'NONE',  ( -1.000000000000000000, 0.000000000000000000, 0.000000000000000000 ) ) ;
#208 = EDGE_CURVE ( 'NONE', #289, #195, #28, .T. ) ;
#209 = DIRECTION ( 'NONE',  ( 3.378335997647870959E-17, 1.000000000000000000, -0.000000000000000000 ) ) ;
#210 = DIRECTION ( 'NONE',  ( 0.000000000000000000, -1.000000000000000000, -0.000000000000000000 ) ) ;
#211 = DIRECTION ( 'NONE',  ( 3.378335997647870959E-17, 1.000000000000000000, -0.000000000000000000 ) ) ;
#212 =( CONVERSION_BASED_UNIT ( 'INCH', #314 ) LENGTH_UNIT ( ) NAMED_UNIT ( #201 ) );
#213 =( CONVERSION_BASED_UNIT ( 'INCH', #87 ) LENGTH_UNIT ( ) NAMED_UNIT ( #302 ) );
#214 = UNCERTAINTY_MEASURE_WITH_UNIT (LENGTH_MEASURE( 1.000000000000000082E-05 ), #213, 'distance_accuracy_value', 'NONE');
#215 = AXIS2_PLACEMENT_3D ( 'NONE', #312, #211, #184 ) ;
#216 = APPLICATION_CONTEXT ( 'automotive_design' ) ;
#217 = EDGE_CURVE ( 'NONE', #95, #242, #290, .T. ) ;
#218 = ORIENTED_EDGE ( 'NONE', *, *, #217, .F. ) ;
#219 = ORIENTED_EDGE ( 'NONE', *, *, #272, .T. ) ;
#220 = ORIENTED_EDGE ( 'NONE', *, *, #162, .T. ) ;
#221 = ORIENTED_EDGE ( 'NONE', *, *, #249, .F. ) ;
#222 = FILL_AREA_STYLE ('',( #23 ) ) ;
#223 = COLOUR_RGB ( '',1.000000000000000000, 0.000000000000000000, 0.000000000000000000 ) ;
#224 = ORIENTED_EDGE ( 'NONE', *, *, #240, .T. ) ;
#225 = FACE_OUTER_BOUND ( 'NONE', #297, .T. ) ;
#226 =( NAMED_UNIT ( * ) SI_UNIT ( $, .STERADIAN. ) SOLID_ANGLE_UNIT ( ) );
#227 = DIMENSIONAL_EXPONENTS ( 1.000000000000000000, 0.000000000000000000, 0.000000000000000000, 0.000000000000000000, 0.000000000000000000, 0.000000000000000000, 0.000000000000000000 ) ;
#228 = ADVANCED_FACE ( 'NONE', ( #337 ), #288, .T. ) ;
#229 = EDGE_CURVE ( 'NONE', #12, #267, #159, .T. ) ;
#230 = AXIS2_PLACEMENT_3D ( 'NONE', #188, #210, #55 ) ;
#231 = CARTESIAN_POINT ( 'NONE',  ( 6.123233995736766036E-17, 2.000000000000000000, 0.000000000000000000 ) ) ;
#232 =( NAMED_UNIT ( * ) SI_UNIT ( $, .STERADIAN. ) SOLID_ANGLE_UNIT ( ) );
#233 = DIRECTION ( 'NONE',  ( -1.000000000000000000, 0.000000000000000000, 0.000000000000000000 ) ) ;
#234 = DIRECTION ( 'NONE',  ( -1.000000000000000000, 0.000000000000000000, 0.000000000000000000 ) ) ;
#235 = SURFACE_STYLE_FILL_AREA ( #268 ) ;
#236 =( NAMED_UNIT ( * ) PLANE_ANGLE_UNIT ( ) SI_UNIT ( $, .RADIAN. ) );
#237 = PRODUCT_RELATED_PRODUCT_CATEGORY ( 'part', '', ( #266 ) ) ;
#238 =( GEOMETRIC_REPRESENTATION_CONTEXT ( 3 ) GLOBAL_UNCERTAINTY_ASSIGNED_CONTEXT ( ( #84 ) ) GLOBAL_UNIT_ASSIGNED_CONTEXT ( ( #191, #236, #232 ) ) REPRESENTATION_CONTEXT ( 'NONE', 'WORKASPACE' ) );
#239 =( CONVERSION_BASED_UNIT ( 'INCH', #332 ) LENGTH_UNIT ( ) NAMED_UNIT ( #178 ) );
#240 = EDGE_CURVE ( 'NONE', #12, #295, #347, .T. ) ;
#241 = DIRECTION ( 'NONE',  ( -0.000000000000000000, -1.000000000000000000, -0.000000000000000000 ) ) ;
#242 = VERTEX_POINT ( 'NONE', #53 ) ;
#243 = ORIENTED_EDGE ( 'NONE', *, *, #33, .F. ) ;
#244 = ORIENTED_EDGE ( 'NONE', *, *, #126, .T. ) ;
#245 = DIRECTION ( 'NONE',  ( 0.000000000000000000, 0.000000000000000000, -1.000000000000000000 ) ) ;
#246 = EDGE_LOOP ( 'NONE', ( #160, #59, #269, #166 ) ) ;
#247 = COLOUR_RGB ( '',0.7921568627450980005, 0.8196078431372548767, 0.9333333333333333481 ) ;
#248 = AXIS2_PLACEMENT_3D ( 'NONE', #291, #82, #174 ) ;
#249 = EDGE_CURVE ( 'NONE', #242, #95, #335, .T. ) ;
#250 = FILL_AREA_STYLE ('',( #71 ) ) ;
#251 = SURFACE_STYLE_USAGE ( .BOTH. , #25 ) ;
#252 = VECTOR ( 'NONE', #176, 39.37007874015748854 ) ;
#253 = DIRECTION ( 'NONE',  ( -1.000000000000000000, 0.000000000000000000, 0.000000000000000000 ) ) ;
#254 = PRESENTATION_LAYER_ASSIGNMENT (  '', '', ( #125 ) ) ;
#255 = CONICAL_SURFACE ( 'NONE', #248, 0.07810000000000000275, 0.3490658503988683381 ) ;
#256 = ADVANCED_FACE ( 'NONE', ( #158 ), #24, .T. ) ;
#257 = DIRECTION ( 'NONE',  ( 3.378335997647870959E-17, 1.000000000000000000, -0.000000000000000000 ) ) ;
#258 = EDGE_LOOP ( 'NONE', ( #296, #161, #341, #317 ) ) ;
#259 =( NAMED_UNIT ( * ) SI_UNIT ( $, .STERADIAN. ) SOLID_ANGLE_UNIT ( ) );
#260 = CARTESIAN_POINT ( 'NONE',  ( -0.09374999999999994449, 2.000000000000000000, 0.000000000000000000 ) ) ;
#261 = SURFACE_SIDE_STYLE ('',( #235 ) ) ;
#262 = ORIENTED_EDGE ( 'NONE', *, *, #114, .F. ) ;
#263 = EDGE_LOOP ( 'NONE', ( #218, #221 ) ) ;
#264 = AXIS2_PLACEMENT_3D ( 'NONE', #140, #72, #42 ) ;
#265 = COLOUR_RGB ( '',1.000000000000000000, 0.000000000000000000, 0.000000000000000000 ) ;
#266 = PRODUCT ( '83188', '83188', '', ( #155 ) ) ;
#267 = VERTEX_POINT ( 'NONE', #280 ) ;
#268 = FILL_AREA_STYLE ('',( #346 ) ) ;
#269 = ORIENTED_EDGE ( 'NONE', *, *, #208, .T. ) ;
#270 = PRESENTATION_STYLE_ASSIGNMENT (( #340 ) ) ;
#271 = ADVANCED_FACE ( 'NONE', ( #311 ), #99, .T. ) ;
#272 = EDGE_CURVE ( 'NONE', #348, #195, #48, .T. ) ;
#273 = SURFACE_SIDE_STYLE ('',( #152 ) ) ;
#274 = DIRECTION ( 'NONE',  ( -0.000000000000000000, -1.000000000000000000, -0.000000000000000000 ) ) ;
#275 = SURFACE_STYLE_FILL_AREA ( #105 ) ;
#276 =( LENGTH_UNIT ( ) NAMED_UNIT ( * ) SI_UNIT ( $, .METRE. ) );
#277 =( NAMED_UNIT ( * ) SI_UNIT ( $, .STERADIAN. ) SOLID_ANGLE_UNIT ( ) );
#278 = FILL_AREA_STYLE_COLOUR ( '', #247 ) ;
#279 = MECHANICAL_DESIGN_GEOMETRIC_PRESENTATION_REPRESENTATION (  '', ( #170 ), #13 ) ;
#280 = CARTESIAN_POINT ( 'NONE',  ( 0.000000000000000000, 0.1874999999999999722, -0.07810000000000000275 ) ) ;
#281 = PRESENTATION_LAYER_ASSIGNMENT (  '', '', ( #338 ) ) ;
#282 = CARTESIAN_POINT ( 'NONE',  ( -0.09375000000000009714, 0.2304980216144648930, 0.000000000000000000 ) ) ;
#283 = FILL_AREA_STYLE_COLOUR ( '', #265 ) ;
#284 = FACE_OUTER_BOUND ( 'NONE', #43, .T. ) ;
#285 = PLANE ( 'NONE',  #230 ) ;
#286 = CIRCLE ( 'NONE', #107, 0.07810000000000000275 ) ;
#287 =( NAMED_UNIT ( * ) PLANE_ANGLE_UNIT ( ) SI_UNIT ( $, .RADIAN. ) );
#288 = CYLINDRICAL_SURFACE ( 'NONE', #119, 0.07810000000000000275 ) ;
#289 = VERTEX_POINT ( 'NONE', #282 ) ;
#290 = CIRCLE ( 'NONE', #57, 0.07810000000000000275 ) ;
#291 = CARTESIAN_POINT ( 'NONE',  ( 0.000000000000000000, 0.1875000000000001110, 0.000000000000000000 ) ) ;
#292 = CARTESIAN_POINT ( 'NONE',  ( 0.000000000000000000, 0.000000000000000000, -0.07810000000000000275 ) ) ;
#293 = PRODUCT_DEFINITION_SHAPE ( 'NONE', 'NONE',  #35 ) ;
#294 = CARTESIAN_POINT ( 'NONE',  ( 0.000000000000000000, 0.000000000000000000, 0.000000000000000000 ) ) ;
#295 = VERTEX_POINT ( 'NONE', #308 ) ;
#296 = ORIENTED_EDGE ( 'NONE', *, *, #240, .F. ) ;
#297 = EDGE_LOOP ( 'NONE', ( #63, #244, #322, #320 ) ) ;
#298 = DIRECTION ( 'NONE',  ( 0.3420201433256709889, 0.9396926207859074287, 4.188538737677018882E-17 ) ) ;
#299 = ADVANCED_FACE ( 'NONE', ( #52 ), #255, .T. ) ;
#300 =( LENGTH_UNIT ( ) NAMED_UNIT ( * ) SI_UNIT ( $, .METRE. ) );
#301 = DIRECTION ( 'NONE',  ( 0.000000000000000000, 0.000000000000000000, -1.000000000000000000 ) ) ;
#302 = DIMENSIONAL_EXPONENTS ( 1.000000000000000000, 0.000000000000000000, 0.000000000000000000, 0.000000000000000000, 0.000000000000000000, 0.000000000000000000, 0.000000000000000000 ) ;
#303 = LENGTH_MEASURE_WITH_UNIT ( LENGTH_MEASURE( 0.02539999999999999897 ), #300 );
#304 = LINE ( 'NONE', #20, #309 ) ;
#305 = MECHANICAL_DESIGN_GEOMETRIC_PRESENTATION_REPRESENTATION (  '', ( #61 ), #136 ) ;
#306 = DIMENSIONAL_EXPONENTS ( 1.000000000000000000, 0.000000000000000000, 0.000000000000000000, 0.000000000000000000, 0.000000000000000000, 0.000000000000000000, 0.000000000000000000 ) ;
#307 = SURFACE_STYLE_USAGE ( .BOTH. , #172 ) ;
#308 = CARTESIAN_POINT ( 'NONE',  ( 9.564491501340828324E-18, 0.000000000000000000, 0.07810000000000000275 ) ) ;
#309 = VECTOR ( 'NONE', #298, 39.37007874015748854 ) ;
#310 =( GEOMETRIC_REPRESENTATION_CONTEXT ( 3 ) GLOBAL_UNCERTAINTY_ASSIGNED_CONTEXT ( ( #177 ) ) GLOBAL_UNIT_ASSIGNED_CONTEXT ( ( #239, #182, #73 ) ) REPRESENTATION_CONTEXT ( 'NONE', 'WORKASPACE' ) );
#311 = FACE_OUTER_BOUND ( 'NONE', #9, .T. ) ;
#312 = CARTESIAN_POINT ( 'NONE',  ( 0.000000000000000000, 0.1875000000000001110, 0.000000000000000000 ) ) ;
#313 = UNCERTAINTY_MEASURE_WITH_UNIT (LENGTH_MEASURE( 1.000000000000000082E-05 ), #212, 'distance_accuracy_value', 'NONE');
#314 = LENGTH_MEASURE_WITH_UNIT ( LENGTH_MEASURE( 0.02539999999999999897 ), #331 );
#315 = MECHANICAL_DESIGN_GEOMETRIC_PRESENTATION_REPRESENTATION (  '', ( #125 ), #30 ) ;
#316 = CIRCLE ( 'NONE', #146, 0.09375000000000009714 ) ;
#317 = ORIENTED_EDGE ( 'NONE', *, *, #102, .F. ) ;
#318 = CLOSED_SHELL ( 'NONE', ( #183, #299, #133, #205, #47, #22 ) ) ;
#319 = VECTOR ( 'NONE', #10, 39.37007874015748143 ) ;
#320 = ORIENTED_EDGE ( 'NONE', *, *, #208, .F. ) ;
#321 = EDGE_CURVE ( 'NONE', #95, #289, #204, .T. ) ;
#322 = ORIENTED_EDGE ( 'NONE', *, *, #86, .F. ) ;
#323 = ORIENTED_EDGE ( 'NONE', *, *, #86, .T. ) ;
#324 = CIRCLE ( 'NONE', #165, 0.07810000000000000275 ) ;
#325 = AXIS2_PLACEMENT_3D ( 'NONE', #60, #274, #111 ) ;
#326 = DIMENSIONAL_EXPONENTS ( 1.000000000000000000, 0.000000000000000000, 0.000000000000000000, 0.000000000000000000, 0.000000000000000000, 0.000000000000000000, 0.000000000000000000 ) ;
#327 = SURFACE_STYLE_USAGE ( .BOTH. , #173 ) ;
#328 =( NAMED_UNIT ( * ) PLANE_ANGLE_UNIT ( ) SI_UNIT ( $, .RADIAN. ) );
#329 = AXIS2_PLACEMENT_3D ( 'NONE', #106, #179, #357 ) ;
#330 =( NAMED_UNIT ( * ) SI_UNIT ( $, .STERADIAN. ) SOLID_ANGLE_UNIT ( ) );
#331 =( LENGTH_UNIT ( ) NAMED_UNIT ( * ) SI_UNIT ( $, .METRE. ) );
#332 = LENGTH_MEASURE_WITH_UNIT ( LENGTH_MEASURE( 0.02539999999999999897 ), #333 );
#333 =( LENGTH_UNIT ( ) NAMED_UNIT ( * ) SI_UNIT ( $, .METRE. ) );
#334 = CIRCLE ( 'NONE', #100, 0.07810000000000000275 ) ;
#335 = CIRCLE ( 'NONE', #351, 0.07810000000000000275 ) ;
#336 = PRESENTATION_STYLE_ASSIGNMENT (( #104 ) ) ;
#337 = FACE_OUTER_BOUND ( 'NONE', #258, .T. ) ;
#338 = STYLED_ITEM ( 'NONE', ( #336 ), #256 ) ;
#339 = ORIENTED_EDGE ( 'NONE', *, *, #229, .F. ) ;
#340 = SURFACE_STYLE_USAGE ( .BOTH. , #261 ) ;
#341 = ORIENTED_EDGE ( 'NONE', *, *, #56, .T. ) ;
#342 = CONICAL_SURFACE ( 'NONE', #215, 0.07810000000000000275, 0.3490658503988683381 ) ;
#343 = AXIS2_PLACEMENT_3D ( 'NONE', #5, #88, #151 ) ;
#344 = PLANE ( 'NONE',  #27 ) ;
#345 = FACE_OUTER_BOUND ( 'NONE', #263, .T. ) ;
#346 = FILL_AREA_STYLE_COLOUR ( '', #14 ) ;
#347 = LINE ( 'NONE', #31, #319 ) ;
#348 = VERTEX_POINT ( 'NONE', #139 ) ;
#349 = ORIENTED_EDGE ( 'NONE', *, *, #321, .F. ) ;
#350 = CARTESIAN_POINT ( 'NONE',  ( 0.000000000000000000, 0.000000000000000000, 0.000000000000000000 ) ) ;
#351 = AXIS2_PLACEMENT_3D ( 'NONE', #123, #109, #192 ) ;
#352 = SURFACE_STYLE_FILL_AREA ( #77 ) ;
#353 = DIRECTION ( 'NONE',  ( -1.000000000000000000, 3.378335997647870959E-17, 0.000000000000000000 ) ) ;
#354 = ADVANCED_FACE ( 'NONE', ( #284 ), #285, .T. ) ;
#355 = PRESENTATION_STYLE_ASSIGNMENT (( #251 ) ) ;
#356 = VECTOR ( 'NONE', #257, 39.37007874015748143 ) ;
#357 = DIRECTION ( 'NONE',  ( 0.000000000000000000, -0.000000000000000000, 1.000000000000000000 ) ) ;
#358 = EDGE_CURVE ( 'NONE', #289, #124, #316, .T. ) ;
#359 = FACE_OUTER_BOUND ( 'NONE', #122, .T. ) ;
ENDSEC;
END-ISO-10303-21;
