ISO-10303-21;
HEADER;
FILE_DESCRIPTION (( 'STEP AP214' ),
    '1' );
FILE_NAME ('Micro_EMH-281-06.STEP',
    '2022-03-15T14:36:25',
    ( '' ),
    ( '' ),
    'SwSTEP 2.0',
    'SolidWorks 2022',
    '' );
FILE_SCHEMA (( 'AUTOMOTIVE_DESIGN' ));
ENDSEC;

DATA;
#1 = EDGE_CURVE ( 'NONE', #298, #223, #270, .T. ) ;
#2 = CARTESIAN_POINT ( 'NONE',  ( 0.1405093500000000883, 0.000000000000000000, 0.7500000000000001110 ) ) ;
#3 = CYLINDRICAL_SURFACE ( 'NONE', #282, 0.1405093500000000051 ) ;
#4 = PRESENTATION_LAYER_ASSIGNMENT (  '', '', ( #267 ) ) ;
#5 = FACE_OUTER_BOUND ( 'NONE', #204, .T. ) ;
#6 = CONICAL_SURFACE ( 'NONE', #160, 0.1405093499999999773, 0.1745329251994337250 ) ;
#7 = EDGE_LOOP ( 'NONE', ( #82, #245, #65, #206 ) ) ;
#8 = CARTESIAN_POINT ( 'NONE',  ( 0.000000000000000000, 0.000000000000000000, 2.500000000000000000 ) ) ;
#9 = ORIENTED_EDGE ( 'NONE', *, *, #54, .F. ) ;
#10 = EDGE_CURVE ( 'NONE', #37, #198, #119, .T. ) ;
#11 = ORIENTED_EDGE ( 'NONE', *, *, #1, .T. ) ;
#12 = VECTOR ( 'NONE', #99, 39.37007874015748143 ) ;
#13 = CARTESIAN_POINT ( 'NONE',  ( 0.1412499999999994871, 1.821662113731684786E-17, 2.500000000000000000 ) ) ;
#14 = VERTEX_POINT ( 'NONE', #229 ) ;
#15 = FACE_OUTER_BOUND ( 'NONE', #246, .T. ) ;
#16 = CARTESIAN_POINT ( 'NONE',  ( -0.1562500000000000000, 0.000000000000000000, 2.484999999999999432 ) ) ;
#17 = MANIFOLD_SOLID_BREP ( 'Cut-Revolve1', #237 ) ;
#18 = DIRECTION ( 'NONE',  ( 1.000000000000000000, 0.000000000000000000, 0.000000000000000000 ) ) ;
#19 = ADVANCED_FACE ( 'NONE', ( #15 ), #111, .T. ) ;
#20 = SURFACE_SIDE_STYLE ('',( #96 ) ) ;
#21 = ORIENTED_EDGE ( 'NONE', *, *, #134, .F. ) ;
#22 = CIRCLE ( 'NONE', #25, 0.1562500000000000000 ) ;
#23 = CARTESIAN_POINT ( 'NONE',  ( -0.1412499999999994871, 0.000000000000000000, 2.500000000000000000 ) ) ;
#24 = DIRECTION ( 'NONE',  ( -1.224646799147353207E-16, -0.000000000000000000, -1.000000000000000000 ) ) ;
#25 = AXIS2_PLACEMENT_3D ( 'NONE', #222, #199, #91 ) ;
#26 = CARTESIAN_POINT ( 'NONE',  ( 0.000000000000000000, 0.000000000000000000, 0.000000000000000000 ) ) ;
#27 = EDGE_CURVE ( 'NONE', #298, #198, #180, .T. ) ;
#28 = DIRECTION ( 'NONE',  ( -1.000000000000000000, 0.000000000000000000, 1.224646799147353207E-16 ) ) ;
#29 = FACE_OUTER_BOUND ( 'NONE', #7, .T. ) ;
#30 = CIRCLE ( 'NONE', #201, 0.1405093500000000051 ) ;
#31 = CONICAL_SURFACE ( 'NONE', #105, 0.1412499999999994871, 0.7853981633974391752 ) ;
#32 = FACE_OUTER_BOUND ( 'NONE', #108, .T. ) ;
#33 = EDGE_CURVE ( 'NONE', #291, #14, #159, .T. ) ;
#34 = LINE ( 'NONE', #83, #232 ) ;
#35 = VERTEX_POINT ( 'NONE', #16 ) ;
#36 = FILL_AREA_STYLE_COLOUR ( '', #138 ) ;
#37 = VERTEX_POINT ( 'NONE', #257 ) ;
#38 = AXIS2_PLACEMENT_3D ( 'NONE', #122, #124, #236 ) ;
#39 = ORIENTED_EDGE ( 'NONE', *, *, #228, .F. ) ;
#40 = VERTEX_POINT ( 'NONE', #239 ) ;
#41 = EDGE_CURVE ( 'NONE', #35, #223, #191, .T. ) ;
#42 = CIRCLE ( 'NONE', #110, 0.1562500000000000000 ) ;
#43 = ORIENTED_EDGE ( 'NONE', *, *, #60, .T. ) ;
#44 =( CONVERSION_BASED_UNIT ( 'INCH', #205 ) LENGTH_UNIT ( ) NAMED_UNIT ( #275 ) );
#45 = VECTOR ( 'NONE', #269, 39.37007874015748143 ) ;
#46 = CARTESIAN_POINT ( 'NONE',  ( 0.000000000000000000, 0.000000000000000000, 2.500000000000000000 ) ) ;
#47 = UNCERTAINTY_MEASURE_WITH_UNIT (LENGTH_MEASURE( 1.000000000000000082E-05 ), #151, 'distance_accuracy_value', 'NONE');
#48 = LINE ( 'NONE', #50, #226 ) ;
#49 = DIRECTION ( 'NONE',  ( 1.000000000000000000, 0.000000000000000000, 0.000000000000000000 ) ) ;
#50 = CARTESIAN_POINT ( 'NONE',  ( 0.1412499999999994871, 1.729813603795630110E-17, 2.500000000000000000 ) ) ;
#51 = EDGE_CURVE ( 'NONE', #198, #37, #30, .T. ) ;
#52 = AXIS2_PLACEMENT_3D ( 'NONE', #247, #248, #133 ) ;
#53 = CARTESIAN_POINT ( 'NONE',  ( 0.000000000000000000, 0.000000000000000000, 0.000000000000000000 ) ) ;
#54 = EDGE_CURVE ( 'NONE', #64, #14, #75, .T. ) ;
#55 = FACE_OUTER_BOUND ( 'NONE', #219, .T. ) ;
#56 = VECTOR ( 'NONE', #252, 39.37007874015748854 ) ;
#57 = CIRCLE ( 'NONE', #242, 0.1405093499999999773 ) ;
#58 = DIRECTION ( 'NONE',  ( 0.000000000000000000, 0.000000000000000000, 1.000000000000000000 ) ) ;
#59 = APPLICATION_PROTOCOL_DEFINITION ( 'draft international standard', 'automotive_design', 1998, #243 ) ;
#60 = EDGE_CURVE ( 'NONE', #263, #291, #48, .T. ) ;
#61 = ORIENTED_EDGE ( 'NONE', *, *, #84, .T. ) ;
#62 = CIRCLE ( 'NONE', #178, 0.1562500000000000000 ) ;
#63 = PRODUCT_DEFINITION ( 'UNKNOWN', '', #292, #187 ) ;
#64 = VERTEX_POINT ( 'NONE', #2 ) ;
#65 = ORIENTED_EDGE ( 'NONE', *, *, #54, .T. ) ;
#66 = CARTESIAN_POINT ( 'NONE',  ( 2.107302722179589238E-33, 0.000000000000000000, 1.720743257277751542E-17 ) ) ;
#67 = AXIS2_PLACEMENT_3D ( 'NONE', #8, #77, #152 ) ;
#68 = ORIENTED_EDGE ( 'NONE', *, *, #153, .T. ) ;
#69 =( NAMED_UNIT ( * ) PLANE_ANGLE_UNIT ( ) SI_UNIT ( $, .RADIAN. ) );
#70 = ORIENTED_EDGE ( 'NONE', *, *, #27, .T. ) ;
#71 = CARTESIAN_POINT ( 'NONE',  ( 9.184850993605150903E-17, 0.000000000000000000, 0.7500000000000001110 ) ) ;
#72 = DIRECTION ( 'NONE',  ( 1.000000000000000000, 0.000000000000000000, 0.000000000000000000 ) ) ;
#73 = ADVANCED_FACE ( 'NONE', ( #147 ), #3, .T. ) ;
#74 = CYLINDRICAL_SURFACE ( 'NONE', #260, 0.1405093500000000051 ) ;
#75 = LINE ( 'NONE', #123, #12 ) ;
#76 = LINE ( 'NONE', #23, #288 ) ;
#77 = DIRECTION ( 'NONE',  ( 0.000000000000000000, 0.000000000000000000, -1.000000000000000000 ) ) ;
#78 = ORIENTED_EDGE ( 'NONE', *, *, #186, .T. ) ;
#79 = DIRECTION ( 'NONE',  ( -1.224646799147353207E-16, -0.000000000000000000, -1.000000000000000000 ) ) ;
#80 =( GEOMETRIC_REPRESENTATION_CONTEXT ( 3 ) GLOBAL_UNCERTAINTY_ASSIGNED_CONTEXT ( ( #47 ) ) GLOBAL_UNIT_ASSIGNED_CONTEXT ( ( #151, #266, #128 ) ) REPRESENTATION_CONTEXT ( 'NONE', 'WORKASPACE' ) );
#81 = ADVANCED_FACE ( 'NONE', ( #55 ), #6, .T. ) ;
#82 = ORIENTED_EDGE ( 'NONE', *, *, #1, .F. ) ;
#83 = CARTESIAN_POINT ( 'NONE',  ( 0.1405093500000000051, 1.720743257277751542E-17, -1.720743257277751542E-17 ) ) ;
#84 = EDGE_CURVE ( 'NONE', #64, #298, #157, .T. ) ;
#85 = PRESENTATION_STYLE_ASSIGNMENT (( #290 ) ) ;
#86 = ORIENTED_EDGE ( 'NONE', *, *, #203, .F. ) ;
#87 =( GEOMETRIC_REPRESENTATION_CONTEXT ( 3 ) GLOBAL_UNCERTAINTY_ASSIGNED_CONTEXT ( ( #98 ) ) GLOBAL_UNIT_ASSIGNED_CONTEXT ( ( #162, #69, #234 ) ) REPRESENTATION_CONTEXT ( 'NONE', 'WORKASPACE' ) );
#88 = ADVANCED_FACE ( 'NONE', ( #29 ), #132, .T. ) ;
#89 = DIRECTION ( 'NONE',  ( -1.000000000000000000, 0.000000000000000000, 0.000000000000000000 ) ) ;
#90 =( NAMED_UNIT ( * ) SI_UNIT ( $, .STERADIAN. ) SOLID_ANGLE_UNIT ( ) );
#91 = DIRECTION ( 'NONE',  ( 1.000000000000000000, 0.000000000000000000, 0.000000000000000000 ) ) ;
#92 = EDGE_LOOP ( 'NONE', ( #176, #78, #285, #172 ) ) ;
#93 = STYLED_ITEM ( 'NONE', ( #85 ), #278 ) ;
#94 = LENGTH_MEASURE_WITH_UNIT ( LENGTH_MEASURE( 0.02539999999999999897 ), #175 );
#95 = FILL_AREA_STYLE_COLOUR ( '', #241 ) ;
#96 = SURFACE_STYLE_FILL_AREA ( #208 ) ;
#97 = EDGE_CURVE ( 'NONE', #298, #64, #57, .T. ) ;
#98 = UNCERTAINTY_MEASURE_WITH_UNIT (LENGTH_MEASURE( 1.000000000000000082E-05 ), #162, 'distance_accuracy_value', 'NONE');
#99 = DIRECTION ( 'NONE',  ( 0.1736481776669312194, 0.000000000000000000, 0.9848077530122077983 ) ) ;
#100 = AXIS2_PLACEMENT_3D ( 'NONE', #171, #113, #262 ) ;
#101 = CARTESIAN_POINT ( 'NONE',  ( -0.1562500000000000000, 0.000000000000000000, 2.500000000000000000 ) ) ;
#102 = DIRECTION ( 'NONE',  ( 1.000000000000000000, 0.000000000000000000, 0.000000000000000000 ) ) ;
#103 = DIRECTION ( 'NONE',  ( -1.224646799147353207E-16, -0.000000000000000000, -1.000000000000000000 ) ) ;
#104 = PRODUCT_RELATED_PRODUCT_CATEGORY ( 'part', '', ( #139 ) ) ;
#105 = AXIS2_PLACEMENT_3D ( 'NONE', #286, #125, #107 ) ;
#106 = FACE_OUTER_BOUND ( 'NONE', #185, .T. ) ;
#107 = DIRECTION ( 'NONE',  ( -1.000000000000000000, 0.000000000000000000, 0.000000000000000000 ) ) ;
#108 = EDGE_LOOP ( 'NONE', ( #183, #43, #86, #127 ) ) ;
#109 = CARTESIAN_POINT ( 'NONE',  ( -0.1562499999999999167, 0.000000000000000000, 0.8392696621739652585 ) ) ;
#110 = AXIS2_PLACEMENT_3D ( 'NONE', #283, #166, #72 ) ;
#111 = CYLINDRICAL_SURFACE ( 'NONE', #177, 0.1562500000000000000 ) ;
#112 = ORIENTED_EDGE ( 'NONE', *, *, #181, .F. ) ;
#113 = DIRECTION ( 'NONE',  ( 0.000000000000000000, 0.000000000000000000, 1.000000000000000000 ) ) ;
#114 = ORIENTED_EDGE ( 'NONE', *, *, #121, .F. ) ;
#115 = AXIS2_PLACEMENT_3D ( 'NONE', #66, #161, #274 ) ;
#116 = EDGE_LOOP ( 'NONE', ( #249, #217 ) ) ;
#117 = DIRECTION ( 'NONE',  ( -0.7071067811865410224, 0.000000000000000000, -0.7071067811865539010 ) ) ;
#118 = DIRECTION ( 'NONE',  ( -1.000000000000000000, 0.000000000000000000, 1.224646799147353207E-16 ) ) ;
#119 = CIRCLE ( 'NONE', #115, 0.1405093500000000051 ) ;
#120 = CIRCLE ( 'NONE', #231, 0.1562500000000000000 ) ;
#121 = EDGE_CURVE ( 'NONE', #291, #35, #62, .T. ) ;
#122 = CARTESIAN_POINT ( 'NONE',  ( 9.184850993605150903E-17, 0.000000000000000000, 0.7500000000000001110 ) ) ;
#123 = CARTESIAN_POINT ( 'NONE',  ( 0.1405093500000000883, 0.000000000000000000, 0.7500000000000001110 ) ) ;
#124 = DIRECTION ( 'NONE',  ( 1.224646799147353207E-16, 0.000000000000000000, 1.000000000000000000 ) ) ;
#125 = DIRECTION ( 'NONE',  ( 0.000000000000000000, 0.000000000000000000, -1.000000000000000000 ) ) ;
#126 = DIRECTION ( 'NONE',  ( 1.000000000000000000, 0.000000000000000000, 0.000000000000000000 ) ) ;
#127 = ORIENTED_EDGE ( 'NONE', *, *, #153, .F. ) ;
#128 =( NAMED_UNIT ( * ) SI_UNIT ( $, .STERADIAN. ) SOLID_ANGLE_UNIT ( ) );
#129 = ORIENTED_EDGE ( 'NONE', *, *, #203, .T. ) ;
#130 = SURFACE_SIDE_STYLE ('',( #244 ) ) ;
#131 = ADVANCED_FACE ( 'NONE', ( #5 ), #169, .T. ) ;
#132 = CONICAL_SURFACE ( 'NONE', #38, 0.1405093499999999773, 0.1745329251994337250 ) ;
#133 = DIRECTION ( 'NONE',  ( 1.000000000000000000, 0.000000000000000000, -0.000000000000000000 ) ) ;
#134 = EDGE_CURVE ( 'NONE', #223, #14, #42, .T. ) ;
#135 = ORIENTED_EDGE ( 'NONE', *, *, #10, .T. ) ;
#136 = ADVANCED_FACE ( 'NONE', ( #106 ), #255, .F. ) ;
#137 = CARTESIAN_POINT ( 'NONE',  ( 0.1562500000000000000, 1.913510623667739463E-17, 2.500000000000000000 ) ) ;
#138 = COLOUR_RGB ( '',0.7921568627450980005, 0.8196078431372548767, 0.9333333333333333481 ) ;
#139 = PRODUCT ( 'Micro_EMH-281-06', 'Micro_EMH-281-06', '', ( #271 ) ) ;
#140 = ORIENTED_EDGE ( 'NONE', *, *, #186, .F. ) ;
#141 = ORIENTED_EDGE ( 'NONE', *, *, #121, .T. ) ;
#142 = DIMENSIONAL_EXPONENTS ( 1.000000000000000000, 0.000000000000000000, 0.000000000000000000, 0.000000000000000000, 0.000000000000000000, 0.000000000000000000, 0.000000000000000000 ) ;
#143 = ORIENTED_EDGE ( 'NONE', *, *, #10, .F. ) ;
#144 = DIRECTION ( 'NONE',  ( -1.000000000000000000, 0.000000000000000000, 1.224646799147353207E-16 ) ) ;
#145 = DIMENSIONAL_EXPONENTS ( 1.000000000000000000, 0.000000000000000000, 0.000000000000000000, 0.000000000000000000, 0.000000000000000000, 0.000000000000000000, 0.000000000000000000 ) ;
#146 = CARTESIAN_POINT ( 'NONE',  ( 9.184850993605150903E-17, 0.000000000000000000, 0.7500000000000001110 ) ) ;
#147 = FACE_OUTER_BOUND ( 'NONE', #299, .T. ) ;
#148 = CONICAL_SURFACE ( 'NONE', #67, 0.1412499999999994871, 0.7853981633974391752 ) ;
#149 = DIRECTION ( 'NONE',  ( -1.224646799147353207E-16, -0.000000000000000000, -1.000000000000000000 ) ) ;
#150 = DIRECTION ( 'NONE',  ( 1.224646799147353207E-16, 0.000000000000000000, 1.000000000000000000 ) ) ;
#151 =( CONVERSION_BASED_UNIT ( 'INCH', #195 ) LENGTH_UNIT ( ) NAMED_UNIT ( #142 ) );
#152 = DIRECTION ( 'NONE',  ( -1.000000000000000000, 0.000000000000000000, 0.000000000000000000 ) ) ;
#153 = EDGE_CURVE ( 'NONE', #40, #35, #76, .T. ) ;
#154 =( LENGTH_UNIT ( ) NAMED_UNIT ( * ) SI_UNIT ( $, .METRE. ) );
#155 = ORIENTED_EDGE ( 'NONE', *, *, #60, .F. ) ;
#156 = CARTESIAN_POINT ( 'NONE',  ( 0.000000000000000000, 0.000000000000000000, 2.500000000000000000 ) ) ;
#157 = CIRCLE ( 'NONE', #189, 0.1405093499999999773 ) ;
#158 = ORIENTED_EDGE ( 'NONE', *, *, #51, .T. ) ;
#159 = LINE ( 'NONE', #137, #281 ) ;
#160 = AXIS2_PLACEMENT_3D ( 'NONE', #146, #150, #192 ) ;
#161 = DIRECTION ( 'NONE',  ( -1.224646799147353207E-16, -0.000000000000000000, -1.000000000000000000 ) ) ;
#162 =( CONVERSION_BASED_UNIT ( 'INCH', #94 ) LENGTH_UNIT ( ) NAMED_UNIT ( #145 ) );
#163 =( LENGTH_UNIT ( ) NAMED_UNIT ( * ) SI_UNIT ( $, .METRE. ) );
#164 = MECHANICAL_DESIGN_GEOMETRIC_PRESENTATION_REPRESENTATION (  '', ( #267 ), #259 ) ;
#165 = CARTESIAN_POINT ( 'NONE',  ( 0.000000000000000000, 0.000000000000000000, 0.000000000000000000 ) ) ;
#166 = DIRECTION ( 'NONE',  ( -1.224646799147353207E-16, -0.000000000000000000, -1.000000000000000000 ) ) ;
#167 = DIRECTION ( 'NONE',  ( 0.000000000000000000, 0.000000000000000000, 1.000000000000000000 ) ) ;
#168 = MECHANICAL_DESIGN_GEOMETRIC_PRESENTATION_REPRESENTATION (  '', ( #93 ), #87 ) ;
#169 = CYLINDRICAL_SURFACE ( 'NONE', #193, 0.1562500000000000000 ) ;
#170 = APPLICATION_CONTEXT ( 'automotive_design' ) ;
#171 = CARTESIAN_POINT ( 'NONE',  ( 0.000000000000000000, 0.000000000000000000, 2.500000000000000000 ) ) ;
#172 = ORIENTED_EDGE ( 'NONE', *, *, #27, .F. ) ;
#173 = ADVANCED_FACE ( 'NONE', ( #211 ), #74, .T. ) ;
#174 = CARTESIAN_POINT ( 'NONE',  ( 0.000000000000000000, 0.000000000000000000, 2.484999999999999432 ) ) ;
#175 =( LENGTH_UNIT ( ) NAMED_UNIT ( * ) SI_UNIT ( $, .METRE. ) );
#176 = ORIENTED_EDGE ( 'NONE', *, *, #97, .T. ) ;
#177 = AXIS2_PLACEMENT_3D ( 'NONE', #202, #293, #89 ) ;
#178 = AXIS2_PLACEMENT_3D ( 'NONE', #188, #190, #102 ) ;
#179 = ORIENTED_EDGE ( 'NONE', *, *, #41, .F. ) ;
#180 = LINE ( 'NONE', #273, #45 ) ;
#181 = EDGE_CURVE ( 'NONE', #14, #223, #22, .T. ) ;
#182 = ORIENTED_EDGE ( 'NONE', *, *, #33, .T. ) ;
#183 = ORIENTED_EDGE ( 'NONE', *, *, #265, .F. ) ;
#184 = CIRCLE ( 'NONE', #100, 0.1412499999999994871 ) ;
#185 = EDGE_LOOP ( 'NONE', ( #158, #135 ) ) ;
#186 = EDGE_CURVE ( 'NONE', #64, #37, #34, .T. ) ;
#187 = PRODUCT_DEFINITION_CONTEXT ( 'detailed design', #170, 'design' ) ;
#188 = CARTESIAN_POINT ( 'NONE',  ( 0.000000000000000000, 0.000000000000000000, 2.484999999999999432 ) ) ;
#189 = AXIS2_PLACEMENT_3D ( 'NONE', #240, #149, #280 ) ;
#190 = DIRECTION ( 'NONE',  ( 0.000000000000000000, 0.000000000000000000, -1.000000000000000000 ) ) ;
#191 = LINE ( 'NONE', #101, #216 ) ;
#192 = DIRECTION ( 'NONE',  ( 1.000000000000000000, 0.000000000000000000, 0.000000000000000000 ) ) ;
#193 = AXIS2_PLACEMENT_3D ( 'NONE', #46, #277, #276 ) ;
#194 = DIRECTION ( 'NONE',  ( 0.000000000000000000, 0.000000000000000000, 1.000000000000000000 ) ) ;
#195 = LENGTH_MEASURE_WITH_UNIT ( LENGTH_MEASURE( 0.02539999999999999897 ), #154 );
#196 = ORIENTED_EDGE ( 'NONE', *, *, #97, .F. ) ;
#197 = FACE_OUTER_BOUND ( 'NONE', #287, .T. ) ;
#198 = VERTEX_POINT ( 'NONE', #295 ) ;
#199 = DIRECTION ( 'NONE',  ( -1.224646799147353207E-16, -0.000000000000000000, -1.000000000000000000 ) ) ;
#200 = FILL_AREA_STYLE ('',( #36 ) ) ;
#201 = AXIS2_PLACEMENT_3D ( 'NONE', #279, #103, #28 ) ;
#202 = CARTESIAN_POINT ( 'NONE',  ( 0.000000000000000000, 0.000000000000000000, 2.500000000000000000 ) ) ;
#203 = EDGE_CURVE ( 'NONE', #35, #291, #120, .T. ) ;
#204 = EDGE_LOOP ( 'NONE', ( #129, #182, #21, #179 ) ) ;
#205 = LENGTH_MEASURE_WITH_UNIT ( LENGTH_MEASURE( 0.02539999999999999897 ), #163 );
#206 = ORIENTED_EDGE ( 'NONE', *, *, #181, .T. ) ;
#207 = CIRCLE ( 'NONE', #238, 0.1412499999999994871 ) ;
#208 = FILL_AREA_STYLE ('',( #95 ) ) ;
#209 = APPLICATION_PROTOCOL_DEFINITION ( 'draft international standard', 'automotive_design', 1998, #170 ) ;
#210 = UNCERTAINTY_MEASURE_WITH_UNIT (LENGTH_MEASURE( 1.000000000000000082E-05 ), #44, 'distance_accuracy_value', 'NONE');
#211 = FACE_OUTER_BOUND ( 'NONE', #92, .T. ) ;
#212 = PRODUCT_DEFINITION_SHAPE ( 'NONE', 'NONE',  #63 ) ;
#213 = DIRECTION ( 'NONE',  ( -0.000000000000000000, -0.000000000000000000, -1.000000000000000000 ) ) ;
#214 = DIRECTION ( 'NONE',  ( 1.000000000000000000, 0.000000000000000000, -0.000000000000000000 ) ) ;
#215 = DIRECTION ( 'NONE',  ( 0.7071067811865410224, 8.659560562354852739E-17, -0.7071067811865539010 ) ) ;
#216 = VECTOR ( 'NONE', #213, 39.37007874015748143 ) ;
#217 = ORIENTED_EDGE ( 'NONE', *, *, #265, .T. ) ;
#218 = PLANE ( 'NONE',  #52 ) ;
#219 = EDGE_LOOP ( 'NONE', ( #196, #11, #250, #9 ) ) ;
#220 = FACE_OUTER_BOUND ( 'NONE', #116, .T. ) ;
#221 = ADVANCED_FACE ( 'NONE', ( #32 ), #148, .T. ) ;
#222 = CARTESIAN_POINT ( 'NONE',  ( 1.027808905402827143E-16, 0.000000000000000000, 0.8392696621739652585 ) ) ;
#223 = VERTEX_POINT ( 'NONE', #109 ) ;
#224 = ADVANCED_FACE ( 'NONE', ( #197 ), #31, .T. ) ;
#225 = PRESENTATION_STYLE_ASSIGNMENT (( #251 ) ) ;
#226 = VECTOR ( 'NONE', #215, 39.37007874015748854 ) ;
#227 = DIRECTION ( 'NONE',  ( -0.000000000000000000, -0.000000000000000000, -1.000000000000000000 ) ) ;
#228 = EDGE_CURVE ( 'NONE', #40, #263, #184, .T. ) ;
#229 = CARTESIAN_POINT ( 'NONE',  ( 0.1562500000000001110, 1.913510623667740388E-17, 0.8392696621739652585 ) ) ;
#230 = ORIENTED_EDGE ( 'NONE', *, *, #33, .F. ) ;
#231 = AXIS2_PLACEMENT_3D ( 'NONE', #174, #284, #18 ) ;
#232 = VECTOR ( 'NONE', #79, 39.37007874015748143 ) ;
#233 = DIRECTION ( 'NONE',  ( -1.000000000000000000, 0.000000000000000000, 0.000000000000000000 ) ) ;
#234 =( NAMED_UNIT ( * ) SI_UNIT ( $, .STERADIAN. ) SOLID_ANGLE_UNIT ( ) );
#235 = DIRECTION ( 'NONE',  ( -1.224646799147353207E-16, -0.000000000000000000, -1.000000000000000000 ) ) ;
#236 = DIRECTION ( 'NONE',  ( 1.000000000000000000, 0.000000000000000000, 0.000000000000000000 ) ) ;
#237 = CLOSED_SHELL ( 'NONE', ( #173, #81, #221, #131, #19, #256, #224, #88, #73, #136 ) ) ;
#238 = AXIS2_PLACEMENT_3D ( 'NONE', #156, #58, #126 ) ;
#239 = CARTESIAN_POINT ( 'NONE',  ( -0.1412499999999994871, 0.000000000000000000, 2.500000000000000000 ) ) ;
#240 = CARTESIAN_POINT ( 'NONE',  ( 9.184850993605150903E-17, 0.000000000000000000, 0.7500000000000001110 ) ) ;
#241 = COLOUR_RGB ( '',0.7921568627450980005, 0.8196078431372548767, 0.9333333333333333481 ) ;
#242 = AXIS2_PLACEMENT_3D ( 'NONE', #71, #235, #233 ) ;
#243 = APPLICATION_CONTEXT ( 'automotive_design' ) ;
#244 = SURFACE_STYLE_FILL_AREA ( #200 ) ;
#245 = ORIENTED_EDGE ( 'NONE', *, *, #84, .F. ) ;
#246 = EDGE_LOOP ( 'NONE', ( #230, #141, #268, #112 ) ) ;
#247 = CARTESIAN_POINT ( 'NONE',  ( 0.000000000000000000, 0.000000000000000000, 2.500000000000000000 ) ) ;
#248 = DIRECTION ( 'NONE',  ( 0.000000000000000000, 0.000000000000000000, 1.000000000000000000 ) ) ;
#249 = ORIENTED_EDGE ( 'NONE', *, *, #228, .T. ) ;
#250 = ORIENTED_EDGE ( 'NONE', *, *, #134, .T. ) ;
#251 = SURFACE_STYLE_USAGE ( .BOTH. , #20 ) ;
#252 = DIRECTION ( 'NONE',  ( -0.1736481776669309973, 2.126576849575781159E-17, 0.9848077530122080203 ) ) ;
#253 = SHAPE_DEFINITION_REPRESENTATION ( #212, #278 ) ;
#254 = AXIS2_PLACEMENT_3D ( 'NONE', #165, #167, #49 ) ;
#255 = PLANE ( 'NONE',  #272 ) ;
#256 = ADVANCED_FACE ( 'NONE', ( #220 ), #218, .T. ) ;
#257 = CARTESIAN_POINT ( 'NONE',  ( 0.1405093500000000051, 1.720743257277751542E-17, 0.000000000000000000 ) ) ;
#258 = DIRECTION ( 'NONE',  ( -1.224646799147353207E-16, -0.000000000000000000, -1.000000000000000000 ) ) ;
#259 =( GEOMETRIC_REPRESENTATION_CONTEXT ( 3 ) GLOBAL_UNCERTAINTY_ASSIGNED_CONTEXT ( ( #210 ) ) GLOBAL_UNIT_ASSIGNED_CONTEXT ( ( #44, #296, #90 ) ) REPRESENTATION_CONTEXT ( 'NONE', 'WORKASPACE' ) );
#260 = AXIS2_PLACEMENT_3D ( 'NONE', #53, #24, #118 ) ;
#261 = CARTESIAN_POINT ( 'NONE',  ( 0.000000000000000000, 0.000000000000000000, 0.000000000000000000 ) ) ;
#262 = DIRECTION ( 'NONE',  ( 1.000000000000000000, 0.000000000000000000, 0.000000000000000000 ) ) ;
#263 = VERTEX_POINT ( 'NONE', #13 ) ;
#264 = CARTESIAN_POINT ( 'NONE',  ( -0.1405093499999998941, 1.817126940472745349E-17, 0.7500000000000001110 ) ) ;
#265 = EDGE_CURVE ( 'NONE', #263, #40, #207, .T. ) ;
#266 =( NAMED_UNIT ( * ) PLANE_ANGLE_UNIT ( ) SI_UNIT ( $, .RADIAN. ) );
#267 = STYLED_ITEM ( 'NONE', ( #225 ), #17 ) ;
#268 = ORIENTED_EDGE ( 'NONE', *, *, #41, .T. ) ;
#269 = DIRECTION ( 'NONE',  ( -1.224646799147353207E-16, -0.000000000000000000, -1.000000000000000000 ) ) ;
#270 = LINE ( 'NONE', #294, #56 ) ;
#271 = PRODUCT_CONTEXT ( 'NONE', #243, 'mechanical' ) ;
#272 = AXIS2_PLACEMENT_3D ( 'NONE', #26, #194, #214 ) ;
#273 = CARTESIAN_POINT ( 'NONE',  ( -0.1405093500000000051, 0.000000000000000000, 1.720743257277751542E-17 ) ) ;
#274 = DIRECTION ( 'NONE',  ( -1.000000000000000000, 0.000000000000000000, 1.224646799147353207E-16 ) ) ;
#275 = DIMENSIONAL_EXPONENTS ( 1.000000000000000000, 0.000000000000000000, 0.000000000000000000, 0.000000000000000000, 0.000000000000000000, 0.000000000000000000, 0.000000000000000000 ) ;
#276 = DIRECTION ( 'NONE',  ( -1.000000000000000000, 0.000000000000000000, 0.000000000000000000 ) ) ;
#277 = DIRECTION ( 'NONE',  ( -0.000000000000000000, -0.000000000000000000, -1.000000000000000000 ) ) ;
#278 = ADVANCED_BREP_SHAPE_REPRESENTATION ( 'Micro_EMH-281-06', ( #17, #254 ), #80 ) ;
#279 = CARTESIAN_POINT ( 'NONE',  ( 2.107302722179589238E-33, 0.000000000000000000, 1.720743257277751542E-17 ) ) ;
#280 = DIRECTION ( 'NONE',  ( -1.000000000000000000, 0.000000000000000000, 0.000000000000000000 ) ) ;
#281 = VECTOR ( 'NONE', #227, 39.37007874015748143 ) ;
#282 = AXIS2_PLACEMENT_3D ( 'NONE', #261, #258, #144 ) ;
#283 = CARTESIAN_POINT ( 'NONE',  ( 1.027808905402827143E-16, 0.000000000000000000, 0.8392696621739652585 ) ) ;
#284 = DIRECTION ( 'NONE',  ( 0.000000000000000000, 0.000000000000000000, -1.000000000000000000 ) ) ;
#285 = ORIENTED_EDGE ( 'NONE', *, *, #51, .F. ) ;
#286 = CARTESIAN_POINT ( 'NONE',  ( 0.000000000000000000, 0.000000000000000000, 2.500000000000000000 ) ) ;
#287 = EDGE_LOOP ( 'NONE', ( #155, #39, #68, #114 ) ) ;
#288 = VECTOR ( 'NONE', #117, 39.37007874015748854 ) ;
#289 = CARTESIAN_POINT ( 'NONE',  ( 0.1562500000000000000, 1.913510623667739463E-17, 2.484999999999999432 ) ) ;
#290 = SURFACE_STYLE_USAGE ( .BOTH. , #130 ) ;
#291 = VERTEX_POINT ( 'NONE', #289 ) ;
#292 = PRODUCT_DEFINITION_FORMATION_WITH_SPECIFIED_SOURCE ( 'ANY', '', #139, .NOT_KNOWN. ) ;
#293 = DIRECTION ( 'NONE',  ( -0.000000000000000000, -0.000000000000000000, -1.000000000000000000 ) ) ;
#294 = CARTESIAN_POINT ( 'NONE',  ( -0.1405093499999998941, 1.720743257277751542E-17, 0.7500000000000001110 ) ) ;
#295 = CARTESIAN_POINT ( 'NONE',  ( -0.1405093500000000051, 0.000000000000000000, 3.441486514555503084E-17 ) ) ;
#296 =( NAMED_UNIT ( * ) PLANE_ANGLE_UNIT ( ) SI_UNIT ( $, .RADIAN. ) );
#297 = PRESENTATION_LAYER_ASSIGNMENT (  '', '', ( #93 ) ) ;
#298 = VERTEX_POINT ( 'NONE', #264 ) ;
#299 = EDGE_LOOP ( 'NONE', ( #140, #61, #70, #143 ) ) ;
ENDSEC;
END-ISO-10303-21;
