ISO-10303-21;
HEADER;
FILE_DESCRIPTION (( 'STEP AP214' ),
    '1' );
FILE_NAME ('Micro_BEMM-100-4.STEP',
    '2021-09-03T13:33:31',
    ( '' ),
    ( '' ),
    'SwSTEP 2.0',
    'SolidWorks 2020',
    '' );
FILE_SCHEMA (( 'AUTOMOTIVE_DESIGN' ));
ENDSEC;

DATA;
#1 = EDGE_LOOP ( 'NONE', ( #73, #212, #192, #49 ) ) ;
#2 = CARTESIAN_POINT ( 'NONE',  ( 0.1968504999999999838, 2.410723347355560646E-17, 2.834646000000000665 ) ) ;
#3 = EDGE_CURVE ( 'NONE', #165, #242, #223, .T. ) ;
#4 = DIRECTION ( 'NONE',  ( 0.7071067811865354713, 8.659560562354783714E-17, -0.7071067811865594521 ) ) ;
#5 = SURFACE_STYLE_FILL_AREA ( #281 ) ;
#6 = VECTOR ( 'NONE', #66, 39.37007874015748143 ) ;
#7 = AXIS2_PLACEMENT_3D ( 'NONE', #179, #176, #120 ) ;
#8 = EDGE_CURVE ( 'NONE', #293, #150, #219, .T. ) ;
#9 = DIRECTION ( 'NONE',  ( 0.0000000000000000000, 0.0000000000000000000, -1.000000000000000000 ) ) ;
#10 = DIRECTION ( 'NONE',  ( -1.000000000000000000, 0.0000000000000000000, 0.0000000000000000000 ) ) ;
#11 = FACE_OUTER_BOUND ( 'NONE', #217, .T. ) ;
#12 = EDGE_CURVE ( 'NONE', #293, #252, #167, .T. ) ;
#13 = ORIENTED_EDGE ( 'NONE', *, *, #324, .T. ) ;
#14 = DIRECTION ( 'NONE',  ( -1.000000000000000000, 0.0000000000000000000, 0.0000000000000000000 ) ) ;
#15 = ORIENTED_EDGE ( 'NONE', *, *, #260, .F. ) ;
#16 = AXIS2_PLACEMENT_3D ( 'NONE', #52, #271, #153 ) ;
#17 = VERTEX_POINT ( 'NONE', #147 ) ;
#18 = CYLINDRICAL_SURFACE ( 'NONE', #272, 0.1968504999999999838 ) ;
#19 = DIRECTION ( 'NONE',  ( -1.224646799147353207E-16, -0.0000000000000000000, -1.000000000000000000 ) ) ;
#20 = FACE_OUTER_BOUND ( 'NONE', #116, .T. ) ;
#21 = DIRECTION ( 'NONE',  ( 0.1736481776669314414, 0.0000000000000000000, 0.9848077530122077983 ) ) ;
#22 = CONICAL_SURFACE ( 'NONE', #244, 0.1966536495000000273, 0.1745329251994339470 ) ;
#23 = CARTESIAN_POINT ( 'NONE',  ( 0.1966536495000000273, 2.408312624008205478E-17, -2.408312624008205478E-17 ) ) ;
#24 = ORIENTED_EDGE ( 'NONE', *, *, #8, .F. ) ;
#25 = EDGE_LOOP ( 'NONE', ( #316, #168, #121, #237 ) ) ;
#26 = CARTESIAN_POINT ( 'NONE',  ( 0.0000000000000000000, 0.0000000000000000000, 0.0000000000000000000 ) ) ;
#27 = ADVANCED_FACE ( 'NONE', ( #245 ), #67, .T. ) ;
#28 = VECTOR ( 'NONE', #19, 39.37007874015748143 ) ;
#29 = AXIS2_PLACEMENT_3D ( 'NONE', #98, #201, #77 ) ;
#30 = EDGE_LOOP ( 'NONE', ( #24, #297, #264 ) ) ;
#31 = DIRECTION ( 'NONE',  ( -1.000000000000000000, 0.0000000000000000000, 1.224646799147353207E-16 ) ) ;
#32 = CARTESIAN_POINT ( 'NONE',  ( 0.1968505000000001226, 2.410723347355561878E-17, 0.9853683946618323475 ) ) ;
#33 = EDGE_CURVE ( 'NONE', #252, #150, #144, .T. ) ;
#34 = DIRECTION ( 'NONE',  ( -1.224646799147353207E-16, -0.0000000000000000000, -1.000000000000000000 ) ) ;
#35 = DIRECTION ( 'NONE',  ( -1.224646799147353207E-16, -0.0000000000000000000, -1.000000000000000000 ) ) ;
#36 = AXIS2_PLACEMENT_3D ( 'NONE', #26, #59, #308 ) ;
#37 = FACE_OUTER_BOUND ( 'NONE', #145, .T. ) ;
#38 = DIRECTION ( 'NONE',  ( 1.000000000000000000, 0.0000000000000000000, 0.0000000000000000000 ) ) ;
#39 = CYLINDRICAL_SURFACE ( 'NONE', #151, 0.1966536495000000273 ) ;
#40 = UNCERTAINTY_MEASURE_WITH_UNIT (LENGTH_MEASURE( 1.000000000000000082E-05 ), #78, 'distance_accuracy_value', 'NONE');
#41 = EDGE_CURVE ( 'NONE', #17, #150, #126, .T. ) ;
#42 = AXIS2_PLACEMENT_3D ( 'NONE', #285, #136, #234 ) ;
#43 = AXIS2_PLACEMENT_3D ( 'NONE', #82, #57, #161 ) ;
#44 = ORIENTED_EDGE ( 'NONE', *, *, #311, .T. ) ;
#45 = ADVANCED_FACE ( 'NONE', ( #92 ), #95, .T. ) ;
#46 = CARTESIAN_POINT ( 'NONE',  ( 1.206728250503578783E-16, 0.0000000000000000000, 0.9853683946618323475 ) ) ;
#47 =( LENGTH_UNIT ( ) NAMED_UNIT ( * ) SI_UNIT ( $, .METRE. ) );
#48 = LINE ( 'NONE', #86, #6 ) ;
#49 = ORIENTED_EDGE ( 'NONE', *, *, #277, .F. ) ;
#50 = CIRCLE ( 'NONE', #16, 0.1818505000000002481 ) ;
#51 = ORIENTED_EDGE ( 'NONE', *, *, #69, .T. ) ;
#52 = CARTESIAN_POINT ( 'NONE',  ( 0.0000000000000000000, 0.0000000000000000000, 2.834646000000000665 ) ) ;
#53 = DIRECTION ( 'NONE',  ( -0.0000000000000000000, -0.0000000000000000000, -1.000000000000000000 ) ) ;
#54 = DIRECTION ( 'NONE',  ( 1.000000000000000000, 0.0000000000000000000, 0.0000000000000000000 ) ) ;
#55 = AXIS2_PLACEMENT_3D ( 'NONE', #123, #156, #270 ) ;
#56 = AXIS2_PLACEMENT_3D ( 'NONE', #181, #74, #274 ) ;
#57 = DIRECTION ( 'NONE',  ( 0.0000000000000000000, 1.000000000000000000, 0.0000000000000000000 ) ) ;
#58 = SURFACE_SIDE_STYLE ('',( #5 ) ) ;
#59 = DIRECTION ( 'NONE',  ( 0.0000000000000000000, 0.0000000000000000000, 1.000000000000000000 ) ) ;
#60 = DIRECTION ( 'NONE',  ( -1.000000000000000000, 0.0000000000000000000, 1.736458998224860523E-16 ) ) ;
#61 = MECHANICAL_DESIGN_GEOMETRIC_PRESENTATION_REPRESENTATION (  '', ( #220 ), #177 ) ;
#62 =( NAMED_UNIT ( * ) PLANE_ANGLE_UNIT ( ) SI_UNIT ( $, .RADIAN. ) );
#63 = SHAPE_DEFINITION_REPRESENTATION ( #128, #286 ) ;
#64 = ORIENTED_EDGE ( 'NONE', *, *, #299, .T. ) ;
#65 = AXIS2_PLACEMENT_3D ( 'NONE', #204, #255, #184 ) ;
#66 = DIRECTION ( 'NONE',  ( -0.1736481776669312194, 2.126576849575783625E-17, 0.9848077530122077983 ) ) ;
#67 = CONICAL_SURFACE ( 'NONE', #56, 0.1966536495000000273, 0.1745329251994339470 ) ;
#68 = ORIENTED_EDGE ( 'NONE', *, *, #134, .F. ) ;
#69 = EDGE_CURVE ( 'NONE', #242, #241, #152, .T. ) ;
#70 = VECTOR ( 'NONE', #195, 39.37007874015748143 ) ;
#71 = DIRECTION ( 'NONE',  ( 1.000000000000000000, 0.0000000000000000000, 0.0000000000000000000 ) ) ;
#72 = FILL_AREA_STYLE_COLOUR ( '', #137 ) ;
#73 = ORIENTED_EDGE ( 'NONE', *, *, #69, .F. ) ;
#74 = DIRECTION ( 'NONE',  ( 1.224646799147353207E-16, 0.0000000000000000000, 1.000000000000000000 ) ) ;
#75 = PRESENTATION_LAYER_ASSIGNMENT (  '', '', ( #220 ) ) ;
#76 = ADVANCED_FACE ( 'NONE', ( #101 ), #22, .T. ) ;
#77 = DIRECTION ( 'NONE',  ( 1.000000000000000000, 0.0000000000000000000, 0.0000000000000000000 ) ) ;
#78 =( CONVERSION_BASED_UNIT ( 'INCH', #124 ) LENGTH_UNIT ( ) NAMED_UNIT ( #193 ) );
#79 = LINE ( 'NONE', #253, #70 ) ;
#80 = DIRECTION ( 'NONE',  ( 0.0000000000000000000, 0.0000000000000000000, -1.000000000000000000 ) ) ;
#81 = EDGE_CURVE ( 'NONE', #165, #266, #79, .T. ) ;
#82 = CARTESIAN_POINT ( 'NONE',  ( 2.408312624008205170E-17, 0.0000000000000000000, 0.1966536494999999996 ) ) ;
#83 = CARTESIAN_POINT ( 'NONE',  ( -0.1968504999999998450, 0.0000000000000000000, 0.9853683946618323475 ) ) ;
#84 = CARTESIAN_POINT ( 'NONE',  ( 0.0000000000000000000, 0.0000000000000000000, 2.834646000000000665 ) ) ;
#85 = FACE_OUTER_BOUND ( 'NONE', #290, .T. ) ;
#86 = CARTESIAN_POINT ( 'NONE',  ( -0.1966536494999999163, 2.408312624008205478E-17, 0.9842519999999999047 ) ) ;
#87 = ORIENTED_EDGE ( 'NONE', *, *, #138, .F. ) ;
#88 = EDGE_CURVE ( 'NONE', #266, #241, #104, .T. ) ;
#89 = PRODUCT_DEFINITION_FORMATION_WITH_SPECIFIED_SOURCE ( 'ANY', '', #106, .NOT_KNOWN. ) ;
#90 = ORIENTED_EDGE ( 'NONE', *, *, #88, .T. ) ;
#91 = AXIS2_PLACEMENT_3D ( 'NONE', #117, #221, #31 ) ;
#92 = FACE_OUTER_BOUND ( 'NONE', #119, .T. ) ;
#93 = FACE_OUTER_BOUND ( 'NONE', #1, .T. ) ;
#94 = AXIS2_PLACEMENT_3D ( 'NONE', #46, #295, #71 ) ;
#95 = SPHERICAL_SURFACE ( 'NONE', #29, 0.1966536494999999996 ) ;
#96 = SURFACE_STYLE_USAGE ( .BOTH. , #301 ) ;
#97 = ADVANCED_FACE ( 'NONE', ( #20 ), #173, .T. ) ;
#98 = CARTESIAN_POINT ( 'NONE',  ( 2.408312624008205170E-17, 0.0000000000000000000, 0.1966536494999999996 ) ) ;
#99 =( LENGTH_UNIT ( ) NAMED_UNIT ( * ) SI_UNIT ( $, .METRE. ) );
#100 = STYLED_ITEM ( 'NONE', ( #283 ), #250 ) ;
#101 = FACE_OUTER_BOUND ( 'NONE', #238, .T. ) ;
#102 = CARTESIAN_POINT ( 'NONE',  ( 0.1966536495000000828, 2.408312624008205478E-17, 0.1966536494999999718 ) ) ;
#103 = LINE ( 'NONE', #268, #28 ) ;
#104 = CIRCLE ( 'NONE', #94, 0.1968504999999999838 ) ;
#105 = CARTESIAN_POINT ( 'NONE',  ( 0.1968504999999999838, 2.410723347355560646E-17, 2.819646000000000097 ) ) ;
#106 = PRODUCT ( 'Micro_BEMM-100-4', 'Micro_BEMM-100-4', '', ( #256 ) ) ;
#107 = SURFACE_STYLE_USAGE ( .BOTH. , #58 ) ;
#108 = EDGE_CURVE ( 'NONE', #150, #252, #125, .T. ) ;
#109 = AXIS2_PLACEMENT_3D ( 'NONE', #287, #35, #313 ) ;
#110 = AXIS2_PLACEMENT_3D ( 'NONE', #209, #80, #259 ) ;
#111 = CARTESIAN_POINT ( 'NONE',  ( 0.0000000000000000000, 0.0000000000000000000, 2.834646000000000665 ) ) ;
#112 = VERTEX_POINT ( 'NONE', #228 ) ;
#113 = ORIENTED_EDGE ( 'NONE', *, *, #236, .T. ) ;
#114 = VECTOR ( 'NONE', #21, 39.37007874015748143 ) ;
#115 = ORIENTED_EDGE ( 'NONE', *, *, #108, .T. ) ;
#116 = EDGE_LOOP ( 'NONE', ( #180, #288, #198, #170 ) ) ;
#117 = CARTESIAN_POINT ( 'NONE',  ( 0.0000000000000000000, 0.0000000000000000000, 0.0000000000000000000 ) ) ;
#118 = APPLICATION_PROTOCOL_DEFINITION ( 'draft international standard', 'automotive_design', 1998, #132 ) ;
#119 = EDGE_LOOP ( 'NONE', ( #214, #261, #154 ) ) ;
#120 = DIRECTION ( 'NONE',  ( -1.000000000000000000, 0.0000000000000000000, 0.0000000000000000000 ) ) ;
#121 = ORIENTED_EDGE ( 'NONE', *, *, #3, .F. ) ;
#122 = CARTESIAN_POINT ( 'NONE',  ( 0.1818505000000002481, 2.318874837419510283E-17, 2.834646000000000665 ) ) ;
#123 = CARTESIAN_POINT ( 'NONE',  ( 0.0000000000000000000, 0.0000000000000000000, 2.819646000000000097 ) ) ;
#124 = LENGTH_MEASURE_WITH_UNIT ( LENGTH_MEASURE( 0.02539999999999999897 ), #47 );
#125 = CIRCLE ( 'NONE', #254, 0.1966536495000000273 ) ;
#126 = LINE ( 'NONE', #23, #306 ) ;
#127 = CARTESIAN_POINT ( 'NONE',  ( 2.408312624008205170E-17, 0.0000000000000000000, 0.1966536494999999996 ) ) ;
#128 = PRODUCT_DEFINITION_SHAPE ( 'NONE', 'NONE',  #169 ) ;
#129 = LENGTH_MEASURE_WITH_UNIT ( LENGTH_MEASURE( 0.02539999999999999897 ), #210 );
#130 = PRESENTATION_LAYER_ASSIGNMENT (  '', '', ( #100 ) ) ;
#131 = DIRECTION ( 'NONE',  ( -0.7071067811865354713, 0.0000000000000000000, -0.7071067811865594521 ) ) ;
#132 = APPLICATION_CONTEXT ( 'automotive_design' ) ;
#133 = SPHERICAL_SURFACE ( 'NONE', #43, 0.1966536494999999996 ) ;
#134 = EDGE_CURVE ( 'NONE', #17, #191, #166, .T. ) ;
#135 = DIRECTION ( 'NONE',  ( 1.224646799147353207E-16, 0.0000000000000000000, 1.000000000000000000 ) ) ;
#136 = DIRECTION ( 'NONE',  ( 0.0000000000000000000, 0.0000000000000000000, -1.000000000000000000 ) ) ;
#137 = COLOUR_RGB ( '',0.7921568627450980005, 0.8196078431372548767, 0.9333333333333333481 ) ;
#138 = EDGE_CURVE ( 'NONE', #325, #242, #309, .T. ) ;
#139 = CIRCLE ( 'NONE', #110, 0.1968504999999999838 ) ;
#140 = EDGE_LOOP ( 'NONE', ( #113, #215, #115, #15 ) ) ;
#141 = ORIENTED_EDGE ( 'NONE', *, *, #208, .T. ) ;
#142 = UNCERTAINTY_MEASURE_WITH_UNIT (LENGTH_MEASURE( 1.000000000000000082E-05 ), #229, 'distance_accuracy_value', 'NONE');
#143 = AXIS2_PLACEMENT_3D ( 'NONE', #111, #9, #14 ) ;
#144 = CIRCLE ( 'NONE', #188, 0.1966536495000000273 ) ;
#145 = EDGE_LOOP ( 'NONE', ( #141, #44 ) ) ;
#146 =( NAMED_UNIT ( * ) SI_UNIT ( $, .STERADIAN. ) SOLID_ANGLE_UNIT ( ) );
#147 = CARTESIAN_POINT ( 'NONE',  ( 0.1966536495000001661, 0.0000000000000000000, 0.9842519999999999047 ) ) ;
#148 = ADVANCED_FACE ( 'NONE', ( #37 ), #307, .T. ) ;
#149 = MECHANICAL_DESIGN_GEOMETRIC_PRESENTATION_REPRESENTATION (  '', ( #100 ), #162 ) ;
#150 = VERTEX_POINT ( 'NONE', #102 ) ;
#151 = AXIS2_PLACEMENT_3D ( 'NONE', #233, #34, #310 ) ;
#152 = LINE ( 'NONE', #2, #247 ) ;
#153 = DIRECTION ( 'NONE',  ( 1.000000000000000000, 0.0000000000000000000, 0.0000000000000000000 ) ) ;
#154 = ORIENTED_EDGE ( 'NONE', *, *, #33, .F. ) ;
#155 =( NAMED_UNIT ( * ) PLANE_ANGLE_UNIT ( ) SI_UNIT ( $, .RADIAN. ) );
#156 = DIRECTION ( 'NONE',  ( 0.0000000000000000000, 0.0000000000000000000, -1.000000000000000000 ) ) ;
#157 = CIRCLE ( 'NONE', #109, 0.1968504999999999838 ) ;
#158 = CIRCLE ( 'NONE', #322, 0.1966536495000000273 ) ;
#159 = CARTESIAN_POINT ( 'NONE',  ( 1.205361061354380629E-16, 0.0000000000000000000, 0.9842519999999999047 ) ) ;
#160 = APPLICATION_CONTEXT ( 'automotive_design' ) ;
#161 = DIRECTION ( 'NONE',  ( 1.000000000000000000, 0.0000000000000000000, 0.0000000000000000000 ) ) ;
#162 =( GEOMETRIC_REPRESENTATION_CONTEXT ( 3 ) GLOBAL_UNCERTAINTY_ASSIGNED_CONTEXT ( ( #142 ) ) GLOBAL_UNIT_ASSIGNED_CONTEXT ( ( #229, #62, #318 ) ) REPRESENTATION_CONTEXT ( 'NONE', 'WORKASPACE' ) );
#163 = FACE_OUTER_BOUND ( 'NONE', #25, .T. ) ;
#164 = DIRECTION ( 'NONE',  ( -1.224646799147353207E-16, -0.0000000000000000000, -1.000000000000000000 ) ) ;
#165 = VERTEX_POINT ( 'NONE', #312 ) ;
#166 = CIRCLE ( 'NONE', #206, 0.1966536495000000273 ) ;
#167 = CIRCLE ( 'NONE', #197, 0.1966536494999999996 ) ;
#168 = ORIENTED_EDGE ( 'NONE', *, *, #138, .T. ) ;
#169 = PRODUCT_DEFINITION ( 'UNKNOWN', '', #89, #243 ) ;
#170 = ORIENTED_EDGE ( 'NONE', *, *, #33, .T. ) ;
#171 = DIMENSIONAL_EXPONENTS ( 1.000000000000000000, 0.0000000000000000000, 0.0000000000000000000, 0.0000000000000000000, 0.0000000000000000000, 0.0000000000000000000, 0.0000000000000000000 ) ;
#172 = ORIENTED_EDGE ( 'NONE', *, *, #88, .F. ) ;
#173 = CYLINDRICAL_SURFACE ( 'NONE', #91, 0.1966536495000000273 ) ;
#174 = ADVANCED_FACE ( 'NONE', ( #257 ), #133, .T. ) ;
#175 = EDGE_LOOP ( 'NONE', ( #319, #321, #90, #275 ) ) ;
#176 = DIRECTION ( 'NONE',  ( -0.0000000000000000000, -0.0000000000000000000, -1.000000000000000000 ) ) ;
#177 =( GEOMETRIC_REPRESENTATION_CONTEXT ( 3 ) GLOBAL_UNCERTAINTY_ASSIGNED_CONTEXT ( ( #251 ) ) GLOBAL_UNIT_ASSIGNED_CONTEXT ( ( #296, #298, #202 ) ) REPRESENTATION_CONTEXT ( 'NONE', 'WORKASPACE' ) );
#178 = CARTESIAN_POINT ( 'NONE',  ( 2.408312624008205170E-17, 0.0000000000000000000, 0.1966536494999999996 ) ) ;
#179 = CARTESIAN_POINT ( 'NONE',  ( 0.0000000000000000000, 0.0000000000000000000, 2.834646000000000665 ) ) ;
#180 = ORIENTED_EDGE ( 'NONE', *, *, #41, .F. ) ;
#181 = CARTESIAN_POINT ( 'NONE',  ( 1.205361061354380629E-16, 0.0000000000000000000, 0.9842519999999999047 ) ) ;
#182 = FILL_AREA_STYLE_COLOUR ( '', #183 ) ;
#183 = COLOUR_RGB ( '',0.7921568627450980005, 0.8196078431372548767, 0.9333333333333333481 ) ;
#184 = DIRECTION ( 'NONE',  ( 1.000000000000000000, 0.0000000000000000000, -0.0000000000000000000 ) ) ;
#185 = LINE ( 'NONE', #282, #207 ) ;
#186 = CARTESIAN_POINT ( 'NONE',  ( -0.1966536494999999163, 2.409517985681882908E-17, 0.9842519999999999047 ) ) ;
#187 = APPLICATION_PROTOCOL_DEFINITION ( 'draft international standard', 'automotive_design', 1998, #160 ) ;
#188 = AXIS2_PLACEMENT_3D ( 'NONE', #226, #222, #276 ) ;
#189 = ORIENTED_EDGE ( 'NONE', *, *, #277, .T. ) ;
#190 = CONICAL_SURFACE ( 'NONE', #42, 0.1818505000000002481, 0.7853981633974312926 ) ;
#191 = VERTEX_POINT ( 'NONE', #186 ) ;
#192 = ORIENTED_EDGE ( 'NONE', *, *, #81, .T. ) ;
#193 = DIMENSIONAL_EXPONENTS ( 1.000000000000000000, 0.0000000000000000000, 0.0000000000000000000, 0.0000000000000000000, 0.0000000000000000000, 0.0000000000000000000, 0.0000000000000000000 ) ;
#194 = FILL_AREA_STYLE ('',( #72 ) ) ;
#195 = DIRECTION ( 'NONE',  ( -0.0000000000000000000, -0.0000000000000000000, -1.000000000000000000 ) ) ;
#196 = LENGTH_MEASURE_WITH_UNIT ( LENGTH_MEASURE( 0.02539999999999999897 ), #99 );
#197 = AXIS2_PLACEMENT_3D ( 'NONE', #178, #200, #300 ) ;
#198 = ORIENTED_EDGE ( 'NONE', *, *, #260, .T. ) ;
#199 = CARTESIAN_POINT ( 'NONE',  ( 0.1966536495000001661, 0.0000000000000000000, 0.9842519999999999047 ) ) ;
#200 = DIRECTION ( 'NONE',  ( 1.224646799147353207E-16, 1.000000000000000000, -0.0000000000000000000 ) ) ;
#201 = DIRECTION ( 'NONE',  ( 0.0000000000000000000, 1.000000000000000000, 0.0000000000000000000 ) ) ;
#202 =( NAMED_UNIT ( * ) SI_UNIT ( $, .STERADIAN. ) SOLID_ANGLE_UNIT ( ) );
#203 = CARTESIAN_POINT ( 'NONE',  ( 1.205361061354380629E-16, 0.0000000000000000000, 0.9842519999999999047 ) ) ;
#204 = CARTESIAN_POINT ( 'NONE',  ( 0.0000000000000000000, 0.0000000000000000000, 2.834646000000000665 ) ) ;
#205 = DIRECTION ( 'NONE',  ( -1.000000000000000000, 0.0000000000000000000, 0.0000000000000000000 ) ) ;
#206 = AXIS2_PLACEMENT_3D ( 'NONE', #159, #227, #205 ) ;
#207 = VECTOR ( 'NONE', #131, 39.37007874015748854 ) ;
#208 = EDGE_CURVE ( 'NONE', #112, #325, #315, .T. ) ;
#209 = CARTESIAN_POINT ( 'NONE',  ( 0.0000000000000000000, 0.0000000000000000000, 2.819646000000000097 ) ) ;
#210 =( LENGTH_UNIT ( ) NAMED_UNIT ( * ) SI_UNIT ( $, .METRE. ) );
#211 = DIRECTION ( 'NONE',  ( -0.0000000000000000000, -0.0000000000000000000, -1.000000000000000000 ) ) ;
#212 = ORIENTED_EDGE ( 'NONE', *, *, #213, .T. ) ;
#213 = EDGE_CURVE ( 'NONE', #242, #165, #139, .T. ) ;
#214 = ORIENTED_EDGE ( 'NONE', *, *, #12, .F. ) ;
#215 = ORIENTED_EDGE ( 'NONE', *, *, #41, .T. ) ;
#216 = DIMENSIONAL_EXPONENTS ( 1.000000000000000000, 0.0000000000000000000, 0.0000000000000000000, 0.0000000000000000000, 0.0000000000000000000, 0.0000000000000000000, 0.0000000000000000000 ) ;
#217 = EDGE_LOOP ( 'NONE', ( #87, #317, #64, #240 ) ) ;
#218 = LINE ( 'NONE', #199, #114 ) ;
#219 = CIRCLE ( 'NONE', #262, 0.1966536494999999996 ) ;
#220 = STYLED_ITEM ( 'NONE', ( #225 ), #286 ) ;
#221 = DIRECTION ( 'NONE',  ( -1.224646799147353207E-16, -0.0000000000000000000, -1.000000000000000000 ) ) ;
#222 = DIRECTION ( 'NONE',  ( 1.224646799147353207E-16, 0.0000000000000000000, 1.000000000000000000 ) ) ;
#223 = CIRCLE ( 'NONE', #55, 0.1968504999999999838 ) ;
#224 = ORIENTED_EDGE ( 'NONE', *, *, #3, .T. ) ;
#225 = PRESENTATION_STYLE_ASSIGNMENT (( #96 ) ) ;
#226 = CARTESIAN_POINT ( 'NONE',  ( 2.408312624008205170E-17, 0.0000000000000000000, 0.1966536494999999996 ) ) ;
#227 = DIRECTION ( 'NONE',  ( -1.224646799147353207E-16, -0.0000000000000000000, -1.000000000000000000 ) ) ;
#228 = CARTESIAN_POINT ( 'NONE',  ( -0.1818505000000002481, 0.0000000000000000000, 2.834646000000000665 ) ) ;
#229 =( CONVERSION_BASED_UNIT ( 'INCH', #129 ) LENGTH_UNIT ( ) NAMED_UNIT ( #171 ) );
#230 =( GEOMETRIC_REPRESENTATION_CONTEXT ( 3 ) GLOBAL_UNCERTAINTY_ASSIGNED_CONTEXT ( ( #40 ) ) GLOBAL_UNIT_ASSIGNED_CONTEXT ( ( #78, #155, #146 ) ) REPRESENTATION_CONTEXT ( 'NONE', 'WORKASPACE' ) );
#231 = CARTESIAN_POINT ( 'NONE',  ( 1.205361061354380629E-16, 0.0000000000000000000, 0.9842519999999999047 ) ) ;
#232 = CARTESIAN_POINT ( 'NONE',  ( 0.1818505000000002481, 2.227026327483460228E-17, 2.834646000000000665 ) ) ;
#233 = CARTESIAN_POINT ( 'NONE',  ( 0.0000000000000000000, 0.0000000000000000000, 0.0000000000000000000 ) ) ;
#234 = DIRECTION ( 'NONE',  ( -1.000000000000000000, 0.0000000000000000000, 0.0000000000000000000 ) ) ;
#235 = CARTESIAN_POINT ( 'NONE',  ( -0.1966536494999999996, 0.0000000000000000000, 0.1966536495000000273 ) ) ;
#236 = EDGE_CURVE ( 'NONE', #191, #17, #158, .T. ) ;
#237 = ORIENTED_EDGE ( 'NONE', *, *, #299, .F. ) ;
#238 = EDGE_LOOP ( 'NONE', ( #265, #68, #13, #189 ) ) ;
#239 = CLOSED_SHELL ( 'NONE', ( #174, #267, #27, #289, #273, #305, #148, #292, #76, #97, #45 ) ) ;
#240 = ORIENTED_EDGE ( 'NONE', *, *, #213, .F. ) ;
#241 = VERTEX_POINT ( 'NONE', #32 ) ;
#242 = VERTEX_POINT ( 'NONE', #105 ) ;
#243 = PRODUCT_DEFINITION_CONTEXT ( 'detailed design', #160, 'design' ) ;
#244 = AXIS2_PLACEMENT_3D ( 'NONE', #203, #303, #54 ) ;
#245 = FACE_OUTER_BOUND ( 'NONE', #175, .T. ) ;
#246 = CYLINDRICAL_SURFACE ( 'NONE', #7, 0.1968504999999999838 ) ;
#247 = VECTOR ( 'NONE', #53, 39.37007874015748143 ) ;
#248 = CARTESIAN_POINT ( 'NONE',  ( 2.408312624008205170E-17, 0.0000000000000000000, 0.1966536494999999996 ) ) ;
#249 = SURFACE_STYLE_FILL_AREA ( #194 ) ;
#250 = MANIFOLD_SOLID_BREP ( 'Fillet1', #239 ) ;
#251 = UNCERTAINTY_MEASURE_WITH_UNIT (LENGTH_MEASURE( 1.000000000000000082E-05 ), #296, 'distance_accuracy_value', 'NONE');
#252 = VERTEX_POINT ( 'NONE', #235 ) ;
#253 = CARTESIAN_POINT ( 'NONE',  ( -0.1968504999999999838, 0.0000000000000000000, 2.834646000000000665 ) ) ;
#254 = AXIS2_PLACEMENT_3D ( 'NONE', #127, #135, #60 ) ;
#255 = DIRECTION ( 'NONE',  ( 0.0000000000000000000, 0.0000000000000000000, 1.000000000000000000 ) ) ;
#256 = PRODUCT_CONTEXT ( 'NONE', #132, 'mechanical' ) ;
#257 = FACE_OUTER_BOUND ( 'NONE', #30, .T. ) ;
#258 = DIRECTION ( 'NONE',  ( -1.000000000000000000, 0.0000000000000000000, 0.0000000000000000000 ) ) ;
#259 = DIRECTION ( 'NONE',  ( 1.000000000000000000, 0.0000000000000000000, 0.0000000000000000000 ) ) ;
#260 = EDGE_CURVE ( 'NONE', #191, #252, #103, .T. ) ;
#261 = ORIENTED_EDGE ( 'NONE', *, *, #8, .T. ) ;
#262 = AXIS2_PLACEMENT_3D ( 'NONE', #248, #323, #269 ) ;
#263 = EDGE_CURVE ( 'NONE', #191, #266, #48, .T. ) ;
#264 = ORIENTED_EDGE ( 'NONE', *, *, #108, .F. ) ;
#265 = ORIENTED_EDGE ( 'NONE', *, *, #263, .F. ) ;
#266 = VERTEX_POINT ( 'NONE', #83 ) ;
#267 = ADVANCED_FACE ( 'NONE', ( #314 ), #39, .T. ) ;
#268 = CARTESIAN_POINT ( 'NONE',  ( -0.1966536495000000273, 0.0000000000000000000, 2.408312624008205478E-17 ) ) ;
#269 = DIRECTION ( 'NONE',  ( 0.0000000000000000000, 0.0000000000000000000, -1.000000000000000000 ) ) ;
#270 = DIRECTION ( 'NONE',  ( 1.000000000000000000, 0.0000000000000000000, 0.0000000000000000000 ) ) ;
#271 = DIRECTION ( 'NONE',  ( 0.0000000000000000000, 0.0000000000000000000, 1.000000000000000000 ) ) ;
#272 = AXIS2_PLACEMENT_3D ( 'NONE', #84, #211, #10 ) ;
#273 = ADVANCED_FACE ( 'NONE', ( #85 ), #18, .T. ) ;
#274 = DIRECTION ( 'NONE',  ( 1.000000000000000000, 0.0000000000000000000, 0.0000000000000000000 ) ) ;
#275 = ORIENTED_EDGE ( 'NONE', *, *, #324, .F. ) ;
#276 = DIRECTION ( 'NONE',  ( -1.000000000000000000, 0.0000000000000000000, 1.736458998224860523E-16 ) ) ;
#277 = EDGE_CURVE ( 'NONE', #241, #266, #157, .T. ) ;
#278 = CONICAL_SURFACE ( 'NONE', #143, 0.1818505000000002481, 0.7853981633974312926 ) ;
#279 = CARTESIAN_POINT ( 'NONE',  ( 0.0000000000000000000, 0.0000000000000000000, 2.834646000000000665 ) ) ;
#280 = VECTOR ( 'NONE', #4, 39.37007874015748854 ) ;
#281 = FILL_AREA_STYLE ('',( #182 ) ) ;
#282 = CARTESIAN_POINT ( 'NONE',  ( -0.1818505000000002481, 0.0000000000000000000, 2.834646000000000665 ) ) ;
#283 = PRESENTATION_STYLE_ASSIGNMENT (( #107 ) ) ;
#284 = PRODUCT_RELATED_PRODUCT_CATEGORY ( 'part', '', ( #106 ) ) ;
#285 = CARTESIAN_POINT ( 'NONE',  ( 0.0000000000000000000, 0.0000000000000000000, 2.834646000000000665 ) ) ;
#286 = ADVANCED_BREP_SHAPE_REPRESENTATION ( 'Micro_BEMM-100-4', ( #250, #36 ), #230 ) ;
#287 = CARTESIAN_POINT ( 'NONE',  ( 1.206728250503578783E-16, 0.0000000000000000000, 0.9853683946618323475 ) ) ;
#288 = ORIENTED_EDGE ( 'NONE', *, *, #134, .T. ) ;
#289 = ADVANCED_FACE ( 'NONE', ( #163 ), #190, .T. ) ;
#290 = EDGE_LOOP ( 'NONE', ( #224, #51, #172, #291 ) ) ;
#291 = ORIENTED_EDGE ( 'NONE', *, *, #81, .F. ) ;
#292 = ADVANCED_FACE ( 'NONE', ( #11 ), #278, .T. ) ;
#293 = VERTEX_POINT ( 'NONE', #320 ) ;
#294 = AXIS2_PLACEMENT_3D ( 'NONE', #279, #304, #38 ) ;
#295 = DIRECTION ( 'NONE',  ( -1.224646799147353207E-16, -0.0000000000000000000, -1.000000000000000000 ) ) ;
#296 =( CONVERSION_BASED_UNIT ( 'INCH', #196 ) LENGTH_UNIT ( ) NAMED_UNIT ( #216 ) );
#297 = ORIENTED_EDGE ( 'NONE', *, *, #12, .T. ) ;
#298 =( NAMED_UNIT ( * ) PLANE_ANGLE_UNIT ( ) SI_UNIT ( $, .RADIAN. ) );
#299 = EDGE_CURVE ( 'NONE', #112, #165, #185, .T. ) ;
#300 = DIRECTION ( 'NONE',  ( -1.000000000000000000, 1.224646799147353207E-16, 0.0000000000000000000 ) ) ;
#301 = SURFACE_SIDE_STYLE ('',( #249 ) ) ;
#302 = DIRECTION ( 'NONE',  ( -1.224646799147353207E-16, -0.0000000000000000000, -1.000000000000000000 ) ) ;
#303 = DIRECTION ( 'NONE',  ( 1.224646799147353207E-16, 0.0000000000000000000, 1.000000000000000000 ) ) ;
#304 = DIRECTION ( 'NONE',  ( 0.0000000000000000000, 0.0000000000000000000, 1.000000000000000000 ) ) ;
#305 = ADVANCED_FACE ( 'NONE', ( #93 ), #246, .T. ) ;
#306 = VECTOR ( 'NONE', #302, 39.37007874015748143 ) ;
#307 = PLANE ( 'NONE',  #65 ) ;
#308 = DIRECTION ( 'NONE',  ( 1.000000000000000000, 0.0000000000000000000, 0.0000000000000000000 ) ) ;
#309 = LINE ( 'NONE', #232, #280 ) ;
#310 = DIRECTION ( 'NONE',  ( -1.000000000000000000, 0.0000000000000000000, 1.224646799147353207E-16 ) ) ;
#311 = EDGE_CURVE ( 'NONE', #325, #112, #50, .T. ) ;
#312 = CARTESIAN_POINT ( 'NONE',  ( -0.1968504999999999838, 0.0000000000000000000, 2.819646000000000097 ) ) ;
#313 = DIRECTION ( 'NONE',  ( 1.000000000000000000, 0.0000000000000000000, 0.0000000000000000000 ) ) ;
#314 = FACE_OUTER_BOUND ( 'NONE', #140, .T. ) ;
#315 = CIRCLE ( 'NONE', #294, 0.1818505000000002481 ) ;
#316 = ORIENTED_EDGE ( 'NONE', *, *, #311, .F. ) ;
#317 = ORIENTED_EDGE ( 'NONE', *, *, #208, .F. ) ;
#318 =( NAMED_UNIT ( * ) SI_UNIT ( $, .STERADIAN. ) SOLID_ANGLE_UNIT ( ) );
#319 = ORIENTED_EDGE ( 'NONE', *, *, #236, .F. ) ;
#320 = CARTESIAN_POINT ( 'NONE',  ( 3.612468936012307139E-17, 0.0000000000000000000, 0.0000000000000000000 ) ) ;
#321 = ORIENTED_EDGE ( 'NONE', *, *, #263, .T. ) ;
#322 = AXIS2_PLACEMENT_3D ( 'NONE', #231, #164, #258 ) ;
#323 = DIRECTION ( 'NONE',  ( 0.0000000000000000000, -1.000000000000000000, 0.0000000000000000000 ) ) ;
#324 = EDGE_CURVE ( 'NONE', #17, #241, #218, .T. ) ;
#325 = VERTEX_POINT ( 'NONE', #122 ) ;
ENDSEC;
END-ISO-10303-21;
