ISO-10303-21;
HEADER;
FILE_DESCRIPTION (( 'STEP AP214' ),
    '1' );
FILE_NAME ('81457.STEP',
    '2023-06-30T22:26:28',
    ( '' ),
    ( '' ),
    'SwSTEP 2.0',
    'SolidWorks 2023',
    '' );
FILE_SCHEMA (( 'AUTOMOTIVE_DESIGN' ));
ENDSEC;

DATA;
#1 = AXIS2_PLACEMENT_3D ( 'NONE', #113, #352, #61 ) ;
#2 = PRESENTATION_LAYER_ASSIGNMENT (  '', '', ( #286 ) ) ;
#3 = CIRCLE ( 'NONE', #70, 0.1249999999999998612 ) ;
#4 = PRODUCT_DEFINITION_SHAPE ( 'NONE', 'NONE',  #346 ) ;
#5 = DIRECTION ( 'NONE',  ( -1.219736248827480055E-16, 1.000000000000000000, 0.000000000000000000 ) ) ;
#6 = SURFACE_SIDE_STYLE ('',( #47 ) ) ;
#7 = CARTESIAN_POINT ( 'NONE',  ( -0.1249999999999997918, 2.000000000000000000, 0.000000000000000000 ) ) ;
#8 = PRODUCT_DEFINITION_FORMATION_WITH_SPECIFIED_SOURCE ( 'ANY', '', #283, .NOT_KNOWN. ) ;
#9 = PRESENTATION_STYLE_ASSIGNMENT (( #264 ) ) ;
#10 = ORIENTED_EDGE ( 'NONE', *, *, #316, .F. ) ;
#11 = EDGE_LOOP ( 'NONE', ( #119, #328 ) ) ;
#12 = FACE_OUTER_BOUND ( 'NONE', #243, .T. ) ;
#13 = CLOSED_SHELL ( 'NONE', ( #290, #30, #265, #277, #156 ) ) ;
#14 =( GEOMETRIC_REPRESENTATION_CONTEXT ( 3 ) GLOBAL_UNCERTAINTY_ASSIGNED_CONTEXT ( ( #227 ) ) GLOBAL_UNIT_ASSIGNED_CONTEXT ( ( #170, #85, #199 ) ) REPRESENTATION_CONTEXT ( 'NONE', 'WORKASPACE' ) );
#15 = PRESENTATION_STYLE_ASSIGNMENT (( #91 ) ) ;
#16 = SURFACE_STYLE_USAGE ( .BOTH. , #219 ) ;
#17 = FILL_AREA_STYLE ('',( #122 ) ) ;
#18 = SURFACE_STYLE_FILL_AREA ( #247 ) ;
#19 = SURFACE_STYLE_USAGE ( .BOTH. , #270 ) ;
#20 = STYLED_ITEM ( 'NONE', ( #51 ), #141 ) ;
#21 = DIRECTION ( 'NONE',  ( -0.000000000000000000, -1.000000000000000000, -0.000000000000000000 ) ) ;
#22 = COLOUR_RGB ( '',0.7921568627450980005, 0.8196078431372548767, 0.9333333333333333481 ) ;
#23 =( GEOMETRIC_REPRESENTATION_CONTEXT ( 3 ) GLOBAL_UNCERTAINTY_ASSIGNED_CONTEXT ( ( #206 ) ) GLOBAL_UNIT_ASSIGNED_CONTEXT ( ( #313, #341, #250 ) ) REPRESENTATION_CONTEXT ( 'NONE', 'WORKASPACE' ) );
#24 = CARTESIAN_POINT ( 'NONE',  ( 0.1249999999999999306, 2.000000000000000000, 1.530808498934189352E-17 ) ) ;
#25 = CARTESIAN_POINT ( 'NONE',  ( 1.530808498934190893E-17, 0.5000000000000000000, 0.1249999999999999306 ) ) ;
#26 = DIRECTION ( 'NONE',  ( 0.000000000000000000, 0.000000000000000000, -1.000000000000000000 ) ) ;
#27 = ADVANCED_FACE ( 'NONE', ( #269 ), #295, .T. ) ;
#28 = DIRECTION ( 'NONE',  ( 0.000000000000000000, 0.000000000000000000, 1.000000000000000000 ) ) ;
#29 = CARTESIAN_POINT ( 'NONE',  ( 0.000000000000000000, 0.1250000000000000000, 0.000000000000000000 ) ) ;
#30 = ADVANCED_FACE ( 'NONE', ( #178 ), #263, .T. ) ;
#31 = ORIENTED_EDGE ( 'NONE', *, *, #171, .T. ) ;
#32 = SURFACE_SIDE_STYLE ('',( #59 ) ) ;
#33 = MECHANICAL_DESIGN_GEOMETRIC_PRESENTATION_REPRESENTATION (  '', ( #308 ), #48 ) ;
#34 = LENGTH_MEASURE_WITH_UNIT ( LENGTH_MEASURE( 0.02539999999999999897 ), #353 );
#35 = ORIENTED_EDGE ( 'NONE', *, *, #369, .T. ) ;
#36 = FACE_OUTER_BOUND ( 'NONE', #11, .T. ) ;
#37 = FILL_AREA_STYLE ('',( #355 ) ) ;
#38 = LINE ( 'NONE', #64, #167 ) ;
#39 = AXIS2_PLACEMENT_3D ( 'NONE', #304, #337, #192 ) ;
#40 = STYLED_ITEM ( 'NONE', ( #359 ), #273 ) ;
#41 = VECTOR ( 'NONE', #364, 39.37007874015748143 ) ;
#42 = EDGE_LOOP ( 'NONE', ( #35, #112, #234, #342, #232 ) ) ;
#43 = DIRECTION ( 'NONE',  ( -1.219736248827480055E-16, 1.000000000000000000, -0.000000000000000000 ) ) ;
#44 = EDGE_CURVE ( 'NONE', #63, #209, #362, .T. ) ;
#45 = VERTEX_POINT ( 'NONE', #24 ) ;
#46 = APPLICATION_PROTOCOL_DEFINITION ( 'draft international standard', 'automotive_design', 1998, #108 ) ;
#47 = SURFACE_STYLE_FILL_AREA ( #37 ) ;
#48 =( GEOMETRIC_REPRESENTATION_CONTEXT ( 3 ) GLOBAL_UNCERTAINTY_ASSIGNED_CONTEXT ( ( #168 ) ) GLOBAL_UNIT_ASSIGNED_CONTEXT ( ( #80, #128, #102 ) ) REPRESENTATION_CONTEXT ( 'NONE', 'WORKASPACE' ) );
#49 = AXIS2_PLACEMENT_3D ( 'NONE', #282, #314, #26 ) ;
#50 = DIRECTION ( 'NONE',  ( 0.000000000000000000, 0.000000000000000000, -1.000000000000000000 ) ) ;
#51 = PRESENTATION_STYLE_ASSIGNMENT (( #298 ) ) ;
#52 = FACE_OUTER_BOUND ( 'NONE', #99, .T. ) ;
#53 = AXIS2_PLACEMENT_3D ( 'NONE', #29, #134, #306 ) ;
#54 = DIRECTION ( 'NONE',  ( 0.000000000000000000, 0.000000000000000000, -1.000000000000000000 ) ) ;
#55 = DIRECTION ( 'NONE',  ( 1.224646799147353207E-16, -0.000000000000000000, 1.000000000000000000 ) ) ;
#56 = PRESENTATION_STYLE_ASSIGNMENT (( #275 ) ) ;
#57 = CARTESIAN_POINT ( 'NONE',  ( -1.530808498934191201E-17, 0.1249999999999999861, 0.000000000000000000 ) ) ;
#58 = EDGE_LOOP ( 'NONE', ( #154, #140, #60, #207 ) ) ;
#59 = SURFACE_STYLE_FILL_AREA ( #317 ) ;
#60 = ORIENTED_EDGE ( 'NONE', *, *, #299, .T. ) ;
#61 = DIRECTION ( 'NONE',  ( -1.000000000000000000, 0.000000000000000000, 0.000000000000000000 ) ) ;
#62 = UNCERTAINTY_MEASURE_WITH_UNIT (LENGTH_MEASURE( 1.000000000000000082E-05 ), #210, 'distance_accuracy_value', 'NONE');
#63 = VERTEX_POINT ( 'NONE', #25 ) ;
#64 = CARTESIAN_POINT ( 'NONE',  ( -0.1249999999999997086, 2.000000000000000000, 0.000000000000000000 ) ) ;
#65 =( NAMED_UNIT ( * ) PLANE_ANGLE_UNIT ( ) SI_UNIT ( $, .RADIAN. ) );
#66 = ORIENTED_EDGE ( 'NONE', *, *, #218, .T. ) ;
#67 = EDGE_CURVE ( 'NONE', #63, #73, #361, .T. ) ;
#68 = AXIS2_PLACEMENT_3D ( 'NONE', #320, #208, #115 ) ;
#69 = CIRCLE ( 'NONE', #53, 0.1249999999999999861 ) ;
#70 = AXIS2_PLACEMENT_3D ( 'NONE', #146, #179, #315 ) ;
#71 = ORIENTED_EDGE ( 'NONE', *, *, #218, .F. ) ;
#72 = CARTESIAN_POINT ( 'NONE',  ( 2.441927772814896440E-16, 0.5000000000000001110, 0.000000000000000000 ) ) ;
#73 = VERTEX_POINT ( 'NONE', #253 ) ;
#74 = SURFACE_STYLE_FILL_AREA ( #77 ) ;
#75 = CARTESIAN_POINT ( 'NONE',  ( 0.000000000000000000, 0.000000000000000000, 0.000000000000000000 ) ) ;
#76 = CARTESIAN_POINT ( 'NONE',  ( 0.000000000000000000, 0.000000000000000000, 0.000000000000000000 ) ) ;
#77 = FILL_AREA_STYLE ('',( #242 ) ) ;
#78 = LENGTH_MEASURE_WITH_UNIT ( LENGTH_MEASURE( 0.02539999999999999897 ), #366 );
#79 = DIRECTION ( 'NONE',  ( -0.000000000000000000, -1.000000000000000000, -0.000000000000000000 ) ) ;
#80 =( CONVERSION_BASED_UNIT ( 'INCH', #126 ) LENGTH_UNIT ( ) NAMED_UNIT ( #180 ) );
#81 = CARTESIAN_POINT ( 'NONE',  ( 0.1249999999999999861, 0.1250000000000000000, 0.000000000000000000 ) ) ;
#82 = FILL_AREA_STYLE ('',( #100 ) ) ;
#83 = DIRECTION ( 'NONE',  ( 0.000000000000000000, 0.000000000000000000, -1.000000000000000000 ) ) ;
#84 = COLOUR_RGB ( '',1.000000000000000000, 0.000000000000000000, 0.000000000000000000 ) ;
#85 =( NAMED_UNIT ( * ) PLANE_ANGLE_UNIT ( ) SI_UNIT ( $, .RADIAN. ) );
#86 = VECTOR ( 'NONE', #79, 39.37007874015748143 ) ;
#87 = LENGTH_MEASURE_WITH_UNIT ( LENGTH_MEASURE( 0.02539999999999999897 ), #302 );
#88 = VERTEX_POINT ( 'NONE', #272 ) ;
#89 = DIRECTION ( 'NONE',  ( -1.000000000000000000, -1.219736248827480055E-16, 0.000000000000000000 ) ) ;
#90 = DIMENSIONAL_EXPONENTS ( 1.000000000000000000, 0.000000000000000000, 0.000000000000000000, 0.000000000000000000, 0.000000000000000000, 0.000000000000000000, 0.000000000000000000 ) ;
#91 = SURFACE_STYLE_USAGE ( .BOTH. , #6 ) ;
#92 = VERTEX_POINT ( 'NONE', #81 ) ;
#93 =( NAMED_UNIT ( * ) PLANE_ANGLE_UNIT ( ) SI_UNIT ( $, .RADIAN. ) );
#94 =( NAMED_UNIT ( * ) SI_UNIT ( $, .STERADIAN. ) SOLID_ANGLE_UNIT ( ) );
#95 = STYLED_ITEM ( 'NONE', ( #194 ), #156 ) ;
#96 = DIRECTION ( 'NONE',  ( 1.000000000000000000, 0.000000000000000000, 0.000000000000000000 ) ) ;
#97 = VERTEX_POINT ( 'NONE', #331 ) ;
#98 = SURFACE_SIDE_STYLE ('',( #220 ) ) ;
#99 = EDGE_LOOP ( 'NONE', ( #292, #138 ) ) ;
#100 = FILL_AREA_STYLE_COLOUR ( '', #101 ) ;
#101 = COLOUR_RGB ( '',1.000000000000000000, 0.000000000000000000, 0.000000000000000000 ) ;
#102 =( NAMED_UNIT ( * ) SI_UNIT ( $, .STERADIAN. ) SOLID_ANGLE_UNIT ( ) );
#103 = EDGE_CURVE ( 'NONE', #209, #88, #189, .T. ) ;
#104 = SPHERICAL_SURFACE ( 'NONE', #183, 0.1250000000000000000 ) ;
#105 =( LENGTH_UNIT ( ) NAMED_UNIT ( * ) SI_UNIT ( $, .METRE. ) );
#106 = MECHANICAL_DESIGN_GEOMETRIC_PRESENTATION_REPRESENTATION (  '', ( #40 ), #110 ) ;
#107 = CARTESIAN_POINT ( 'NONE',  ( 0.000000000000000000, 0.1250000000000000000, 0.000000000000000000 ) ) ;
#108 = APPLICATION_CONTEXT ( 'automotive_design' ) ;
#109 = VECTOR ( 'NONE', #43, 39.37007874015748143 ) ;
#110 =( GEOMETRIC_REPRESENTATION_CONTEXT ( 3 ) GLOBAL_UNCERTAINTY_ASSIGNED_CONTEXT ( ( #223 ) ) GLOBAL_UNIT_ASSIGNED_CONTEXT ( ( #268, #329, #303 ) ) REPRESENTATION_CONTEXT ( 'NONE', 'WORKASPACE' ) );
#111 = CARTESIAN_POINT ( 'NONE',  ( 6.123233995736766036E-17, 2.000000000000000000, 0.000000000000000000 ) ) ;
#112 = ORIENTED_EDGE ( 'NONE', *, *, #67, .T. ) ;
#113 = CARTESIAN_POINT ( 'NONE',  ( 6.123233995736766036E-17, 2.000000000000000000, 0.000000000000000000 ) ) ;
#114 = DIMENSIONAL_EXPONENTS ( 1.000000000000000000, 0.000000000000000000, 0.000000000000000000, 0.000000000000000000, 0.000000000000000000, 0.000000000000000000, 0.000000000000000000 ) ;
#115 = DIRECTION ( 'NONE',  ( 1.000000000000000000, 0.000000000000000000, 0.000000000000000000 ) ) ;
#116 = UNCERTAINTY_MEASURE_WITH_UNIT (LENGTH_MEASURE( 1.000000000000000082E-05 ), #145, 'distance_accuracy_value', 'NONE');
#117 = DIMENSIONAL_EXPONENTS ( 1.000000000000000000, 0.000000000000000000, 0.000000000000000000, 0.000000000000000000, 0.000000000000000000, 0.000000000000000000, 0.000000000000000000 ) ;
#118 = ORIENTED_EDGE ( 'NONE', *, *, #198, .F. ) ;
#119 = ORIENTED_EDGE ( 'NONE', *, *, #330, .F. ) ;
#120 = DIRECTION ( 'NONE',  ( -1.000000000000000000, 0.000000000000000000, 0.000000000000000000 ) ) ;
#121 = VERTEX_POINT ( 'NONE', #193 ) ;
#122 = FILL_AREA_STYLE_COLOUR ( '', #148 ) ;
#123 = COLOUR_RGB ( '',1.000000000000000000, 0.000000000000000000, 0.000000000000000000 ) ;
#124 = CIRCLE ( 'NONE', #300, 0.1249999999999999861 ) ;
#125 = EDGE_CURVE ( 'NONE', #92, #371, #175, .T. ) ;
#126 = LENGTH_MEASURE_WITH_UNIT ( LENGTH_MEASURE( 0.02539999999999999897 ), #332 );
#127 =( LENGTH_UNIT ( ) NAMED_UNIT ( * ) SI_UNIT ( $, .METRE. ) );
#128 =( NAMED_UNIT ( * ) PLANE_ANGLE_UNIT ( ) SI_UNIT ( $, .RADIAN. ) );
#129 = CIRCLE ( 'NONE', #245, 0.1249999999999996808 ) ;
#130 = EDGE_CURVE ( 'NONE', #92, #73, #262, .T. ) ;
#131 =( CONVERSION_BASED_UNIT ( 'INCH', #161 ) LENGTH_UNIT ( ) NAMED_UNIT ( #114 ) );
#132 = MECHANICAL_DESIGN_GEOMETRIC_PRESENTATION_REPRESENTATION (  '', ( #95 ), #23 ) ;
#133 = CARTESIAN_POINT ( 'NONE',  ( 1.530808498934191201E-17, 0.000000000000000000, 0.1249999999999999584 ) ) ;
#134 = DIRECTION ( 'NONE',  ( -0.000000000000000000, -1.000000000000000000, -0.000000000000000000 ) ) ;
#135 = CARTESIAN_POINT ( 'NONE',  ( 0.000000000000000000, 0.000000000000000000, -0.1249999999999999584 ) ) ;
#136 = CIRCLE ( 'NONE', #350, 0.1250000000000000000 ) ;
#137 = DIRECTION ( 'NONE',  ( 0.000000000000000000, 0.000000000000000000, -1.000000000000000000 ) ) ;
#138 = ORIENTED_EDGE ( 'NONE', *, *, #198, .T. ) ;
#139 = CARTESIAN_POINT ( 'NONE',  ( 2.441927772814896440E-16, 0.5000000000000001110, 0.000000000000000000 ) ) ;
#140 = ORIENTED_EDGE ( 'NONE', *, *, #321, .T. ) ;
#141 = MANIFOLD_SOLID_BREP ( 'Revolve - Cutting Edge', #13 ) ;
#142 = PRODUCT_RELATED_PRODUCT_CATEGORY ( 'part', '', ( #283 ) ) ;
#143 = PRESENTATION_LAYER_ASSIGNMENT (  '', '', ( #324 ) ) ;
#144 = CARTESIAN_POINT ( 'NONE',  ( 0.1249999999999998473, 2.000000000000000000, 1.530808498934188736E-17 ) ) ;
#145 =( CONVERSION_BASED_UNIT ( 'INCH', #239 ) LENGTH_UNIT ( ) NAMED_UNIT ( #259 ) );
#146 = CARTESIAN_POINT ( 'NONE',  ( 6.123233995736766036E-17, 2.000000000000000000, 0.000000000000000000 ) ) ;
#147 = DIMENSIONAL_EXPONENTS ( 1.000000000000000000, 0.000000000000000000, 0.000000000000000000, 0.000000000000000000, 0.000000000000000000, 0.000000000000000000, 0.000000000000000000 ) ;
#148 = COLOUR_RGB ( '',1.000000000000000000, 0.000000000000000000, 0.000000000000000000 ) ;
#149 = STYLED_ITEM ( 'NONE', ( #15 ), #30 ) ;
#150 = APPLICATION_CONTEXT ( 'automotive_design' ) ;
#151 = EDGE_LOOP ( 'NONE', ( #260, #360, #66, #118 ) ) ;
#152 = DIMENSIONAL_EXPONENTS ( 1.000000000000000000, 0.000000000000000000, 0.000000000000000000, 0.000000000000000000, 0.000000000000000000, 0.000000000000000000, 0.000000000000000000 ) ;
#153 = ORIENTED_EDGE ( 'NONE', *, *, #369, .F. ) ;
#154 = ORIENTED_EDGE ( 'NONE', *, *, #305, .F. ) ;
#155 = PRESENTATION_STYLE_ASSIGNMENT (( #335 ) ) ;
#156 = ADVANCED_FACE ( 'NONE', ( #271 ), #322, .T. ) ;
#157 = PRESENTATION_LAYER_ASSIGNMENT (  '', '', ( #308 ) ) ;
#158 = SHAPE_DEFINITION_REPRESENTATION ( #4, #229 ) ;
#159 =( LENGTH_UNIT ( ) NAMED_UNIT ( * ) SI_UNIT ( $, .METRE. ) );
#160 = CARTESIAN_POINT ( 'NONE',  ( -1.530808498934191201E-17, 0.1249999999999999861, 0.000000000000000000 ) ) ;
#161 = LENGTH_MEASURE_WITH_UNIT ( LENGTH_MEASURE( 0.02539999999999999897 ), #127 );
#162 = DIRECTION ( 'NONE',  ( 1.000000000000000000, 0.000000000000000000, -1.224646799147353207E-16 ) ) ;
#163 = CIRCLE ( 'NONE', #1, 0.1249999999999998612 ) ;
#164 = CIRCLE ( 'NONE', #258, 0.1249999999999999306 ) ;
#165 = SURFACE_STYLE_FILL_AREA ( #82 ) ;
#166 = PLANE ( 'NONE',  #367 ) ;
#167 = VECTOR ( 'NONE', #176, 39.37007874015748143 ) ;
#168 = UNCERTAINTY_MEASURE_WITH_UNIT (LENGTH_MEASURE( 1.000000000000000082E-05 ), #80, 'distance_accuracy_value', 'NONE');
#169 = DIRECTION ( 'NONE',  ( 1.000000000000000000, 1.219736248827480055E-16, 0.000000000000000000 ) ) ;
#170 =( CONVERSION_BASED_UNIT ( 'INCH', #225 ) LENGTH_UNIT ( ) NAMED_UNIT ( #152 ) );
#171 = EDGE_CURVE ( 'NONE', #121, #45, #293, .T. ) ;
#172 =( GEOMETRIC_REPRESENTATION_CONTEXT ( 3 ) GLOBAL_UNCERTAINTY_ASSIGNED_CONTEXT ( ( #62 ) ) GLOBAL_UNIT_ASSIGNED_CONTEXT ( ( #210, #190, #94 ) ) REPRESENTATION_CONTEXT ( 'NONE', 'WORKASPACE' ) );
#173 = FACE_OUTER_BOUND ( 'NONE', #257, .T. ) ;
#174 = VERTEX_POINT ( 'NONE', #284 ) ;
#175 = CIRCLE ( 'NONE', #226, 0.1250000000000000000 ) ;
#176 = DIRECTION ( 'NONE',  ( -1.219736248827480055E-16, 1.000000000000000000, -0.000000000000000000 ) ) ;
#177 = DIRECTION ( 'NONE',  ( -1.219736248827480055E-16, 1.000000000000000000, -0.000000000000000000 ) ) ;
#178 = FACE_OUTER_BOUND ( 'NONE', #42, .T. ) ;
#179 = DIRECTION ( 'NONE',  ( -1.219736248827480055E-16, 1.000000000000000000, -0.000000000000000000 ) ) ;
#180 = DIMENSIONAL_EXPONENTS ( 1.000000000000000000, 0.000000000000000000, 0.000000000000000000, 0.000000000000000000, 0.000000000000000000, 0.000000000000000000, 0.000000000000000000 ) ;
#181 = PRODUCT_CONTEXT ( 'NONE', #150, 'mechanical' ) ;
#182 = VERTEX_POINT ( 'NONE', #7 ) ;
#183 = AXIS2_PLACEMENT_3D ( 'NONE', #372, #28, #201 ) ;
#184 = DIMENSIONAL_EXPONENTS ( 1.000000000000000000, 0.000000000000000000, 0.000000000000000000, 0.000000000000000000, 0.000000000000000000, 0.000000000000000000, 0.000000000000000000 ) ;
#185 = ORIENTED_EDGE ( 'NONE', *, *, #130, .T. ) ;
#186 = DIRECTION ( 'NONE',  ( -1.219736248827480055E-16, 1.000000000000000000, -0.000000000000000000 ) ) ;
#187 = ADVANCED_FACE ( 'NONE', ( #36 ), #348, .F. ) ;
#188 = ORIENTED_EDGE ( 'NONE', *, *, #330, .T. ) ;
#189 = LINE ( 'NONE', #135, #41 ) ;
#190 =( NAMED_UNIT ( * ) PLANE_ANGLE_UNIT ( ) SI_UNIT ( $, .RADIAN. ) );
#191 = MECHANICAL_DESIGN_GEOMETRIC_PRESENTATION_REPRESENTATION (  '', ( #324 ), #172 ) ;
#192 = DIRECTION ( 'NONE',  ( 0.000000000000000000, 0.000000000000000000, -1.000000000000000000 ) ) ;
#193 = CARTESIAN_POINT ( 'NONE',  ( 0.1249999999999999167, 0.5000000000000001110, 1.530808498934189352E-17 ) ) ;
#194 = PRESENTATION_STYLE_ASSIGNMENT (( #16 ) ) ;
#195 = PRESENTATION_LAYER_ASSIGNMENT (  '', '', ( #149 ) ) ;
#196 = CARTESIAN_POINT ( 'NONE',  ( -7.654042494670956004E-18, -1.707404996040164512E-17, 0.000000000000000000 ) ) ;
#197 = PRODUCT_DEFINITION_CONTEXT ( 'detailed design', #108, 'design' ) ;
#198 = EDGE_CURVE ( 'NONE', #45, #182, #3, .T. ) ;
#199 =( NAMED_UNIT ( * ) SI_UNIT ( $, .STERADIAN. ) SOLID_ANGLE_UNIT ( ) );
#200 = AXIS2_PLACEMENT_3D ( 'NONE', #221, #244, #274 ) ;
#201 = DIRECTION ( 'NONE',  ( 1.000000000000000000, 0.000000000000000000, 0.000000000000000000 ) ) ;
#202 = AXIS2_PLACEMENT_3D ( 'NONE', #248, #21, #333 ) ;
#203 = EDGE_CURVE ( 'NONE', #182, #45, #163, .T. ) ;
#204 = AXIS2_PLACEMENT_3D ( 'NONE', #111, #177, #319 ) ;
#205 = FACE_OUTER_BOUND ( 'NONE', #151, .T. ) ;
#206 = UNCERTAINTY_MEASURE_WITH_UNIT (LENGTH_MEASURE( 1.000000000000000082E-05 ), #313, 'distance_accuracy_value', 'NONE');
#207 = ORIENTED_EDGE ( 'NONE', *, *, #125, .T. ) ;
#208 = DIRECTION ( 'NONE',  ( 0.000000000000000000, 0.000000000000000000, 1.000000000000000000 ) ) ;
#209 = VERTEX_POINT ( 'NONE', #368 ) ;
#210 =( CONVERSION_BASED_UNIT ( 'INCH', #34 ) LENGTH_UNIT ( ) NAMED_UNIT ( #90 ) );
#211 = DIRECTION ( 'NONE',  ( 0.000000000000000000, 0.000000000000000000, 1.000000000000000000 ) ) ;
#212 =( LENGTH_UNIT ( ) NAMED_UNIT ( * ) SI_UNIT ( $, .METRE. ) );
#213 = DIRECTION ( 'NONE',  ( 0.000000000000000000, 0.000000000000000000, -1.000000000000000000 ) ) ;
#214 = CIRCLE ( 'NONE', #49, 0.1249999999999999861 ) ;
#215 = CARTESIAN_POINT ( 'NONE',  ( 6.123233995736766036E-17, 2.000000000000000000, 0.000000000000000000 ) ) ;
#216 = LENGTH_MEASURE_WITH_UNIT ( LENGTH_MEASURE( 0.02539999999999999897 ), #159 );
#217 = ORIENTED_EDGE ( 'NONE', *, *, #321, .F. ) ;
#218 = EDGE_CURVE ( 'NONE', #97, #182, #38, .T. ) ;
#219 = SURFACE_SIDE_STYLE ('',( #165 ) ) ;
#220 = SURFACE_STYLE_FILL_AREA ( #17 ) ;
#221 = CARTESIAN_POINT ( 'NONE',  ( 0.000000000000000000, 0.5000000000000000000, 0.000000000000000000 ) ) ;
#222 =( NAMED_UNIT ( * ) SI_UNIT ( $, .STERADIAN. ) SOLID_ANGLE_UNIT ( ) );
#223 = UNCERTAINTY_MEASURE_WITH_UNIT (LENGTH_MEASURE( 1.000000000000000082E-05 ), #268, 'distance_accuracy_value', 'NONE');
#224 = SURFACE_SIDE_STYLE ('',( #18 ) ) ;
#225 = LENGTH_MEASURE_WITH_UNIT ( LENGTH_MEASURE( 0.02539999999999999897 ), #105 );
#226 = AXIS2_PLACEMENT_3D ( 'NONE', #160, #50, #251 ) ;
#227 = UNCERTAINTY_MEASURE_WITH_UNIT (LENGTH_MEASURE( 1.000000000000000082E-05 ), #170, 'distance_accuracy_value', 'NONE');
#228 = ORIENTED_EDGE ( 'NONE', *, *, #305, .T. ) ;
#229 = ADVANCED_BREP_SHAPE_REPRESENTATION ( '81457', ( #141, #273, #334 ), #236 ) ;
#230 = DIRECTION ( 'NONE',  ( -1.000000000000000000, 0.000000000000000000, 0.000000000000000000 ) ) ;
#231 =( GEOMETRIC_REPRESENTATION_CONTEXT ( 3 ) GLOBAL_UNCERTAINTY_ASSIGNED_CONTEXT ( ( #349 ) ) GLOBAL_UNIT_ASSIGNED_CONTEXT ( ( #131, #279, #255 ) ) REPRESENTATION_CONTEXT ( 'NONE', 'WORKASPACE' ) );
#232 = ORIENTED_EDGE ( 'NONE', *, *, #103, .F. ) ;
#233 = AXIS2_PLACEMENT_3D ( 'NONE', #261, #5, #89 ) ;
#234 = ORIENTED_EDGE ( 'NONE', *, *, #130, .F. ) ;
#235 = ADVANCED_FACE ( 'NONE', ( #205 ), #238, .T. ) ;
#236 =( GEOMETRIC_REPRESENTATION_CONTEXT ( 3 ) GLOBAL_UNCERTAINTY_ASSIGNED_CONTEXT ( ( #310 ) ) GLOBAL_UNIT_ASSIGNED_CONTEXT ( ( #301, #65, #240 ) ) REPRESENTATION_CONTEXT ( 'NONE', 'WORKASPACE' ) );
#237 = ORIENTED_EDGE ( 'NONE', *, *, #316, .T. ) ;
#238 = CYLINDRICAL_SURFACE ( 'NONE', #204, 0.1249999999999997780 ) ;
#239 = LENGTH_MEASURE_WITH_UNIT ( LENGTH_MEASURE( 0.02539999999999999897 ), #212 );
#240 =( NAMED_UNIT ( * ) SI_UNIT ( $, .STERADIAN. ) SOLID_ANGLE_UNIT ( ) );
#241 = EDGE_LOOP ( 'NONE', ( #188, #31, #358, #71 ) ) ;
#242 = FILL_AREA_STYLE_COLOUR ( '', #22 ) ;
#243 = EDGE_LOOP ( 'NONE', ( #267, #288, #287, #217, #10 ) ) ;
#244 = DIRECTION ( 'NONE',  ( 0.000000000000000000, 1.000000000000000000, 0.000000000000000000 ) ) ;
#245 = AXIS2_PLACEMENT_3D ( 'NONE', #72, #186, #296 ) ;
#246 = CYLINDRICAL_SURFACE ( 'NONE', #318, 0.1249999999999999584 ) ;
#247 = FILL_AREA_STYLE ('',( #336 ) ) ;
#248 = CARTESIAN_POINT ( 'NONE',  ( 0.000000000000000000, 0.5000000000000000000, 0.000000000000000000 ) ) ;
#249 = PRESENTATION_LAYER_ASSIGNMENT (  '', '', ( #95 ) ) ;
#250 =( NAMED_UNIT ( * ) SI_UNIT ( $, .STERADIAN. ) SOLID_ANGLE_UNIT ( ) );
#251 = DIRECTION ( 'NONE',  ( -1.000000000000000000, 0.000000000000000000, 0.000000000000000000 ) ) ;
#252 = CARTESIAN_POINT ( 'NONE',  ( 0.000000000000000000, 0.5000000000000000000, 0.000000000000000000 ) ) ;
#253 = CARTESIAN_POINT ( 'NONE',  ( 1.530808498934191509E-17, 0.1250000000000000000, 0.1250000000000000000 ) ) ;
#254 = CARTESIAN_POINT ( 'NONE',  ( 0.1249999999999999306, 2.000000000000000000, 0.000000000000000000 ) ) ;
#255 =( NAMED_UNIT ( * ) SI_UNIT ( $, .STERADIAN. ) SOLID_ANGLE_UNIT ( ) );
#256 = FILL_AREA_STYLE ('',( #309 ) ) ;
#257 = EDGE_LOOP ( 'NONE', ( #237, #228, #266, #185 ) ) ;
#258 = AXIS2_PLACEMENT_3D ( 'NONE', #252, #363, #83 ) ;
#259 = DIMENSIONAL_EXPONENTS ( 1.000000000000000000, 0.000000000000000000, 0.000000000000000000, 0.000000000000000000, 0.000000000000000000, 0.000000000000000000, 0.000000000000000000 ) ;
#260 = ORIENTED_EDGE ( 'NONE', *, *, #171, .F. ) ;
#261 = CARTESIAN_POINT ( 'NONE',  ( 2.441927772814896440E-16, 0.5000000000000000000, 0.000000000000000000 ) ) ;
#262 = CIRCLE ( 'NONE', #39, 0.1249999999999999861 ) ;
#263 = CYLINDRICAL_SURFACE ( 'NONE', #285, 0.1249999999999999584 ) ;
#264 = SURFACE_STYLE_USAGE ( .BOTH. , #32 ) ;
#265 = ADVANCED_FACE ( 'NONE', ( #347 ), #345, .T. ) ;
#266 = ORIENTED_EDGE ( 'NONE', *, *, #125, .F. ) ;
#267 = ORIENTED_EDGE ( 'NONE', *, *, #67, .F. ) ;
#268 =( CONVERSION_BASED_UNIT ( 'INCH', #216 ) LENGTH_UNIT ( ) NAMED_UNIT ( #117 ) );
#269 = FACE_OUTER_BOUND ( 'NONE', #241, .T. ) ;
#270 = SURFACE_SIDE_STYLE ('',( #74 ) ) ;
#271 = FACE_OUTER_BOUND ( 'NONE', #58, .T. ) ;
#272 = CARTESIAN_POINT ( 'NONE',  ( 0.000000000000000000, 0.1250000000000000000, -0.1249999999999999861 ) ) ;
#273 = MANIFOLD_SOLID_BREP ( 'Revolve - Tool Body (Straight Shanked)', #307 ) ;
#274 = DIRECTION ( 'NONE',  ( 0.000000000000000000, -0.000000000000000000, 1.000000000000000000 ) ) ;
#275 = SURFACE_STYLE_USAGE ( .BOTH. , #370 ) ;
#276 = CIRCLE ( 'NONE', #340, 0.1249999999999996808 ) ;
#277 = ADVANCED_FACE ( 'NONE', ( #12 ), #246, .T. ) ;
#278 = DIRECTION ( 'NONE',  ( -0.000000000000000000, -1.000000000000000000, -0.000000000000000000 ) ) ;
#279 =( NAMED_UNIT ( * ) PLANE_ANGLE_UNIT ( ) SI_UNIT ( $, .RADIAN. ) );
#280 = EDGE_CURVE ( 'NONE', #121, #97, #129, .T. ) ;
#281 = PRESENTATION_LAYER_ASSIGNMENT (  '', '', ( #40 ) ) ;
#282 = CARTESIAN_POINT ( 'NONE',  ( 0.000000000000000000, 0.1250000000000000000, 0.000000000000000000 ) ) ;
#283 = PRODUCT ( '81457', '81457', '', ( #181 ) ) ;
#284 = CARTESIAN_POINT ( 'NONE',  ( -0.1250000000000000000, 0.1250000000000000000, 1.530808498934191201E-17 ) ) ;
#285 = AXIS2_PLACEMENT_3D ( 'NONE', #76, #278, #54 ) ;
#286 = STYLED_ITEM ( 'NONE', ( #56 ), #290 ) ;
#287 = ORIENTED_EDGE ( 'NONE', *, *, #103, .T. ) ;
#288 = ORIENTED_EDGE ( 'NONE', *, *, #44, .T. ) ;
#289 = FILL_AREA_STYLE_COLOUR ( '', #312 ) ;
#290 = ADVANCED_FACE ( 'NONE', ( #173 ), #104, .T. ) ;
#291 = PRESENTATION_LAYER_ASSIGNMENT (  '', '', ( #20 ) ) ;
#292 = ORIENTED_EDGE ( 'NONE', *, *, #203, .T. ) ;
#293 = LINE ( 'NONE', #144, #109 ) ;
#294 = COLOUR_RGB ( '',0.7921568627450980005, 0.8196078431372548767, 0.9333333333333333481 ) ;
#295 = CYLINDRICAL_SURFACE ( 'NONE', #357, 0.1249999999999997780 ) ;
#296 = DIRECTION ( 'NONE',  ( -1.000000000000000000, 0.000000000000000000, 0.000000000000000000 ) ) ;
#297 = DIRECTION ( 'NONE',  ( -1.219736248827480055E-16, 1.000000000000000000, -0.000000000000000000 ) ) ;
#298 = SURFACE_STYLE_USAGE ( .BOTH. , #224 ) ;
#299 = EDGE_CURVE ( 'NONE', #88, #92, #124, .T. ) ;
#300 = AXIS2_PLACEMENT_3D ( 'NONE', #107, #311, #137 ) ;
#301 =( CONVERSION_BASED_UNIT ( 'INCH', #78 ) LENGTH_UNIT ( ) NAMED_UNIT ( #184 ) );
#302 =( LENGTH_UNIT ( ) NAMED_UNIT ( * ) SI_UNIT ( $, .METRE. ) );
#303 =( NAMED_UNIT ( * ) SI_UNIT ( $, .STERADIAN. ) SOLID_ANGLE_UNIT ( ) );
#304 = CARTESIAN_POINT ( 'NONE',  ( 0.000000000000000000, 0.1250000000000000000, 0.000000000000000000 ) ) ;
#305 = EDGE_CURVE ( 'NONE', #174, #371, #136, .T. ) ;
#306 = DIRECTION ( 'NONE',  ( 0.000000000000000000, 0.000000000000000000, -1.000000000000000000 ) ) ;
#307 = CLOSED_SHELL ( 'NONE', ( #27, #187, #235, #373 ) ) ;
#308 = STYLED_ITEM ( 'NONE', ( #155 ), #277 ) ;
#309 = FILL_AREA_STYLE_COLOUR ( '', #84 ) ;
#310 = UNCERTAINTY_MEASURE_WITH_UNIT (LENGTH_MEASURE( 1.000000000000000082E-05 ), #301, 'distance_accuracy_value', 'NONE');
#311 = DIRECTION ( 'NONE',  ( -0.000000000000000000, -1.000000000000000000, -0.000000000000000000 ) ) ;
#312 = COLOUR_RGB ( '',1.000000000000000000, 0.000000000000000000, 0.000000000000000000 ) ;
#313 =( CONVERSION_BASED_UNIT ( 'INCH', #87 ) LENGTH_UNIT ( ) NAMED_UNIT ( #147 ) );
#314 = DIRECTION ( 'NONE',  ( -0.000000000000000000, -1.000000000000000000, -0.000000000000000000 ) ) ;
#315 = DIRECTION ( 'NONE',  ( -1.000000000000000000, 0.000000000000000000, 0.000000000000000000 ) ) ;
#316 = EDGE_CURVE ( 'NONE', #73, #174, #214, .T. ) ;
#317 = FILL_AREA_STYLE ('',( #289 ) ) ;
#318 = AXIS2_PLACEMENT_3D ( 'NONE', #326, #356, #213 ) ;
#319 = DIRECTION ( 'NONE',  ( -1.000000000000000000, 0.000000000000000000, 0.000000000000000000 ) ) ;
#320 = CARTESIAN_POINT ( 'NONE',  ( -1.530808498934191201E-17, 0.1249999999999999861, 0.000000000000000000 ) ) ;
#321 = EDGE_CURVE ( 'NONE', #174, #88, #69, .T. ) ;
#322 = SPHERICAL_SURFACE ( 'NONE', #68, 0.1250000000000000000 ) ;
#323 =( GEOMETRIC_REPRESENTATION_CONTEXT ( 3 ) GLOBAL_UNCERTAINTY_ASSIGNED_CONTEXT ( ( #116 ) ) GLOBAL_UNIT_ASSIGNED_CONTEXT ( ( #145, #93, #222 ) ) REPRESENTATION_CONTEXT ( 'NONE', 'WORKASPACE' ) );
#324 = STYLED_ITEM ( 'NONE', ( #9 ), #265 ) ;
#325 = EDGE_LOOP ( 'NONE', ( #153, #351 ) ) ;
#326 = CARTESIAN_POINT ( 'NONE',  ( 0.000000000000000000, 0.000000000000000000, 0.000000000000000000 ) ) ;
#327 = MECHANICAL_DESIGN_GEOMETRIC_PRESENTATION_REPRESENTATION (  '', ( #20 ), #231 ) ;
#328 = ORIENTED_EDGE ( 'NONE', *, *, #280, .F. ) ;
#329 =( NAMED_UNIT ( * ) PLANE_ANGLE_UNIT ( ) SI_UNIT ( $, .RADIAN. ) );
#330 = EDGE_CURVE ( 'NONE', #97, #121, #276, .T. ) ;
#331 = CARTESIAN_POINT ( 'NONE',  ( -0.1249999999999994310, 0.5000000000000001110, 0.000000000000000000 ) ) ;
#332 =( LENGTH_UNIT ( ) NAMED_UNIT ( * ) SI_UNIT ( $, .METRE. ) );
#333 = DIRECTION ( 'NONE',  ( 0.000000000000000000, 0.000000000000000000, -1.000000000000000000 ) ) ;
#334 = AXIS2_PLACEMENT_3D ( 'NONE', #75, #211, #96 ) ;
#335 = SURFACE_STYLE_USAGE ( .BOTH. , #98 ) ;
#336 = FILL_AREA_STYLE_COLOUR ( '', #294 ) ;
#337 = DIRECTION ( 'NONE',  ( -0.000000000000000000, -1.000000000000000000, -0.000000000000000000 ) ) ;
#338 = DIRECTION ( 'NONE',  ( -1.219736248827480055E-16, 1.000000000000000000, -0.000000000000000000 ) ) ;
#339 = MECHANICAL_DESIGN_GEOMETRIC_PRESENTATION_REPRESENTATION (  '', ( #149 ), #323 ) ;
#340 = AXIS2_PLACEMENT_3D ( 'NONE', #139, #338, #230 ) ;
#341 =( NAMED_UNIT ( * ) PLANE_ANGLE_UNIT ( ) SI_UNIT ( $, .RADIAN. ) );
#342 = ORIENTED_EDGE ( 'NONE', *, *, #299, .F. ) ;
#343 = SURFACE_STYLE_FILL_AREA ( #256 ) ;
#344 = MECHANICAL_DESIGN_GEOMETRIC_PRESENTATION_REPRESENTATION (  '', ( #286 ), #14 ) ;
#345 = PLANE ( 'NONE',  #200 ) ;
#346 = PRODUCT_DEFINITION ( 'UNKNOWN', '', #8, #197 ) ;
#347 = FACE_OUTER_BOUND ( 'NONE', #325, .T. ) ;
#348 = PLANE ( 'NONE',  #233 ) ;
#349 = UNCERTAINTY_MEASURE_WITH_UNIT (LENGTH_MEASURE( 1.000000000000000082E-05 ), #131, 'distance_accuracy_value', 'NONE');
#350 = AXIS2_PLACEMENT_3D ( 'NONE', #57, #55, #162 ) ;
#351 = ORIENTED_EDGE ( 'NONE', *, *, #44, .F. ) ;
#352 = DIRECTION ( 'NONE',  ( -1.219736248827480055E-16, 1.000000000000000000, -0.000000000000000000 ) ) ;
#353 =( LENGTH_UNIT ( ) NAMED_UNIT ( * ) SI_UNIT ( $, .METRE. ) );
#354 = APPLICATION_PROTOCOL_DEFINITION ( 'draft international standard', 'automotive_design', 1998, #150 ) ;
#355 = FILL_AREA_STYLE_COLOUR ( '', #123 ) ;
#356 = DIRECTION ( 'NONE',  ( -0.000000000000000000, -1.000000000000000000, -0.000000000000000000 ) ) ;
#357 = AXIS2_PLACEMENT_3D ( 'NONE', #215, #297, #120 ) ;
#358 = ORIENTED_EDGE ( 'NONE', *, *, #203, .F. ) ;
#359 = PRESENTATION_STYLE_ASSIGNMENT (( #19 ) ) ;
#360 = ORIENTED_EDGE ( 'NONE', *, *, #280, .T. ) ;
#361 = LINE ( 'NONE', #133, #86 ) ;
#362 = CIRCLE ( 'NONE', #202, 0.1249999999999999306 ) ;
#363 = DIRECTION ( 'NONE',  ( -0.000000000000000000, -1.000000000000000000, -0.000000000000000000 ) ) ;
#364 = DIRECTION ( 'NONE',  ( -0.000000000000000000, -1.000000000000000000, -0.000000000000000000 ) ) ;
#365 = DIRECTION ( 'NONE',  ( 1.219736248827480055E-16, -1.000000000000000000, 0.000000000000000000 ) ) ;
#366 =( LENGTH_UNIT ( ) NAMED_UNIT ( * ) SI_UNIT ( $, .METRE. ) );
#367 = AXIS2_PLACEMENT_3D ( 'NONE', #254, #365, #169 ) ;
#368 = CARTESIAN_POINT ( 'NONE',  ( 0.000000000000000000, 0.5000000000000000000, -0.1249999999999999306 ) ) ;
#369 = EDGE_CURVE ( 'NONE', #209, #63, #164, .T. ) ;
#370 = SURFACE_SIDE_STYLE ('',( #343 ) ) ;
#371 = VERTEX_POINT ( 'NONE', #196 ) ;
#372 = CARTESIAN_POINT ( 'NONE',  ( -1.530808498934191201E-17, 0.1249999999999999861, 0.000000000000000000 ) ) ;
#373 = ADVANCED_FACE ( 'NONE', ( #52 ), #166, .F. ) ;
ENDSEC;
END-ISO-10303-21;
