ISO-10303-21;
HEADER;
FILE_DESCRIPTION (( 'STEP AP214' ),
    '1' );
FILE_NAME ('81459.STEP',
    '2023-06-30T22:27:10',
    ( '' ),
    ( '' ),
    'SwSTEP 2.0',
    'SolidWorks 2023',
    '' );
FILE_SCHEMA (( 'AUTOMOTIVE_DESIGN' ));
ENDSEC;

DATA;
#1 = DIRECTION ( 'NONE',  ( -0.000000000000000000, -1.000000000000000000, -0.000000000000000000 ) ) ;
#2 = DIRECTION ( 'NONE',  ( 0.000000000000000000, 0.000000000000000000, 1.000000000000000000 ) ) ;
#3 = DIRECTION ( 'NONE',  ( 0.000000000000000000, 0.000000000000000000, -1.000000000000000000 ) ) ;
#4 = CARTESIAN_POINT ( 'NONE',  ( 1.530808498934191201E-17, 0.1250000000000000000, 0.1249999999999999584 ) ) ;
#5 = CARTESIAN_POINT ( 'NONE',  ( -1.530808498934191201E-17, 0.1249999999999999861, 0.000000000000000000 ) ) ;
#6 = DIRECTION ( 'NONE',  ( 0.000000000000000000, 0.000000000000000000, -1.000000000000000000 ) ) ;
#7 = AXIS2_PLACEMENT_3D ( 'NONE', #180, #343, #97 ) ;
#8 = EDGE_CURVE ( 'NONE', #178, #161, #190, .T. ) ;
#9 = DIRECTION ( 'NONE',  ( -1.000000000000000000, 0.000000000000000000, 0.000000000000000000 ) ) ;
#10 =( CONVERSION_BASED_UNIT ( 'INCH', #265 ) LENGTH_UNIT ( ) NAMED_UNIT ( #348 ) );
#11 = SURFACE_STYLE_USAGE ( .BOTH. , #213 ) ;
#12 = SPHERICAL_SURFACE ( 'NONE', #222, 0.1250000000000000000 ) ;
#13 = EDGE_CURVE ( 'NONE', #60, #32, #305, .T. ) ;
#14 = DIRECTION ( 'NONE',  ( 1.224646799147353207E-16, -0.000000000000000000, 1.000000000000000000 ) ) ;
#15 = AXIS2_PLACEMENT_3D ( 'NONE', #286, #123, #3 ) ;
#16 = CARTESIAN_POINT ( 'NONE',  ( -7.654042494670956004E-18, -1.707404996040164512E-17, 0.000000000000000000 ) ) ;
#17 = LENGTH_MEASURE_WITH_UNIT ( LENGTH_MEASURE( 0.02539999999999999897 ), #157 );
#18 = FILL_AREA_STYLE ('',( #163 ) ) ;
#19 = ADVANCED_FACE ( 'NONE', ( #292 ), #262, .T. ) ;
#20 = EDGE_LOOP ( 'NONE', ( #86, #83, #144, #226 ) ) ;
#21 =( LENGTH_UNIT ( ) NAMED_UNIT ( * ) SI_UNIT ( $, .METRE. ) );
#22 = ORIENTED_EDGE ( 'NONE', *, *, #275, .T. ) ;
#23 = VERTEX_POINT ( 'NONE', #129 ) ;
#24 = ADVANCED_FACE ( 'NONE', ( #39 ), #119, .T. ) ;
#25 =( NAMED_UNIT ( * ) SI_UNIT ( $, .STERADIAN. ) SOLID_ANGLE_UNIT ( ) );
#26 = EDGE_LOOP ( 'NONE', ( #281, #330 ) ) ;
#27 = MECHANICAL_DESIGN_GEOMETRIC_PRESENTATION_REPRESENTATION (  '', ( #293 ), #127 ) ;
#28 =( GEOMETRIC_REPRESENTATION_CONTEXT ( 3 ) GLOBAL_UNCERTAINTY_ASSIGNED_CONTEXT ( ( #278 ) ) GLOBAL_UNIT_ASSIGNED_CONTEXT ( ( #29, #51, #31 ) ) REPRESENTATION_CONTEXT ( 'NONE', 'WORKASPACE' ) );
#29 =( CONVERSION_BASED_UNIT ( 'INCH', #280 ) LENGTH_UNIT ( ) NAMED_UNIT ( #296 ) );
#30 = EDGE_LOOP ( 'NONE', ( #22, #90, #217, #359 ) ) ;
#31 =( NAMED_UNIT ( * ) SI_UNIT ( $, .STERADIAN. ) SOLID_ANGLE_UNIT ( ) );
#32 = VERTEX_POINT ( 'NONE', #229 ) ;
#33 = CARTESIAN_POINT ( 'NONE',  ( 9.184850993605145972E-17, 1.250000000000000000, 0.000000000000000000 ) ) ;
#34 = FILL_AREA_STYLE_COLOUR ( '', #328 ) ;
#35 =( GEOMETRIC_REPRESENTATION_CONTEXT ( 3 ) GLOBAL_UNCERTAINTY_ASSIGNED_CONTEXT ( ( #197 ) ) GLOBAL_UNIT_ASSIGNED_CONTEXT ( ( #310, #69, #126 ) ) REPRESENTATION_CONTEXT ( 'NONE', 'WORKASPACE' ) );
#36 =( GEOMETRIC_REPRESENTATION_CONTEXT ( 3 ) GLOBAL_UNCERTAINTY_ASSIGNED_CONTEXT ( ( #94 ) ) GLOBAL_UNIT_ASSIGNED_CONTEXT ( ( #325, #78, #25 ) ) REPRESENTATION_CONTEXT ( 'NONE', 'WORKASPACE' ) );
#37 = DIRECTION ( 'NONE',  ( 0.000000000000000000, -0.000000000000000000, 1.000000000000000000 ) ) ;
#38 = CARTESIAN_POINT ( 'NONE',  ( 0.1249999999999998473, 3.000000000000000444, 0.000000000000000000 ) ) ;
#39 = FACE_OUTER_BOUND ( 'NONE', #147, .T. ) ;
#40 = UNCERTAINTY_MEASURE_WITH_UNIT (LENGTH_MEASURE( 1.000000000000000082E-05 ), #10, 'distance_accuracy_value', 'NONE');
#41 = CARTESIAN_POINT ( 'NONE',  ( 9.184850993605145972E-17, 1.250000000000000000, 0.000000000000000000 ) ) ;
#42 = PRESENTATION_LAYER_ASSIGNMENT (  '', '', ( #107 ) ) ;
#43 = PRESENTATION_LAYER_ASSIGNMENT (  '', '', ( #223 ) ) ;
#44 =( CONVERSION_BASED_UNIT ( 'INCH', #243 ) LENGTH_UNIT ( ) NAMED_UNIT ( #299 ) );
#45 =( NAMED_UNIT ( * ) PLANE_ANGLE_UNIT ( ) SI_UNIT ( $, .RADIAN. ) );
#46 =( GEOMETRIC_REPRESENTATION_CONTEXT ( 3 ) GLOBAL_UNCERTAINTY_ASSIGNED_CONTEXT ( ( #179 ) ) GLOBAL_UNIT_ASSIGNED_CONTEXT ( ( #134, #45, #320 ) ) REPRESENTATION_CONTEXT ( 'NONE', 'WORKASPACE' ) );
#47 = AXIS2_PLACEMENT_3D ( 'NONE', #92, #125, #236 ) ;
#48 = DIMENSIONAL_EXPONENTS ( 1.000000000000000000, 0.000000000000000000, 0.000000000000000000, 0.000000000000000000, 0.000000000000000000, 0.000000000000000000, 0.000000000000000000 ) ;
#49 = DIRECTION ( 'NONE',  ( 0.000000000000000000, 0.000000000000000000, 1.000000000000000000 ) ) ;
#50 = SURFACE_STYLE_FILL_AREA ( #56 ) ;
#51 =( NAMED_UNIT ( * ) PLANE_ANGLE_UNIT ( ) SI_UNIT ( $, .RADIAN. ) );
#52 = CLOSED_SHELL ( 'NONE', ( #64, #122, #168, #140, #24 ) ) ;
#53 = AXIS2_PLACEMENT_3D ( 'NONE', #212, #130, #6 ) ;
#54 = PRODUCT ( '81459', '81459', '', ( #199 ) ) ;
#55 = ADVANCED_FACE ( 'NONE', ( #345 ), #283, .T. ) ;
#56 = FILL_AREA_STYLE ('',( #141 ) ) ;
#57 = MANIFOLD_SOLID_BREP ( 'Revolve - Tool Body (Straight Shanked)', #335 ) ;
#58 = ORIENTED_EDGE ( 'NONE', *, *, #231, .T. ) ;
#59 = FACE_OUTER_BOUND ( 'NONE', #334, .T. ) ;
#60 = VERTEX_POINT ( 'NONE', #160 ) ;
#61 = AXIS2_PLACEMENT_3D ( 'NONE', #154, #181, #9 ) ;
#62 = AXIS2_PLACEMENT_3D ( 'NONE', #41, #260, #268 ) ;
#63 = FILL_AREA_STYLE ('',( #333 ) ) ;
#64 = ADVANCED_FACE ( 'NONE', ( #295 ), #12, .T. ) ;
#65 =( NAMED_UNIT ( * ) PLANE_ANGLE_UNIT ( ) SI_UNIT ( $, .RADIAN. ) );
#66 = DIRECTION ( 'NONE',  ( -1.224646799147353207E-16, 1.000000000000000000, -0.000000000000000000 ) ) ;
#67 = DIRECTION ( 'NONE',  ( 1.000000000000000000, 1.224646799147353207E-16, 0.000000000000000000 ) ) ;
#68 = PRESENTATION_STYLE_ASSIGNMENT (( #258 ) ) ;
#69 =( NAMED_UNIT ( * ) PLANE_ANGLE_UNIT ( ) SI_UNIT ( $, .RADIAN. ) );
#70 = PLANE ( 'NONE',  #62 ) ;
#71 = SURFACE_SIDE_STYLE ('',( #340 ) ) ;
#72 = PRESENTATION_STYLE_ASSIGNMENT (( #76 ) ) ;
#73 = PRESENTATION_LAYER_ASSIGNMENT (  '', '', ( #269 ) ) ;
#74 =( GEOMETRIC_REPRESENTATION_CONTEXT ( 3 ) GLOBAL_UNCERTAINTY_ASSIGNED_CONTEXT ( ( #40 ) ) GLOBAL_UNIT_ASSIGNED_CONTEXT ( ( #10, #87, #230 ) ) REPRESENTATION_CONTEXT ( 'NONE', 'WORKASPACE' ) );
#75 = EDGE_CURVE ( 'NONE', #327, #224, #113, .T. ) ;
#76 = SURFACE_STYLE_USAGE ( .BOTH. , #215 ) ;
#77 = PRESENTATION_LAYER_ASSIGNMENT (  '', '', ( #355 ) ) ;
#78 =( NAMED_UNIT ( * ) PLANE_ANGLE_UNIT ( ) SI_UNIT ( $, .RADIAN. ) );
#79 = ORIENTED_EDGE ( 'NONE', *, *, #109, .F. ) ;
#80 = LENGTH_MEASURE_WITH_UNIT ( LENGTH_MEASURE( 0.02539999999999999897 ), #166 );
#81 = CIRCLE ( 'NONE', #53, 0.1249999999999999861 ) ;
#82 = FACE_OUTER_BOUND ( 'NONE', #195, .T. ) ;
#83 = ORIENTED_EDGE ( 'NONE', *, *, #187, .T. ) ;
#84 = DIRECTION ( 'NONE',  ( -0.000000000000000000, -1.000000000000000000, -0.000000000000000000 ) ) ;
#85 = DIRECTION ( 'NONE',  ( -1.000000000000000000, 0.000000000000000000, 0.000000000000000000 ) ) ;
#86 = ORIENTED_EDGE ( 'NONE', *, *, #365, .F. ) ;
#87 =( NAMED_UNIT ( * ) PLANE_ANGLE_UNIT ( ) SI_UNIT ( $, .RADIAN. ) );
#88 = VECTOR ( 'NONE', #270, 39.37007874015748143 ) ;
#89 = AXIS2_PLACEMENT_3D ( 'NONE', #194, #145, #251 ) ;
#90 = ORIENTED_EDGE ( 'NONE', *, *, #365, .T. ) ;
#91 =( NAMED_UNIT ( * ) SI_UNIT ( $, .STERADIAN. ) SOLID_ANGLE_UNIT ( ) );
#92 = CARTESIAN_POINT ( 'NONE',  ( 9.184850993605145972E-17, 1.250000000000000000, 0.000000000000000000 ) ) ;
#93 = DIRECTION ( 'NONE',  ( 0.000000000000000000, 0.000000000000000000, -1.000000000000000000 ) ) ;
#94 = UNCERTAINTY_MEASURE_WITH_UNIT (LENGTH_MEASURE( 1.000000000000000082E-05 ), #325, 'distance_accuracy_value', 'NONE');
#95 = AXIS2_PLACEMENT_3D ( 'NONE', #185, #14, #136 ) ;
#96 = STYLED_ITEM ( 'NONE', ( #177 ), #174 ) ;
#97 = DIRECTION ( 'NONE',  ( 0.000000000000000000, 0.000000000000000000, -1.000000000000000000 ) ) ;
#98 = DIRECTION ( 'NONE',  ( -1.000000000000000000, 0.000000000000000000, 0.000000000000000000 ) ) ;
#99 = DIRECTION ( 'NONE',  ( -1.224646799147353207E-16, 1.000000000000000000, -0.000000000000000000 ) ) ;
#100 =( LENGTH_UNIT ( ) NAMED_UNIT ( * ) SI_UNIT ( $, .METRE. ) );
#101 = CARTESIAN_POINT ( 'NONE',  ( -0.1249999999999999861, 3.000000000000000444, 0.000000000000000000 ) ) ;
#102 = COLOUR_RGB ( '',1.000000000000000000, 0.000000000000000000, 0.000000000000000000 ) ;
#103 = DIRECTION ( 'NONE',  ( -0.000000000000000000, -1.000000000000000000, -0.000000000000000000 ) ) ;
#104 = CARTESIAN_POINT ( 'NONE',  ( -0.1250000000000000000, 0.1250000000000000000, 1.530808498934191201E-17 ) ) ;
#105 = SURFACE_STYLE_FILL_AREA ( #354 ) ;
#106 = EDGE_CURVE ( 'NONE', #170, #178, #322, .T. ) ;
#107 = STYLED_ITEM ( 'NONE', ( #316 ), #64 ) ;
#108 = FILL_AREA_STYLE ('',( #182 ) ) ;
#109 = EDGE_CURVE ( 'NONE', #369, #111, #311, .T. ) ;
#110 = SURFACE_SIDE_STYLE ('',( #137 ) ) ;
#111 = VERTEX_POINT ( 'NONE', #16 ) ;
#112 = SURFACE_STYLE_USAGE ( .BOTH. , #110 ) ;
#113 = CIRCLE ( 'NONE', #249, 0.1249999999999998473 ) ;
#114 = CIRCLE ( 'NONE', #306, 0.1249999999999997363 ) ;
#115 = EDGE_LOOP ( 'NONE', ( #164, #117, #142, #196 ) ) ;
#116 = SURFACE_STYLE_USAGE ( .BOTH. , #189 ) ;
#117 = ORIENTED_EDGE ( 'NONE', *, *, #109, .T. ) ;
#118 = DIRECTION ( 'NONE',  ( 1.224646799147353207E-16, -1.000000000000000000, 0.000000000000000000 ) ) ;
#119 = SPHERICAL_SURFACE ( 'NONE', #155, 0.1250000000000000000 ) ;
#120 = CARTESIAN_POINT ( 'NONE',  ( -1.530808498934191201E-17, 0.1249999999999999861, 0.000000000000000000 ) ) ;
#121 = DIRECTION ( 'NONE',  ( 1.000000000000000000, 0.000000000000000000, 0.000000000000000000 ) ) ;
#122 = ADVANCED_FACE ( 'NONE', ( #352 ), #271, .T. ) ;
#123 = DIRECTION ( 'NONE',  ( -0.000000000000000000, -1.000000000000000000, -0.000000000000000000 ) ) ;
#124 =( LENGTH_UNIT ( ) NAMED_UNIT ( * ) SI_UNIT ( $, .METRE. ) );
#125 = DIRECTION ( 'NONE',  ( -1.224646799147353207E-16, 1.000000000000000000, -0.000000000000000000 ) ) ;
#126 =( NAMED_UNIT ( * ) SI_UNIT ( $, .STERADIAN. ) SOLID_ANGLE_UNIT ( ) );
#127 =( GEOMETRIC_REPRESENTATION_CONTEXT ( 3 ) GLOBAL_UNCERTAINTY_ASSIGNED_CONTEXT ( ( #165 ) ) GLOBAL_UNIT_ASSIGNED_CONTEXT ( ( #276, #358, #220 ) ) REPRESENTATION_CONTEXT ( 'NONE', 'WORKASPACE' ) );
#128 = AXIS2_PLACEMENT_3D ( 'NONE', #38, #118, #67 ) ;
#129 = CARTESIAN_POINT ( 'NONE',  ( 0.1249999999999998335, 1.250000000000000000, 1.530808498934190276E-17 ) ) ;
#130 = DIRECTION ( 'NONE',  ( -0.000000000000000000, -1.000000000000000000, -0.000000000000000000 ) ) ;
#131 = COLOUR_RGB ( '',1.000000000000000000, 0.000000000000000000, 0.000000000000000000 ) ;
#132 = LINE ( 'NONE', #214, #156 ) ;
#133 = AXIS2_PLACEMENT_3D ( 'NONE', #341, #337, #37 ) ;
#134 =( CONVERSION_BASED_UNIT ( 'INCH', #17 ) LENGTH_UNIT ( ) NAMED_UNIT ( #48 ) );
#135 = CARTESIAN_POINT ( 'NONE',  ( 0.000000000000000000, 0.000000000000000000, 0.000000000000000000 ) ) ;
#136 = DIRECTION ( 'NONE',  ( 1.000000000000000000, 0.000000000000000000, -1.224646799147353207E-16 ) ) ;
#137 = SURFACE_STYLE_FILL_AREA ( #18 ) ;
#138 = VECTOR ( 'NONE', #84, 39.37007874015748143 ) ;
#139 = ORIENTED_EDGE ( 'NONE', *, *, #75, .T. ) ;
#140 = ADVANCED_FACE ( 'NONE', ( #82 ), #143, .T. ) ;
#141 = FILL_AREA_STYLE_COLOUR ( '', #102 ) ;
#142 = ORIENTED_EDGE ( 'NONE', *, *, #255, .F. ) ;
#143 = CYLINDRICAL_SURFACE ( 'NONE', #89, 0.1249999999999999167 ) ;
#144 = ORIENTED_EDGE ( 'NONE', *, *, #106, .T. ) ;
#145 = DIRECTION ( 'NONE',  ( -0.000000000000000000, -1.000000000000000000, -0.000000000000000000 ) ) ;
#146 = COLOUR_RGB ( '',1.000000000000000000, 0.000000000000000000, 0.000000000000000000 ) ;
#147 = EDGE_LOOP ( 'NONE', ( #79, #221, #235, #148 ) ) ;
#148 = ORIENTED_EDGE ( 'NONE', *, *, #255, .T. ) ;
#149 = EDGE_LOOP ( 'NONE', ( #357, #58, #277, #303, #252 ) ) ;
#150 = AXIS2_PLACEMENT_3D ( 'NONE', #208, #241, #350 ) ;
#151 = CARTESIAN_POINT ( 'NONE',  ( 0.000000000000000000, 1.250000000000000000, -0.1249999999999998473 ) ) ;
#152 = LENGTH_MEASURE_WITH_UNIT ( LENGTH_MEASURE( 0.02539999999999999897 ), #100 );
#153 = PLANE ( 'NONE',  #128 ) ;
#154 = CARTESIAN_POINT ( 'NONE',  ( -1.224646799147353700E-16, 3.000000000000000444, 0.000000000000000000 ) ) ;
#155 = AXIS2_PLACEMENT_3D ( 'NONE', #5, #2, #121 ) ;
#156 = VECTOR ( 'NONE', #99, 39.37007874015748143 ) ;
#157 =( LENGTH_UNIT ( ) NAMED_UNIT ( * ) SI_UNIT ( $, .METRE. ) );
#158 = EDGE_CURVE ( 'NONE', #224, #60, #272, .T. ) ;
#159 = MECHANICAL_DESIGN_GEOMETRIC_PRESENTATION_REPRESENTATION (  '', ( #269 ), #35 ) ;
#160 = CARTESIAN_POINT ( 'NONE',  ( 0.000000000000000000, 0.1250000000000000000, -0.1249999999999999861 ) ) ;
#161 = VERTEX_POINT ( 'NONE', #302 ) ;
#162 = ORIENTED_EDGE ( 'NONE', *, *, #300, .F. ) ;
#163 = FILL_AREA_STYLE_COLOUR ( '', #264 ) ;
#164 = ORIENTED_EDGE ( 'NONE', *, *, #339, .T. ) ;
#165 = UNCERTAINTY_MEASURE_WITH_UNIT (LENGTH_MEASURE( 1.000000000000000082E-05 ), #276, 'distance_accuracy_value', 'NONE');
#166 =( LENGTH_UNIT ( ) NAMED_UNIT ( * ) SI_UNIT ( $, .METRE. ) );
#167 = ORIENTED_EDGE ( 'NONE', *, *, #231, .F. ) ;
#168 = ADVANCED_FACE ( 'NONE', ( #59 ), #360, .T. ) ;
#169 = CIRCLE ( 'NONE', #15, 0.1249999999999998473 ) ;
#170 = VERTEX_POINT ( 'NONE', #172 ) ;
#171 = PRODUCT_DEFINITION_CONTEXT ( 'detailed design', #219, 'design' ) ;
#172 = CARTESIAN_POINT ( 'NONE',  ( -0.1249999999999996531, 1.250000000000000000, 0.000000000000000000 ) ) ;
#173 = ADVANCED_FACE ( 'NONE', ( #309 ), #153, .F. ) ;
#174 = MANIFOLD_SOLID_BREP ( 'Revolve - Cutting Edge', #52 ) ;
#175 = DIRECTION ( 'NONE',  ( -0.000000000000000000, -1.000000000000000000, -0.000000000000000000 ) ) ;
#176 = DIRECTION ( 'NONE',  ( -0.000000000000000000, -1.000000000000000000, -0.000000000000000000 ) ) ;
#177 = PRESENTATION_STYLE_ASSIGNMENT (( #261 ) ) ;
#178 = VERTEX_POINT ( 'NONE', #234 ) ;
#179 = UNCERTAINTY_MEASURE_WITH_UNIT (LENGTH_MEASURE( 1.000000000000000082E-05 ), #134, 'distance_accuracy_value', 'NONE');
#180 = CARTESIAN_POINT ( 'NONE',  ( 0.000000000000000000, 0.1250000000000000000, 0.000000000000000000 ) ) ;
#181 = DIRECTION ( 'NONE',  ( -1.224646799147353207E-16, 1.000000000000000000, -0.000000000000000000 ) ) ;
#182 = FILL_AREA_STYLE_COLOUR ( '', #131 ) ;
#183 = CIRCLE ( 'NONE', #150, 0.1249999999999999584 ) ;
#184 = DIMENSIONAL_EXPONENTS ( 1.000000000000000000, 0.000000000000000000, 0.000000000000000000, 0.000000000000000000, 0.000000000000000000, 0.000000000000000000, 0.000000000000000000 ) ;
#185 = CARTESIAN_POINT ( 'NONE',  ( -1.530808498934191201E-17, 0.1249999999999999861, 0.000000000000000000 ) ) ;
#186 = PRESENTATION_LAYER_ASSIGNMENT (  '', '', ( #293 ) ) ;
#187 = EDGE_CURVE ( 'NONE', #23, #170, #114, .T. ) ;
#188 = DIMENSIONAL_EXPONENTS ( 1.000000000000000000, 0.000000000000000000, 0.000000000000000000, 0.000000000000000000, 0.000000000000000000, 0.000000000000000000, 0.000000000000000000 ) ;
#189 = SURFACE_SIDE_STYLE ('',( #50 ) ) ;
#190 = CIRCLE ( 'NONE', #61, 0.1249999999999999584 ) ;
#191 = CARTESIAN_POINT ( 'NONE',  ( 0.000000000000000000, 0.000000000000000000, 0.000000000000000000 ) ) ;
#192 = ORIENTED_EDGE ( 'NONE', *, *, #275, .F. ) ;
#193 = APPLICATION_PROTOCOL_DEFINITION ( 'draft international standard', 'automotive_design', 1998, #219 ) ;
#194 = CARTESIAN_POINT ( 'NONE',  ( 0.000000000000000000, 0.000000000000000000, 0.000000000000000000 ) ) ;
#195 = EDGE_LOOP ( 'NONE', ( #167, #139, #361, #162, #247 ) ) ;
#196 = ORIENTED_EDGE ( 'NONE', *, *, #200, .T. ) ;
#197 = UNCERTAINTY_MEASURE_WITH_UNIT (LENGTH_MEASURE( 1.000000000000000082E-05 ), #310, 'distance_accuracy_value', 'NONE');
#198 = APPLICATION_CONTEXT ( 'automotive_design' ) ;
#199 = PRODUCT_CONTEXT ( 'NONE', #198, 'mechanical' ) ;
#200 = EDGE_CURVE ( 'NONE', #32, #274, #324, .T. ) ;
#201 = SURFACE_STYLE_FILL_AREA ( #238 ) ;
#202 = LINE ( 'NONE', #259, #216 ) ;
#203 = CARTESIAN_POINT ( 'NONE',  ( -1.224646799147353700E-16, 3.000000000000000444, 0.000000000000000000 ) ) ;
#204 = FILL_AREA_STYLE_COLOUR ( '', #146 ) ;
#205 = MECHANICAL_DESIGN_GEOMETRIC_PRESENTATION_REPRESENTATION (  '', ( #263 ), #285 ) ;
#206 = CIRCLE ( 'NONE', #228, 0.1250000000000000000 ) ;
#207 = CARTESIAN_POINT ( 'NONE',  ( 1.530808498934189968E-17, 1.250000000000000000, 0.1249999999999998473 ) ) ;
#208 = CARTESIAN_POINT ( 'NONE',  ( -1.224646799147353700E-16, 3.000000000000000444, 0.000000000000000000 ) ) ;
#209 = ORIENTED_EDGE ( 'NONE', *, *, #75, .F. ) ;
#210 = FILL_AREA_STYLE_COLOUR ( '', #342 ) ;
#211 = AXIS2_PLACEMENT_3D ( 'NONE', #135, #301, #353 ) ;
#212 = CARTESIAN_POINT ( 'NONE',  ( 0.000000000000000000, 0.1250000000000000000, 0.000000000000000000 ) ) ;
#213 = SURFACE_SIDE_STYLE ('',( #244 ) ) ;
#214 = CARTESIAN_POINT ( 'NONE',  ( 0.1249999999999997363, 3.000000000000000444, 1.530808498934189660E-17 ) ) ;
#215 = SURFACE_SIDE_STYLE ('',( #105 ) ) ;
#216 = VECTOR ( 'NONE', #1, 39.37007874015748143 ) ;
#217 = ORIENTED_EDGE ( 'NONE', *, *, #8, .F. ) ;
#218 = DIMENSIONAL_EXPONENTS ( 1.000000000000000000, 0.000000000000000000, 0.000000000000000000, 0.000000000000000000, 0.000000000000000000, 0.000000000000000000, 0.000000000000000000 ) ;
#219 = APPLICATION_CONTEXT ( 'automotive_design' ) ;
#220 =( NAMED_UNIT ( * ) SI_UNIT ( $, .STERADIAN. ) SOLID_ANGLE_UNIT ( ) );
#221 = ORIENTED_EDGE ( 'NONE', *, *, #300, .T. ) ;
#222 = AXIS2_PLACEMENT_3D ( 'NONE', #351, #49, #297 ) ;
#223 = STYLED_ITEM ( 'NONE', ( #326 ), #168 ) ;
#224 = VERTEX_POINT ( 'NONE', #151 ) ;
#225 = CARTESIAN_POINT ( 'NONE',  ( 0.000000000000000000, 0.000000000000000000, -0.1249999999999999167 ) ) ;
#226 = ORIENTED_EDGE ( 'NONE', *, *, #373, .F. ) ;
#227 = DIRECTION ( 'NONE',  ( -1.224646799147353207E-16, 1.000000000000000000, -0.000000000000000000 ) ) ;
#228 = AXIS2_PLACEMENT_3D ( 'NONE', #120, #257, #232 ) ;
#229 = CARTESIAN_POINT ( 'NONE',  ( 0.1249999999999999861, 0.1250000000000000000, 0.000000000000000000 ) ) ;
#230 =( NAMED_UNIT ( * ) SI_UNIT ( $, .STERADIAN. ) SOLID_ANGLE_UNIT ( ) );
#231 = EDGE_CURVE ( 'NONE', #327, #274, #202, .T. ) ;
#232 = DIRECTION ( 'NONE',  ( -1.000000000000000000, 0.000000000000000000, 0.000000000000000000 ) ) ;
#233 = FILL_AREA_STYLE ('',( #34 ) ) ;
#234 = CARTESIAN_POINT ( 'NONE',  ( -0.1250000000000000833, 3.000000000000000444, 0.000000000000000000 ) ) ;
#235 = ORIENTED_EDGE ( 'NONE', *, *, #13, .T. ) ;
#236 = DIRECTION ( 'NONE',  ( -1.000000000000000000, 0.000000000000000000, 0.000000000000000000 ) ) ;
#237 =( GEOMETRIC_REPRESENTATION_CONTEXT ( 3 ) GLOBAL_UNCERTAINTY_ASSIGNED_CONTEXT ( ( #313 ) ) GLOBAL_UNIT_ASSIGNED_CONTEXT ( ( #282, #65, #91 ) ) REPRESENTATION_CONTEXT ( 'NONE', 'WORKASPACE' ) );
#238 = FILL_AREA_STYLE ('',( #204 ) ) ;
#239 = DIRECTION ( 'NONE',  ( 0.000000000000000000, 0.000000000000000000, -1.000000000000000000 ) ) ;
#240 = AXIS2_PLACEMENT_3D ( 'NONE', #308, #66, #98 ) ;
#241 = DIRECTION ( 'NONE',  ( -1.224646799147353207E-16, 1.000000000000000000, -0.000000000000000000 ) ) ;
#242 = PRODUCT_DEFINITION_SHAPE ( 'NONE', 'NONE',  #304 ) ;
#243 = LENGTH_MEASURE_WITH_UNIT ( LENGTH_MEASURE( 0.02539999999999999897 ), #124 );
#244 = SURFACE_STYLE_FILL_AREA ( #108 ) ;
#245 = MECHANICAL_DESIGN_GEOMETRIC_PRESENTATION_REPRESENTATION (  '', ( #107 ), #46 ) ;
#246 = AXIS2_PLACEMENT_3D ( 'NONE', #191, #366, #356 ) ;
#247 = ORIENTED_EDGE ( 'NONE', *, *, #339, .F. ) ;
#248 = PRESENTATION_STYLE_ASSIGNMENT (( #116 ) ) ;
#249 = AXIS2_PLACEMENT_3D ( 'NONE', #315, #103, #239 ) ;
#250 = CIRCLE ( 'NONE', #7, 0.1249999999999999861 ) ;
#251 = DIRECTION ( 'NONE',  ( 0.000000000000000000, 0.000000000000000000, -1.000000000000000000 ) ) ;
#252 = ORIENTED_EDGE ( 'NONE', *, *, #158, .F. ) ;
#253 = SURFACE_STYLE_FILL_AREA ( #63 ) ;
#254 = SURFACE_SIDE_STYLE ('',( #201 ) ) ;
#255 = EDGE_CURVE ( 'NONE', #32, #111, #206, .T. ) ;
#256 = DIRECTION ( 'NONE',  ( 0.000000000000000000, 0.000000000000000000, -1.000000000000000000 ) ) ;
#257 = DIRECTION ( 'NONE',  ( 0.000000000000000000, 0.000000000000000000, -1.000000000000000000 ) ) ;
#258 = SURFACE_STYLE_USAGE ( .BOTH. , #71 ) ;
#259 = CARTESIAN_POINT ( 'NONE',  ( 1.530808498934190276E-17, 0.000000000000000000, 0.1249999999999999167 ) ) ;
#260 = DIRECTION ( 'NONE',  ( -1.224646799147353207E-16, 1.000000000000000000, 0.000000000000000000 ) ) ;
#261 = SURFACE_STYLE_USAGE ( .BOTH. , #371 ) ;
#262 = CYLINDRICAL_SURFACE ( 'NONE', #336, 0.1249999999999998612 ) ;
#263 = STYLED_ITEM ( 'NONE', ( #68 ), #57 ) ;
#264 = COLOUR_RGB ( '',1.000000000000000000, 0.000000000000000000, 0.000000000000000000 ) ;
#265 = LENGTH_MEASURE_WITH_UNIT ( LENGTH_MEASURE( 0.02539999999999999897 ), #317 );
#266 = EDGE_CURVE ( 'NONE', #224, #327, #169, .T. ) ;
#267 =( NAMED_UNIT ( * ) SI_UNIT ( $, .STERADIAN. ) SOLID_ANGLE_UNIT ( ) );
#268 = DIRECTION ( 'NONE',  ( -1.000000000000000000, -1.224646799147353207E-16, 0.000000000000000000 ) ) ;
#269 = STYLED_ITEM ( 'NONE', ( #372 ), #24 ) ;
#270 = DIRECTION ( 'NONE',  ( -1.224646799147353207E-16, 1.000000000000000000, -0.000000000000000000 ) ) ;
#271 = CYLINDRICAL_SURFACE ( 'NONE', #246, 0.1249999999999999167 ) ;
#272 = LINE ( 'NONE', #225, #138 ) ;
#273 = ORIENTED_EDGE ( 'NONE', *, *, #266, .F. ) ;
#274 = VERTEX_POINT ( 'NONE', #4 ) ;
#275 = EDGE_CURVE ( 'NONE', #170, #23, #319, .T. ) ;
#276 =( CONVERSION_BASED_UNIT ( 'INCH', #368 ) LENGTH_UNIT ( ) NAMED_UNIT ( #184 ) );
#277 = ORIENTED_EDGE ( 'NONE', *, *, #200, .F. ) ;
#278 = UNCERTAINTY_MEASURE_WITH_UNIT (LENGTH_MEASURE( 1.000000000000000082E-05 ), #29, 'distance_accuracy_value', 'NONE');
#279 = MECHANICAL_DESIGN_GEOMETRIC_PRESENTATION_REPRESENTATION (  '', ( #355 ), #36 ) ;
#280 = LENGTH_MEASURE_WITH_UNIT ( LENGTH_MEASURE( 0.02539999999999999897 ), #21 );
#281 = ORIENTED_EDGE ( 'NONE', *, *, #8, .T. ) ;
#282 =( CONVERSION_BASED_UNIT ( 'INCH', #289 ) LENGTH_UNIT ( ) NAMED_UNIT ( #321 ) );
#283 = CYLINDRICAL_SURFACE ( 'NONE', #240, 0.1249999999999998612 ) ;
#284 = CARTESIAN_POINT ( 'NONE',  ( 0.000000000000000000, 0.1250000000000000000, 0.000000000000000000 ) ) ;
#285 =( GEOMETRIC_REPRESENTATION_CONTEXT ( 3 ) GLOBAL_UNCERTAINTY_ASSIGNED_CONTEXT ( ( #346 ) ) GLOBAL_UNIT_ASSIGNED_CONTEXT ( ( #44, #318, #267 ) ) REPRESENTATION_CONTEXT ( 'NONE', 'WORKASPACE' ) );
#286 = CARTESIAN_POINT ( 'NONE',  ( 0.000000000000000000, 1.250000000000000000, 0.000000000000000000 ) ) ;
#287 = MECHANICAL_DESIGN_GEOMETRIC_PRESENTATION_REPRESENTATION (  '', ( #223 ), #28 ) ;
#288 = ORIENTED_EDGE ( 'NONE', *, *, #187, .F. ) ;
#289 = LENGTH_MEASURE_WITH_UNIT ( LENGTH_MEASURE( 0.02539999999999999897 ), #307 );
#290 = DIRECTION ( 'NONE',  ( -1.224646799147353207E-16, 1.000000000000000000, -0.000000000000000000 ) ) ;
#291 = CARTESIAN_POINT ( 'NONE',  ( 0.000000000000000000, 0.1250000000000000000, 0.000000000000000000 ) ) ;
#292 = FACE_OUTER_BOUND ( 'NONE', #30, .T. ) ;
#293 = STYLED_ITEM ( 'NONE', ( #72 ), #122 ) ;
#294 = COLOUR_RGB ( '',0.7921568627450980005, 0.8196078431372548767, 0.9333333333333333481 ) ;
#295 = FACE_OUTER_BOUND ( 'NONE', #115, .T. ) ;
#296 = DIMENSIONAL_EXPONENTS ( 1.000000000000000000, 0.000000000000000000, 0.000000000000000000, 0.000000000000000000, 0.000000000000000000, 0.000000000000000000, 0.000000000000000000 ) ;
#297 = DIRECTION ( 'NONE',  ( 1.000000000000000000, 0.000000000000000000, 0.000000000000000000 ) ) ;
#298 = AXIS2_PLACEMENT_3D ( 'NONE', #284, #176, #93 ) ;
#299 = DIMENSIONAL_EXPONENTS ( 1.000000000000000000, 0.000000000000000000, 0.000000000000000000, 0.000000000000000000, 0.000000000000000000, 0.000000000000000000, 0.000000000000000000 ) ;
#300 = EDGE_CURVE ( 'NONE', #369, #60, #250, .T. ) ;
#301 = DIRECTION ( 'NONE',  ( 0.000000000000000000, 0.000000000000000000, 1.000000000000000000 ) ) ;
#302 = CARTESIAN_POINT ( 'NONE',  ( 0.1249999999999998473, 3.000000000000000444, 1.530808498934190585E-17 ) ) ;
#303 = ORIENTED_EDGE ( 'NONE', *, *, #13, .F. ) ;
#304 = PRODUCT_DEFINITION ( 'UNKNOWN', '', #329, #171 ) ;
#305 = CIRCLE ( 'NONE', #298, 0.1249999999999999861 ) ;
#306 = AXIS2_PLACEMENT_3D ( 'NONE', #33, #227, #85 ) ;
#307 =( LENGTH_UNIT ( ) NAMED_UNIT ( * ) SI_UNIT ( $, .METRE. ) );
#308 = CARTESIAN_POINT ( 'NONE',  ( -1.224646799147353700E-16, 3.000000000000000444, 0.000000000000000000 ) ) ;
#309 = FACE_OUTER_BOUND ( 'NONE', #26, .T. ) ;
#310 =( CONVERSION_BASED_UNIT ( 'INCH', #152 ) LENGTH_UNIT ( ) NAMED_UNIT ( #188 ) );
#311 = CIRCLE ( 'NONE', #95, 0.1250000000000000000 ) ;
#312 = AXIS2_PLACEMENT_3D ( 'NONE', #291, #175, #256 ) ;
#313 = UNCERTAINTY_MEASURE_WITH_UNIT (LENGTH_MEASURE( 1.000000000000000082E-05 ), #282, 'distance_accuracy_value', 'NONE');
#314 = FACE_OUTER_BOUND ( 'NONE', #367, .T. ) ;
#315 = CARTESIAN_POINT ( 'NONE',  ( 0.000000000000000000, 1.250000000000000000, 0.000000000000000000 ) ) ;
#316 = PRESENTATION_STYLE_ASSIGNMENT (( #11 ) ) ;
#317 =( LENGTH_UNIT ( ) NAMED_UNIT ( * ) SI_UNIT ( $, .METRE. ) );
#318 =( NAMED_UNIT ( * ) PLANE_ANGLE_UNIT ( ) SI_UNIT ( $, .RADIAN. ) );
#319 = CIRCLE ( 'NONE', #47, 0.1249999999999997363 ) ;
#320 =( NAMED_UNIT ( * ) SI_UNIT ( $, .STERADIAN. ) SOLID_ANGLE_UNIT ( ) );
#321 = DIMENSIONAL_EXPONENTS ( 1.000000000000000000, 0.000000000000000000, 0.000000000000000000, 0.000000000000000000, 0.000000000000000000, 0.000000000000000000, 0.000000000000000000 ) ;
#322 = LINE ( 'NONE', #101, #88 ) ;
#323 = PRODUCT_RELATED_PRODUCT_CATEGORY ( 'part', '', ( #54 ) ) ;
#324 = CIRCLE ( 'NONE', #312, 0.1249999999999999861 ) ;
#325 =( CONVERSION_BASED_UNIT ( 'INCH', #80 ) LENGTH_UNIT ( ) NAMED_UNIT ( #218 ) );
#326 = PRESENTATION_STYLE_ASSIGNMENT (( #112 ) ) ;
#327 = VERTEX_POINT ( 'NONE', #207 ) ;
#328 = COLOUR_RGB ( '',0.7921568627450980005, 0.8196078431372548767, 0.9333333333333333481 ) ;
#329 = PRODUCT_DEFINITION_FORMATION_WITH_SPECIFIED_SOURCE ( 'ANY', '', #54, .NOT_KNOWN. ) ;
#330 = ORIENTED_EDGE ( 'NONE', *, *, #373, .T. ) ;
#331 = ADVANCED_FACE ( 'NONE', ( #314 ), #70, .F. ) ;
#332 = ADVANCED_BREP_SHAPE_REPRESENTATION ( '81459', ( #174, #57, #211 ), #74 ) ;
#333 = FILL_AREA_STYLE_COLOUR ( '', #294 ) ;
#334 = EDGE_LOOP ( 'NONE', ( #273, #209 ) ) ;
#335 = CLOSED_SHELL ( 'NONE', ( #19, #331, #55, #173 ) ) ;
#336 = AXIS2_PLACEMENT_3D ( 'NONE', #203, #290, #338 ) ;
#337 = DIRECTION ( 'NONE',  ( 0.000000000000000000, 1.000000000000000000, 0.000000000000000000 ) ) ;
#338 = DIRECTION ( 'NONE',  ( -1.000000000000000000, 0.000000000000000000, 0.000000000000000000 ) ) ;
#339 = EDGE_CURVE ( 'NONE', #274, #369, #81, .T. ) ;
#340 = SURFACE_STYLE_FILL_AREA ( #233 ) ;
#341 = CARTESIAN_POINT ( 'NONE',  ( 0.000000000000000000, 1.250000000000000000, 0.000000000000000000 ) ) ;
#342 = COLOUR_RGB ( '',1.000000000000000000, 0.000000000000000000, 0.000000000000000000 ) ;
#343 = DIRECTION ( 'NONE',  ( -0.000000000000000000, -1.000000000000000000, -0.000000000000000000 ) ) ;
#344 = MECHANICAL_DESIGN_GEOMETRIC_PRESENTATION_REPRESENTATION (  '', ( #96 ), #237 ) ;
#345 = FACE_OUTER_BOUND ( 'NONE', #20, .T. ) ;
#346 = UNCERTAINTY_MEASURE_WITH_UNIT (LENGTH_MEASURE( 1.000000000000000082E-05 ), #44, 'distance_accuracy_value', 'NONE');
#347 = SURFACE_STYLE_USAGE ( .BOTH. , #254 ) ;
#348 = DIMENSIONAL_EXPONENTS ( 1.000000000000000000, 0.000000000000000000, 0.000000000000000000, 0.000000000000000000, 0.000000000000000000, 0.000000000000000000, 0.000000000000000000 ) ;
#349 =( LENGTH_UNIT ( ) NAMED_UNIT ( * ) SI_UNIT ( $, .METRE. ) );
#350 = DIRECTION ( 'NONE',  ( -1.000000000000000000, 0.000000000000000000, 0.000000000000000000 ) ) ;
#351 = CARTESIAN_POINT ( 'NONE',  ( -1.530808498934191201E-17, 0.1249999999999999861, 0.000000000000000000 ) ) ;
#352 = FACE_OUTER_BOUND ( 'NONE', #149, .T. ) ;
#353 = DIRECTION ( 'NONE',  ( 1.000000000000000000, 0.000000000000000000, 0.000000000000000000 ) ) ;
#354 = FILL_AREA_STYLE ('',( #210 ) ) ;
#355 = STYLED_ITEM ( 'NONE', ( #248 ), #140 ) ;
#356 = DIRECTION ( 'NONE',  ( 0.000000000000000000, 0.000000000000000000, -1.000000000000000000 ) ) ;
#357 = ORIENTED_EDGE ( 'NONE', *, *, #266, .T. ) ;
#358 =( NAMED_UNIT ( * ) PLANE_ANGLE_UNIT ( ) SI_UNIT ( $, .RADIAN. ) );
#359 = ORIENTED_EDGE ( 'NONE', *, *, #106, .F. ) ;
#360 = PLANE ( 'NONE',  #133 ) ;
#361 = ORIENTED_EDGE ( 'NONE', *, *, #158, .T. ) ;
#362 = SHAPE_DEFINITION_REPRESENTATION ( #242, #332 ) ;
#363 = PRESENTATION_LAYER_ASSIGNMENT (  '', '', ( #263 ) ) ;
#364 = PRESENTATION_LAYER_ASSIGNMENT (  '', '', ( #96 ) ) ;
#365 = EDGE_CURVE ( 'NONE', #23, #161, #132, .T. ) ;
#366 = DIRECTION ( 'NONE',  ( -0.000000000000000000, -1.000000000000000000, -0.000000000000000000 ) ) ;
#367 = EDGE_LOOP ( 'NONE', ( #192, #288 ) ) ;
#368 = LENGTH_MEASURE_WITH_UNIT ( LENGTH_MEASURE( 0.02539999999999999897 ), #349 );
#369 = VERTEX_POINT ( 'NONE', #104 ) ;
#370 = APPLICATION_PROTOCOL_DEFINITION ( 'draft international standard', 'automotive_design', 1998, #198 ) ;
#371 = SURFACE_SIDE_STYLE ('',( #253 ) ) ;
#372 = PRESENTATION_STYLE_ASSIGNMENT (( #347 ) ) ;
#373 = EDGE_CURVE ( 'NONE', #161, #178, #183, .T. ) ;
ENDSEC;
END-ISO-10303-21;
