ISO-10303-21;
HEADER;
FILE_DESCRIPTION (( 'STEP AP214' ),
    '1' );
FILE_NAME ('Micro_RSC-375-14.STEP',
    '2021-09-03T17:52:04',
    ( '' ),
    ( '' ),
    'SwSTEP 2.0',
    'SolidWorks 2020',
    '' );
FILE_SCHEMA (( 'AUTOMOTIVE_DESIGN' ));
ENDSEC;

DATA;
#1 = EDGE_CURVE ( 'NONE', #130, #19, #102, .T. ) ;
#2 = CYLINDRICAL_SURFACE ( 'NONE', #7, 0.1875000000000000278 ) ;
#3 = VECTOR ( 'NONE', #196, 39.37007874015748143 ) ;
#4 = DIRECTION ( 'NONE',  ( 0.0000000000000000000, 0.0000000000000000000, -1.000000000000000000 ) ) ;
#5 = DIRECTION ( 'NONE',  ( -1.000000000000000000, 0.0000000000000000000, 0.0000000000000000000 ) ) ;
#6 = ORIENTED_EDGE ( 'NONE', *, *, #98, .F. ) ;
#7 = AXIS2_PLACEMENT_3D ( 'NONE', #21, #41, #103 ) ;
#8 =( CONVERSION_BASED_UNIT ( 'INCH', #121 ) LENGTH_UNIT ( ) NAMED_UNIT ( #88 ) );
#9 = ADVANCED_FACE ( 'NONE', ( #216 ), #40, .T. ) ;
#10 = ADVANCED_BREP_SHAPE_REPRESENTATION ( 'Micro_RSC-375-14', ( #211, #105 ), #182 ) ;
#11 = SURFACE_STYLE_FILL_AREA ( #90 ) ;
#12 = ADVANCED_FACE ( 'NONE', ( #238 ), #2, .T. ) ;
#13 = EDGE_LOOP ( 'NONE', ( #92, #117, #209, #248 ) ) ;
#14 = VECTOR ( 'NONE', #176, 39.37007874015748854 ) ;
#15 = PRODUCT_DEFINITION_FORMATION_WITH_SPECIFIED_SOURCE ( 'ANY', '', #42, .NOT_KNOWN. ) ;
#16 = DIRECTION ( 'NONE',  ( 0.0000000000000000000, 0.0000000000000000000, 1.000000000000000000 ) ) ;
#17 = VECTOR ( 'NONE', #221, 39.37007874015748854 ) ;
#18 = FACE_OUTER_BOUND ( 'NONE', #38, .T. ) ;
#19 = VERTEX_POINT ( 'NONE', #58 ) ;
#20 = AXIS2_PLACEMENT_3D ( 'NONE', #124, #220, #205 ) ;
#21 = CARTESIAN_POINT ( 'NONE',  ( 0.0000000000000000000, 0.0000000000000000000, 4.000000000000000000 ) ) ;
#22 = DIRECTION ( 'NONE',  ( -1.000000000000000000, 0.0000000000000000000, 0.0000000000000000000 ) ) ;
#23 = UNCERTAINTY_MEASURE_WITH_UNIT (LENGTH_MEASURE( 1.000000000000000082E-05 ), #8, 'distance_accuracy_value', 'NONE');
#24 =( NAMED_UNIT ( * ) PLANE_ANGLE_UNIT ( ) SI_UNIT ( $, .RADIAN. ) );
#25 = AXIS2_PLACEMENT_3D ( 'NONE', #147, #4, #199 ) ;
#26 = EDGE_CURVE ( 'NONE', #197, #231, #111, .T. ) ;
#27 = COLOUR_RGB ( '',0.7921568627450980005, 0.8196078431372548767, 0.9333333333333333481 ) ;
#28 = CARTESIAN_POINT ( 'NONE',  ( 0.0000000000000000000, 0.0000000000000000000, 4.000000000000000000 ) ) ;
#29 = PRESENTATION_STYLE_ASSIGNMENT (( #149 ) ) ;
#30 = FACE_OUTER_BOUND ( 'NONE', #247, .T. ) ;
#31 = AXIS2_PLACEMENT_3D ( 'NONE', #160, #236, #178 ) ;
#32 =( GEOMETRIC_REPRESENTATION_CONTEXT ( 3 ) GLOBAL_UNCERTAINTY_ASSIGNED_CONTEXT ( ( #23 ) ) GLOBAL_UNIT_ASSIGNED_CONTEXT ( ( #8, #24, #184 ) ) REPRESENTATION_CONTEXT ( 'NONE', 'WORKASPACE' ) );
#33 = DIRECTION ( 'NONE',  ( -0.0000000000000000000, -0.0000000000000000000, -1.000000000000000000 ) ) ;
#34 =( NAMED_UNIT ( * ) PLANE_ANGLE_UNIT ( ) SI_UNIT ( $, .RADIAN. ) );
#35 = ORIENTED_EDGE ( 'NONE', *, *, #81, .T. ) ;
#36 = ORIENTED_EDGE ( 'NONE', *, *, #1, .F. ) ;
#37 = VERTEX_POINT ( 'NONE', #179 ) ;
#38 = EDGE_LOOP ( 'NONE', ( #232, #229 ) ) ;
#39 = ORIENTED_EDGE ( 'NONE', *, *, #226, .T. ) ;
#40 = CYLINDRICAL_SURFACE ( 'NONE', #249, 0.1875000000000000278 ) ;
#41 = DIRECTION ( 'NONE',  ( -0.0000000000000000000, -0.0000000000000000000, -1.000000000000000000 ) ) ;
#42 = PRODUCT ( 'Micro_RSC-375-14', 'Micro_RSC-375-14', '', ( #171 ) ) ;
#43 = AXIS2_PLACEMENT_3D ( 'NONE', #28, #222, #165 ) ;
#44 = ORIENTED_EDGE ( 'NONE', *, *, #135, .F. ) ;
#45 = CARTESIAN_POINT ( 'NONE',  ( 0.0000000000000000000, 0.0000000000000000000, 0.3178313231888877932 ) ) ;
#46 = FACE_OUTER_BOUND ( 'NONE', #13, .T. ) ;
#47 = DIRECTION ( 'NONE',  ( 0.0000000000000000000, 0.0000000000000000000, 1.000000000000000000 ) ) ;
#48 =( LENGTH_UNIT ( ) NAMED_UNIT ( * ) SI_UNIT ( $, .METRE. ) );
#49 = CARTESIAN_POINT ( 'NONE',  ( 0.0000000000000000000, 0.0000000000000000000, 0.0000000000000000000 ) ) ;
#50 = EDGE_LOOP ( 'NONE', ( #35, #54, #131, #55 ) ) ;
#51 = APPLICATION_PROTOCOL_DEFINITION ( 'draft international standard', 'automotive_design', 1998, #183 ) ;
#52 =( GEOMETRIC_REPRESENTATION_CONTEXT ( 3 ) GLOBAL_UNCERTAINTY_ASSIGNED_CONTEXT ( ( #86 ) ) GLOBAL_UNIT_ASSIGNED_CONTEXT ( ( #70, #34, #67 ) ) REPRESENTATION_CONTEXT ( 'NONE', 'WORKASPACE' ) );
#53 = LENGTH_MEASURE_WITH_UNIT ( LENGTH_MEASURE( 0.02539999999999999897 ), #73 );
#54 = ORIENTED_EDGE ( 'NONE', *, *, #181, .T. ) ;
#55 = ORIENTED_EDGE ( 'NONE', *, *, #153, .F. ) ;
#56 = DIRECTION ( 'NONE',  ( 0.7071067811865321406, 8.659560562354744271E-17, -0.7071067811865627828 ) ) ;
#57 = CARTESIAN_POINT ( 'NONE',  ( -0.1724999999999998757, 0.0000000000000000000, 4.000000000000000000 ) ) ;
#58 = CARTESIAN_POINT ( 'NONE',  ( 0.1875000000000000278, 2.296212748401287726E-17, 3.984999999999998987 ) ) ;
#59 = LINE ( 'NONE', #233, #3 ) ;
#60 = AXIS2_PLACEMENT_3D ( 'NONE', #237, #120, #83 ) ;
#61 = CARTESIAN_POINT ( 'NONE',  ( -0.003999999999999999216, 4.898587196589411612E-19, 0.0000000000000000000 ) ) ;
#62 = EDGE_CURVE ( 'NONE', #74, #37, #68, .T. ) ;
#63 = DIRECTION ( 'NONE',  ( -1.000000000000000000, 0.0000000000000000000, 0.0000000000000000000 ) ) ;
#64 = DIRECTION ( 'NONE',  ( -1.000000000000000000, 0.0000000000000000000, 0.0000000000000000000 ) ) ;
#65 = MECHANICAL_DESIGN_GEOMETRIC_PRESENTATION_REPRESENTATION (  '', ( #134 ), #52 ) ;
#66 = DIRECTION ( 'NONE',  ( 1.000000000000000000, 0.0000000000000000000, 0.0000000000000000000 ) ) ;
#67 =( NAMED_UNIT ( * ) SI_UNIT ( $, .STERADIAN. ) SOLID_ANGLE_UNIT ( ) );
#68 = CIRCLE ( 'NONE', #212, 0.1875000000000000278 ) ;
#69 = ADVANCED_FACE ( 'NONE', ( #78 ), #99, .T. ) ;
#70 =( CONVERSION_BASED_UNIT ( 'INCH', #53 ) LENGTH_UNIT ( ) NAMED_UNIT ( #194 ) );
#71 =( NAMED_UNIT ( * ) PLANE_ANGLE_UNIT ( ) SI_UNIT ( $, .RADIAN. ) );
#72 = ORIENTED_EDGE ( 'NONE', *, *, #135, .T. ) ;
#73 =( LENGTH_UNIT ( ) NAMED_UNIT ( * ) SI_UNIT ( $, .METRE. ) );
#74 = VERTEX_POINT ( 'NONE', #239 ) ;
#75 = AXIS2_PLACEMENT_3D ( 'NONE', #152, #241, #63 ) ;
#76 = EDGE_CURVE ( 'NONE', #231, #74, #159, .T. ) ;
#77 = ORIENTED_EDGE ( 'NONE', *, *, #153, .T. ) ;
#78 = FACE_OUTER_BOUND ( 'NONE', #158, .T. ) ;
#79 = CLOSED_SHELL ( 'NONE', ( #128, #242, #12, #9, #69, #175, #170, #154 ) ) ;
#80 = CIRCLE ( 'NONE', #186, 0.1724999999999998757 ) ;
#81 = EDGE_CURVE ( 'NONE', #192, #19, #141, .T. ) ;
#82 = DIRECTION ( 'NONE',  ( 1.000000000000000000, 0.0000000000000000000, 0.0000000000000000000 ) ) ;
#83 = DIRECTION ( 'NONE',  ( 1.000000000000000000, 0.0000000000000000000, 0.0000000000000000000 ) ) ;
#84 = CARTESIAN_POINT ( 'NONE',  ( 0.0000000000000000000, 0.0000000000000000000, 4.000000000000000000 ) ) ;
#85 = CARTESIAN_POINT ( 'NONE',  ( 0.003999999999999999216, 0.0000000000000000000, 0.0000000000000000000 ) ) ;
#86 = UNCERTAINTY_MEASURE_WITH_UNIT (LENGTH_MEASURE( 1.000000000000000082E-05 ), #70, 'distance_accuracy_value', 'NONE');
#87 = CARTESIAN_POINT ( 'NONE',  ( 0.0000000000000000000, 0.0000000000000000000, 4.000000000000000000 ) ) ;
#88 = DIMENSIONAL_EXPONENTS ( 1.000000000000000000, 0.0000000000000000000, 0.0000000000000000000, 0.0000000000000000000, 0.0000000000000000000, 0.0000000000000000000, 0.0000000000000000000 ) ;
#89 = SURFACE_SIDE_STYLE ('',( #207 ) ) ;
#90 = FILL_AREA_STYLE ('',( #129 ) ) ;
#91 = APPLICATION_PROTOCOL_DEFINITION ( 'draft international standard', 'automotive_design', 1998, #223 ) ;
#92 = ORIENTED_EDGE ( 'NONE', *, *, #76, .F. ) ;
#93 = PRESENTATION_STYLE_ASSIGNMENT (( #208 ) ) ;
#94 = ORIENTED_EDGE ( 'NONE', *, *, #234, .F. ) ;
#95 = PRODUCT_DEFINITION_CONTEXT ( 'detailed design', #183, 'design' ) ;
#96 = VECTOR ( 'NONE', #33, 39.37007874015748143 ) ;
#97 = CARTESIAN_POINT ( 'NONE',  ( 0.1724999999999998757, 2.112515728529182686E-17, 4.000000000000000000 ) ) ;
#98 = EDGE_CURVE ( 'NONE', #231, #197, #210, .T. ) ;
#99 = PLANE ( 'NONE',  #145 ) ;
#100 = AXIS2_PLACEMENT_3D ( 'NONE', #140, #218, #82 ) ;
#101 = MECHANICAL_DESIGN_GEOMETRIC_PRESENTATION_REPRESENTATION (  '', ( #227 ), #32 ) ;
#102 = LINE ( 'NONE', #97, #225 ) ;
#103 = DIRECTION ( 'NONE',  ( -1.000000000000000000, 0.0000000000000000000, 0.0000000000000000000 ) ) ;
#104 = CARTESIAN_POINT ( 'NONE',  ( 0.0000000000000000000, 0.0000000000000000000, 0.0000000000000000000 ) ) ;
#105 = AXIS2_PLACEMENT_3D ( 'NONE', #157, #16, #114 ) ;
#106 = PRODUCT_RELATED_PRODUCT_CATEGORY ( 'part', '', ( #42 ) ) ;
#107 = FILL_AREA_STYLE_COLOUR ( '', #27 ) ;
#108 = DIRECTION ( 'NONE',  ( 1.000000000000000000, 0.0000000000000000000, 0.0000000000000000000 ) ) ;
#109 = VERTEX_POINT ( 'NONE', #57 ) ;
#110 = SURFACE_SIDE_STYLE ('',( #11 ) ) ;
#111 = CIRCLE ( 'NONE', #235, 0.003999999999999999216 ) ;
#112 = ORIENTED_EDGE ( 'NONE', *, *, #1, .T. ) ;
#113 = PRESENTATION_LAYER_ASSIGNMENT (  '', '', ( #227 ) ) ;
#114 = DIRECTION ( 'NONE',  ( 1.000000000000000000, 0.0000000000000000000, 0.0000000000000000000 ) ) ;
#115 = DIRECTION ( 'NONE',  ( 0.0000000000000000000, 0.0000000000000000000, 1.000000000000000000 ) ) ;
#116 = UNCERTAINTY_MEASURE_WITH_UNIT (LENGTH_MEASURE( 1.000000000000000082E-05 ), #246, 'distance_accuracy_value', 'NONE');
#117 = ORIENTED_EDGE ( 'NONE', *, *, #26, .F. ) ;
#118 = DIRECTION ( 'NONE',  ( -0.5000000000000013323, 6.123233995736782060E-17, 0.8660254037844377084 ) ) ;
#119 = CONICAL_SURFACE ( 'NONE', #127, 0.1724999999999998757, 0.7853981633974266297 ) ;
#120 = DIRECTION ( 'NONE',  ( 0.0000000000000000000, 0.0000000000000000000, -1.000000000000000000 ) ) ;
#121 = LENGTH_MEASURE_WITH_UNIT ( LENGTH_MEASURE( 0.02539999999999999897 ), #123 );
#122 = VECTOR ( 'NONE', #118, 39.37007874015748854 ) ;
#123 =( LENGTH_UNIT ( ) NAMED_UNIT ( * ) SI_UNIT ( $, .METRE. ) );
#124 = CARTESIAN_POINT ( 'NONE',  ( 0.0000000000000000000, 0.0000000000000000000, 4.000000000000000000 ) ) ;
#125 = LENGTH_MEASURE_WITH_UNIT ( LENGTH_MEASURE( 0.02539999999999999897 ), #48 );
#126 = FILL_AREA_STYLE ('',( #107 ) ) ;
#127 = AXIS2_PLACEMENT_3D ( 'NONE', #167, #243, #64 ) ;
#128 = ADVANCED_FACE ( 'NONE', ( #213 ), #240, .T. ) ;
#129 = FILL_AREA_STYLE_COLOUR ( '', #203 ) ;
#130 = VERTEX_POINT ( 'NONE', #161 ) ;
#131 = ORIENTED_EDGE ( 'NONE', *, *, #62, .F. ) ;
#132 = AXIS2_PLACEMENT_3D ( 'NONE', #245, #148, #188 ) ;
#133 = ORIENTED_EDGE ( 'NONE', *, *, #226, .F. ) ;
#134 = STYLED_ITEM ( 'NONE', ( #93 ), #10 ) ;
#135 = EDGE_CURVE ( 'NONE', #19, #192, #168, .T. ) ;
#136 =( NAMED_UNIT ( * ) SI_UNIT ( $, .STERADIAN. ) SOLID_ANGLE_UNIT ( ) );
#137 = ORIENTED_EDGE ( 'NONE', *, *, #81, .F. ) ;
#138 = ORIENTED_EDGE ( 'NONE', *, *, #139, .F. ) ;
#139 = EDGE_CURVE ( 'NONE', #109, #192, #180, .T. ) ;
#140 = CARTESIAN_POINT ( 'NONE',  ( 0.0000000000000000000, 0.0000000000000000000, 0.0000000000000000000 ) ) ;
#141 = CIRCLE ( 'NONE', #25, 0.1875000000000000278 ) ;
#142 = ORIENTED_EDGE ( 'NONE', *, *, #187, .F. ) ;
#143 = CARTESIAN_POINT ( 'NONE',  ( 0.0000000000000000000, 0.0000000000000000000, 4.000000000000000000 ) ) ;
#144 = DIRECTION ( 'NONE',  ( -0.0000000000000000000, -0.0000000000000000000, -1.000000000000000000 ) ) ;
#145 = AXIS2_PLACEMENT_3D ( 'NONE', #84, #115, #163 ) ;
#146 = PRODUCT_DEFINITION_SHAPE ( 'NONE', 'NONE',  #198 ) ;
#147 = CARTESIAN_POINT ( 'NONE',  ( 0.0000000000000000000, 0.0000000000000000000, 3.984999999999998987 ) ) ;
#148 = DIRECTION ( 'NONE',  ( 0.0000000000000000000, 0.0000000000000000000, 1.000000000000000000 ) ) ;
#149 = SURFACE_STYLE_USAGE ( .BOTH. , #89 ) ;
#150 = LINE ( 'NONE', #85, #17 ) ;
#151 = DIMENSIONAL_EXPONENTS ( 1.000000000000000000, 0.0000000000000000000, 0.0000000000000000000, 0.0000000000000000000, 0.0000000000000000000, 0.0000000000000000000, 0.0000000000000000000 ) ;
#152 = CARTESIAN_POINT ( 'NONE',  ( 0.0000000000000000000, 0.0000000000000000000, 0.3178313231888877932 ) ) ;
#153 = EDGE_CURVE ( 'NONE', #192, #74, #59, .T. ) ;
#154 = ADVANCED_FACE ( 'NONE', ( #18 ), #185, .F. ) ;
#155 = ORIENTED_EDGE ( 'NONE', *, *, #181, .F. ) ;
#156 = CIRCLE ( 'NONE', #75, 0.1875000000000000278 ) ;
#157 = CARTESIAN_POINT ( 'NONE',  ( 0.0000000000000000000, 0.0000000000000000000, 0.0000000000000000000 ) ) ;
#158 = EDGE_LOOP ( 'NONE', ( #201, #39 ) ) ;
#159 = LINE ( 'NONE', #61, #122 ) ;
#160 = CARTESIAN_POINT ( 'NONE',  ( 0.0000000000000000000, 0.0000000000000000000, 0.0000000000000000000 ) ) ;
#161 = CARTESIAN_POINT ( 'NONE',  ( 0.1724999999999998757, 2.204364238465235514E-17, 4.000000000000000000 ) ) ;
#162 = CARTESIAN_POINT ( 'NONE',  ( -0.1724999999999998757, 0.0000000000000000000, 4.000000000000000000 ) ) ;
#163 = DIRECTION ( 'NONE',  ( 1.000000000000000000, 0.0000000000000000000, -0.0000000000000000000 ) ) ;
#164 = CARTESIAN_POINT ( 'NONE',  ( -0.003999999999999999216, 1.172599310183590719E-17, 0.0000000000000000000 ) ) ;
#165 = DIRECTION ( 'NONE',  ( -1.000000000000000000, 0.0000000000000000000, 0.0000000000000000000 ) ) ;
#166 = CONICAL_SURFACE ( 'NONE', #43, 0.1724999999999998757, 0.7853981633974266297 ) ;
#167 = CARTESIAN_POINT ( 'NONE',  ( 0.0000000000000000000, 0.0000000000000000000, 4.000000000000000000 ) ) ;
#168 = CIRCLE ( 'NONE', #60, 0.1875000000000000278 ) ;
#169 = EDGE_LOOP ( 'NONE', ( #155, #72, #77, #94 ) ) ;
#170 = ADVANCED_FACE ( 'NONE', ( #46 ), #200, .T. ) ;
#171 = PRODUCT_CONTEXT ( 'NONE', #223, 'mechanical' ) ;
#172 = ORIENTED_EDGE ( 'NONE', *, *, #62, .T. ) ;
#173 = CIRCLE ( 'NONE', #20, 0.1724999999999998757 ) ;
#174 = EDGE_LOOP ( 'NONE', ( #6, #228, #172, #142 ) ) ;
#175 = ADVANCED_FACE ( 'NONE', ( #219 ), #119, .T. ) ;
#176 = DIRECTION ( 'NONE',  ( -0.7071067811865321406, 0.0000000000000000000, -0.7071067811865627828 ) ) ;
#177 = DIRECTION ( 'NONE',  ( -0.0000000000000000000, -0.0000000000000000000, -1.000000000000000000 ) ) ;
#178 = DIRECTION ( 'NONE',  ( -1.000000000000000000, 0.0000000000000000000, 0.0000000000000000000 ) ) ;
#179 = CARTESIAN_POINT ( 'NONE',  ( 0.1875000000000000278, 2.296212748401287726E-17, 0.3178313231888877932 ) ) ;
#180 = LINE ( 'NONE', #162, #14 ) ;
#181 = EDGE_CURVE ( 'NONE', #19, #37, #224, .T. ) ;
#182 =( GEOMETRIC_REPRESENTATION_CONTEXT ( 3 ) GLOBAL_UNCERTAINTY_ASSIGNED_CONTEXT ( ( #116 ) ) GLOBAL_UNIT_ASSIGNED_CONTEXT ( ( #246, #71, #136 ) ) REPRESENTATION_CONTEXT ( 'NONE', 'WORKASPACE' ) );
#183 = APPLICATION_CONTEXT ( 'automotive_design' ) ;
#184 =( NAMED_UNIT ( * ) SI_UNIT ( $, .STERADIAN. ) SOLID_ANGLE_UNIT ( ) );
#185 = PLANE ( 'NONE',  #132 ) ;
#186 = AXIS2_PLACEMENT_3D ( 'NONE', #87, #204, #66 ) ;
#187 = EDGE_CURVE ( 'NONE', #197, #37, #150, .T. ) ;
#188 = DIRECTION ( 'NONE',  ( 1.000000000000000000, 0.0000000000000000000, -0.0000000000000000000 ) ) ;
#189 = CARTESIAN_POINT ( 'NONE',  ( 0.003999999999999999216, 0.0000000000000000000, 0.0000000000000000000 ) ) ;
#190 = EDGE_LOOP ( 'NONE', ( #36, #202, #195, #44 ) ) ;
#191 = EDGE_CURVE ( 'NONE', #109, #130, #173, .T. ) ;
#192 = VERTEX_POINT ( 'NONE', #206 ) ;
#193 = SHAPE_DEFINITION_REPRESENTATION ( #146, #10 ) ;
#194 = DIMENSIONAL_EXPONENTS ( 1.000000000000000000, 0.0000000000000000000, 0.0000000000000000000, 0.0000000000000000000, 0.0000000000000000000, 0.0000000000000000000, 0.0000000000000000000 ) ;
#195 = ORIENTED_EDGE ( 'NONE', *, *, #139, .T. ) ;
#196 = DIRECTION ( 'NONE',  ( -0.0000000000000000000, -0.0000000000000000000, -1.000000000000000000 ) ) ;
#197 = VERTEX_POINT ( 'NONE', #189 ) ;
#198 = PRODUCT_DEFINITION ( 'UNKNOWN', '', #15, #95 ) ;
#199 = DIRECTION ( 'NONE',  ( 1.000000000000000000, 0.0000000000000000000, 0.0000000000000000000 ) ) ;
#200 = CONICAL_SURFACE ( 'NONE', #230, 0.003999999999999999216, 0.5235987755983005920 ) ;
#201 = ORIENTED_EDGE ( 'NONE', *, *, #191, .T. ) ;
#202 = ORIENTED_EDGE ( 'NONE', *, *, #191, .F. ) ;
#203 = COLOUR_RGB ( '',0.7921568627450980005, 0.8196078431372548767, 0.9333333333333333481 ) ;
#204 = DIRECTION ( 'NONE',  ( 0.0000000000000000000, 0.0000000000000000000, 1.000000000000000000 ) ) ;
#205 = DIRECTION ( 'NONE',  ( 1.000000000000000000, 0.0000000000000000000, 0.0000000000000000000 ) ) ;
#206 = CARTESIAN_POINT ( 'NONE',  ( -0.1875000000000000278, 0.0000000000000000000, 3.984999999999998987 ) ) ;
#207 = SURFACE_STYLE_FILL_AREA ( #126 ) ;
#208 = SURFACE_STYLE_USAGE ( .BOTH. , #110 ) ;
#209 = ORIENTED_EDGE ( 'NONE', *, *, #187, .T. ) ;
#210 = CIRCLE ( 'NONE', #31, 0.003999999999999999216 ) ;
#211 = MANIFOLD_SOLID_BREP ( 'Cut-Revolve1', #79 ) ;
#212 = AXIS2_PLACEMENT_3D ( 'NONE', #45, #215, #5 ) ;
#213 = FACE_OUTER_BOUND ( 'NONE', #174, .T. ) ;
#214 = PRESENTATION_LAYER_ASSIGNMENT (  '', '', ( #134 ) ) ;
#215 = DIRECTION ( 'NONE',  ( -0.0000000000000000000, -0.0000000000000000000, -1.000000000000000000 ) ) ;
#216 = FACE_OUTER_BOUND ( 'NONE', #169, .T. ) ;
#217 = DIRECTION ( 'NONE',  ( -1.000000000000000000, 0.0000000000000000000, 0.0000000000000000000 ) ) ;
#218 = DIRECTION ( 'NONE',  ( 0.0000000000000000000, 0.0000000000000000000, 1.000000000000000000 ) ) ;
#219 = FACE_OUTER_BOUND ( 'NONE', #190, .T. ) ;
#220 = DIRECTION ( 'NONE',  ( 0.0000000000000000000, 0.0000000000000000000, 1.000000000000000000 ) ) ;
#221 = DIRECTION ( 'NONE',  ( 0.5000000000000013323, 0.0000000000000000000, 0.8660254037844377084 ) ) ;
#222 = DIRECTION ( 'NONE',  ( 0.0000000000000000000, 0.0000000000000000000, -1.000000000000000000 ) ) ;
#223 = APPLICATION_CONTEXT ( 'automotive_design' ) ;
#224 = LINE ( 'NONE', #244, #96 ) ;
#225 = VECTOR ( 'NONE', #56, 39.37007874015748854 ) ;
#226 = EDGE_CURVE ( 'NONE', #130, #109, #80, .T. ) ;
#227 = STYLED_ITEM ( 'NONE', ( #29 ), #211 ) ;
#228 = ORIENTED_EDGE ( 'NONE', *, *, #76, .T. ) ;
#229 = ORIENTED_EDGE ( 'NONE', *, *, #98, .T. ) ;
#230 = AXIS2_PLACEMENT_3D ( 'NONE', #49, #47, #108 ) ;
#231 = VERTEX_POINT ( 'NONE', #164 ) ;
#232 = ORIENTED_EDGE ( 'NONE', *, *, #26, .T. ) ;
#233 = CARTESIAN_POINT ( 'NONE',  ( -0.1875000000000000278, 0.0000000000000000000, 4.000000000000000000 ) ) ;
#234 = EDGE_CURVE ( 'NONE', #37, #74, #156, .T. ) ;
#235 = AXIS2_PLACEMENT_3D ( 'NONE', #104, #144, #217 ) ;
#236 = DIRECTION ( 'NONE',  ( -0.0000000000000000000, -0.0000000000000000000, -1.000000000000000000 ) ) ;
#237 = CARTESIAN_POINT ( 'NONE',  ( 0.0000000000000000000, 0.0000000000000000000, 3.984999999999998987 ) ) ;
#238 = FACE_OUTER_BOUND ( 'NONE', #50, .T. ) ;
#239 = CARTESIAN_POINT ( 'NONE',  ( -0.1875000000000000278, 0.0000000000000000000, 0.3178313231888877932 ) ) ;
#240 = CONICAL_SURFACE ( 'NONE', #100, 0.003999999999999999216, 0.5235987755983005920 ) ;
#241 = DIRECTION ( 'NONE',  ( -0.0000000000000000000, -0.0000000000000000000, -1.000000000000000000 ) ) ;
#242 = ADVANCED_FACE ( 'NONE', ( #30 ), #166, .T. ) ;
#243 = DIRECTION ( 'NONE',  ( 0.0000000000000000000, 0.0000000000000000000, -1.000000000000000000 ) ) ;
#244 = CARTESIAN_POINT ( 'NONE',  ( 0.1875000000000000278, 2.296212748401287726E-17, 4.000000000000000000 ) ) ;
#245 = CARTESIAN_POINT ( 'NONE',  ( 0.0000000000000000000, 0.0000000000000000000, 0.0000000000000000000 ) ) ;
#246 =( CONVERSION_BASED_UNIT ( 'INCH', #125 ) LENGTH_UNIT ( ) NAMED_UNIT ( #151 ) );
#247 = EDGE_LOOP ( 'NONE', ( #133, #112, #137, #138 ) ) ;
#248 = ORIENTED_EDGE ( 'NONE', *, *, #234, .T. ) ;
#249 = AXIS2_PLACEMENT_3D ( 'NONE', #143, #177, #22 ) ;
ENDSEC;
END-ISO-10303-21;
