ISO-10303-21;
HEADER;
FILE_DESCRIPTION (( 'STEP AP214' ),
    '1' );
FILE_NAME ('00030.STEP',
    '2023-06-22T14:02:13',
    ( '' ),
    ( '' ),
    'SwSTEP 2.0',
    'SolidWorks 2023',
    '' );
FILE_SCHEMA (( 'AUTOMOTIVE_DESIGN' ));
ENDSEC;

DATA;
#1 = COLOUR_RGB ( '',1.000000000000000000, 0.000000000000000000, 0.000000000000000000 ) ;
#2 = CARTESIAN_POINT ( 'NONE',  ( 0.000000000000000000, 0.000000000000000000, -0.06250000000000000000 ) ) ;
#3 = CARTESIAN_POINT ( 'NONE',  ( 7.654042494670957545E-18, 0.000000000000000000, 0.06250000000000000000 ) ) ;
#4 = DIRECTION ( 'NONE',  ( -3.768143997376469510E-17, 1.000000000000000000, -0.000000000000000000 ) ) ;
#5 =( LENGTH_UNIT ( ) NAMED_UNIT ( * ) SI_UNIT ( $, .METRE. ) );
#6 = CARTESIAN_POINT ( 'NONE',  ( -6.123233995736763571E-17, 2.000000000000000000, 0.000000000000000000 ) ) ;
#7 = CARTESIAN_POINT ( 'NONE',  ( 7.654042494670957545E-18, 0.000000000000000000, 0.06250000000000000000 ) ) ;
#8 = DIMENSIONAL_EXPONENTS ( 1.000000000000000000, 0.000000000000000000, 0.000000000000000000, 0.000000000000000000, 0.000000000000000000, 0.000000000000000000, 0.000000000000000000 ) ;
#9 = AXIS2_PLACEMENT_3D ( 'NONE', #190, #86, #163 ) ;
#10 = AXIS2_PLACEMENT_3D ( 'NONE', #171, #250, #28 ) ;
#11 = DIRECTION ( 'NONE',  ( 0.000000000000000000, 1.000000000000000000, 0.000000000000000000 ) ) ;
#12 = PRODUCT ( '00030', '00030', '', ( #240 ) ) ;
#13 = DIRECTION ( 'NONE',  ( -0.000000000000000000, -1.000000000000000000, -0.000000000000000000 ) ) ;
#14 =( GEOMETRIC_REPRESENTATION_CONTEXT ( 3 ) GLOBAL_UNCERTAINTY_ASSIGNED_CONTEXT ( ( #198 ) ) GLOBAL_UNIT_ASSIGNED_CONTEXT ( ( #289, #46, #146 ) ) REPRESENTATION_CONTEXT ( 'NONE', 'WORKASPACE' ) );
#15 = LINE ( 'NONE', #51, #54 ) ;
#16 = ORIENTED_EDGE ( 'NONE', *, *, #238, .T. ) ;
#17 = EDGE_LOOP ( 'NONE', ( #258, #40, #52, #285 ) ) ;
#18 = PRESENTATION_STYLE_ASSIGNMENT (( #178 ) ) ;
#19 = CYLINDRICAL_SURFACE ( 'NONE', #9, 0.06250000000000000000 ) ;
#20 = PLANE ( 'NONE',  #10 ) ;
#21 = MECHANICAL_DESIGN_GEOMETRIC_PRESENTATION_REPRESENTATION (  '', ( #25 ), #101 ) ;
#22 = DIRECTION ( 'NONE',  ( 1.000000000000000000, 3.768143997376469510E-17, 0.000000000000000000 ) ) ;
#23 = CLOSED_SHELL ( 'NONE', ( #136, #187, #74, #179 ) ) ;
#24 = SURFACE_STYLE_USAGE ( .BOTH. , #164 ) ;
#25 = STYLED_ITEM ( 'NONE', ( #244 ), #76 ) ;
#26 = CARTESIAN_POINT ( 'NONE',  ( 0.000000000000000000, 0.3750000000000000555, 0.000000000000000000 ) ) ;
#27 =( GEOMETRIC_REPRESENTATION_CONTEXT ( 3 ) GLOBAL_UNCERTAINTY_ASSIGNED_CONTEXT ( ( #75 ) ) GLOBAL_UNIT_ASSIGNED_CONTEXT ( ( #150, #35, #50 ) ) REPRESENTATION_CONTEXT ( 'NONE', 'WORKASPACE' ) );
#28 = DIRECTION ( 'NONE',  ( 0.000000000000000000, 0.000000000000000000, -1.000000000000000000 ) ) ;
#29 = DIRECTION ( 'NONE',  ( -3.768143997376469510E-17, 1.000000000000000000, -0.000000000000000000 ) ) ;
#30 = DIMENSIONAL_EXPONENTS ( 1.000000000000000000, 0.000000000000000000, 0.000000000000000000, 0.000000000000000000, 0.000000000000000000, 0.000000000000000000, 0.000000000000000000 ) ;
#31 = CARTESIAN_POINT ( 'NONE',  ( -6.123233995736763571E-17, 2.000000000000000000, 0.000000000000000000 ) ) ;
#32 = CARTESIAN_POINT ( 'NONE',  ( -0.06250000000000000000, 0.3749999999999999445, 0.000000000000000000 ) ) ;
#33 =( GEOMETRIC_REPRESENTATION_CONTEXT ( 3 ) GLOBAL_UNCERTAINTY_ASSIGNED_CONTEXT ( ( #207 ) ) GLOBAL_UNIT_ASSIGNED_CONTEXT ( ( #154, #233, #37 ) ) REPRESENTATION_CONTEXT ( 'NONE', 'WORKASPACE' ) );
#34 = EDGE_CURVE ( 'NONE', #184, #282, #200, .T. ) ;
#35 =( NAMED_UNIT ( * ) PLANE_ANGLE_UNIT ( ) SI_UNIT ( $, .RADIAN. ) );
#36 = EDGE_LOOP ( 'NONE', ( #235, #213, #16, #139 ) ) ;
#37 =( NAMED_UNIT ( * ) SI_UNIT ( $, .STERADIAN. ) SOLID_ANGLE_UNIT ( ) );
#38 = PRODUCT_DEFINITION_SHAPE ( 'NONE', 'NONE',  #220 ) ;
#39 = DIRECTION ( 'NONE',  ( -3.768143997376469510E-17, 1.000000000000000000, -0.000000000000000000 ) ) ;
#40 = ORIENTED_EDGE ( 'NONE', *, *, #209, .T. ) ;
#41 = DIRECTION ( 'NONE',  ( 0.000000000000000000, 0.000000000000000000, -1.000000000000000000 ) ) ;
#42 =( CONVERSION_BASED_UNIT ( 'INCH', #44 ) LENGTH_UNIT ( ) NAMED_UNIT ( #8 ) );
#43 = AXIS2_PLACEMENT_3D ( 'NONE', #121, #221, #303 ) ;
#44 = LENGTH_MEASURE_WITH_UNIT ( LENGTH_MEASURE( 0.02539999999999999897 ), #53 );
#45 = FILL_AREA_STYLE_COLOUR ( '', #185 ) ;
#46 =( NAMED_UNIT ( * ) PLANE_ANGLE_UNIT ( ) SI_UNIT ( $, .RADIAN. ) );
#47 = ADVANCED_FACE ( 'NONE', ( #259 ), #19, .T. ) ;
#48 = DIRECTION ( 'NONE',  ( -1.000000000000000000, 0.000000000000000000, 0.000000000000000000 ) ) ;
#49 = CARTESIAN_POINT ( 'NONE',  ( 0.000000000000000000, 0.3750000000000000555, 0.000000000000000000 ) ) ;
#50 =( NAMED_UNIT ( * ) SI_UNIT ( $, .STERADIAN. ) SOLID_ANGLE_UNIT ( ) );
#51 = CARTESIAN_POINT ( 'NONE',  ( 0.000000000000000000, 0.000000000000000000, -0.06250000000000000000 ) ) ;
#52 = ORIENTED_EDGE ( 'NONE', *, *, #280, .F. ) ;
#53 =( LENGTH_UNIT ( ) NAMED_UNIT ( * ) SI_UNIT ( $, .METRE. ) );
#54 = VECTOR ( 'NONE', #155, 39.37007874015748143 ) ;
#55 = VERTEX_POINT ( 'NONE', #3 ) ;
#56 = CARTESIAN_POINT ( 'NONE',  ( 0.000000000000000000, 0.000000000000000000, 0.000000000000000000 ) ) ;
#57 = EDGE_LOOP ( 'NONE', ( #309, #214 ) ) ;
#58 = ORIENTED_EDGE ( 'NONE', *, *, #238, .F. ) ;
#59 = STYLED_ITEM ( 'NONE', ( #228 ), #307 ) ;
#60 =( LENGTH_UNIT ( ) NAMED_UNIT ( * ) SI_UNIT ( $, .METRE. ) );
#61 = EDGE_CURVE ( 'NONE', #82, #157, #67, .T. ) ;
#62 = DIRECTION ( 'NONE',  ( -3.768143997376469510E-17, 1.000000000000000000, -0.000000000000000000 ) ) ;
#63 = PRESENTATION_LAYER_ASSIGNMENT (  '', '', ( #118 ) ) ;
#64 = FILL_AREA_STYLE ('',( #117 ) ) ;
#65 = CARTESIAN_POINT ( 'NONE',  ( 0.000000000000000000, 0.3750000000000000555, 0.000000000000000000 ) ) ;
#66 = DIRECTION ( 'NONE',  ( 0.000000000000000000, 0.000000000000000000, -1.000000000000000000 ) ) ;
#67 = CIRCLE ( 'NONE', #90, 0.06250000000000005551 ) ;
#68 = DIRECTION ( 'NONE',  ( -1.000000000000000000, 0.000000000000000000, 0.000000000000000000 ) ) ;
#69 = UNCERTAINTY_MEASURE_WITH_UNIT (LENGTH_MEASURE( 1.000000000000000082E-05 ), #87, 'distance_accuracy_value', 'NONE');
#70 = AXIS2_PLACEMENT_3D ( 'NONE', #251, #271, #22 ) ;
#71 = SURFACE_SIDE_STYLE ('',( #99 ) ) ;
#72 = LENGTH_MEASURE_WITH_UNIT ( LENGTH_MEASURE( 0.02539999999999999897 ), #284 );
#73 = FACE_OUTER_BOUND ( 'NONE', #57, .T. ) ;
#74 = ADVANCED_FACE ( 'NONE', ( #88 ), #192, .T. ) ;
#75 = UNCERTAINTY_MEASURE_WITH_UNIT (LENGTH_MEASURE( 1.000000000000000082E-05 ), #150, 'distance_accuracy_value', 'NONE');
#76 = MANIFOLD_SOLID_BREP ( 'Revolve - Cutting Edge', #175 ) ;
#77 = STYLED_ITEM ( 'NONE', ( #230 ), #47 ) ;
#78 = ORIENTED_EDGE ( 'NONE', *, *, #34, .F. ) ;
#79 = MECHANICAL_DESIGN_GEOMETRIC_PRESENTATION_REPRESENTATION (  '', ( #273 ), #33 ) ;
#80 = PRODUCT_DEFINITION_FORMATION_WITH_SPECIFIED_SOURCE ( 'ANY', '', #12, .NOT_KNOWN. ) ;
#81 = VERTEX_POINT ( 'NONE', #293 ) ;
#82 = VERTEX_POINT ( 'NONE', #247 ) ;
#83 = ADVANCED_FACE ( 'NONE', ( #116 ), #20, .T. ) ;
#84 = SURFACE_STYLE_FILL_AREA ( #234 ) ;
#85 = DIRECTION ( 'NONE',  ( 0.000000000000000000, 0.000000000000000000, 1.000000000000000000 ) ) ;
#86 = DIRECTION ( 'NONE',  ( -0.000000000000000000, -1.000000000000000000, -0.000000000000000000 ) ) ;
#87 =( CONVERSION_BASED_UNIT ( 'INCH', #288 ) LENGTH_UNIT ( ) NAMED_UNIT ( #30 ) );
#88 = FACE_OUTER_BOUND ( 'NONE', #36, .T. ) ;
#89 = PLANE ( 'NONE',  #70 ) ;
#90 = AXIS2_PLACEMENT_3D ( 'NONE', #266, #4, #142 ) ;
#91 = APPLICATION_CONTEXT ( 'automotive_design' ) ;
#92 = SURFACE_SIDE_STYLE ('',( #268 ) ) ;
#93 = CIRCLE ( 'NONE', #231, 0.06250000000000000000 ) ;
#94 = VECTOR ( 'NONE', #223, 39.37007874015748143 ) ;
#95 =( CONVERSION_BASED_UNIT ( 'INCH', #174 ) LENGTH_UNIT ( ) NAMED_UNIT ( #264 ) );
#96 = DIRECTION ( 'NONE',  ( -3.768143997376469510E-17, 1.000000000000000000, -0.000000000000000000 ) ) ;
#97 = DIMENSIONAL_EXPONENTS ( 1.000000000000000000, 0.000000000000000000, 0.000000000000000000, 0.000000000000000000, 0.000000000000000000, 0.000000000000000000, 0.000000000000000000 ) ;
#98 = DIRECTION ( 'NONE',  ( 0.000000000000000000, -0.000000000000000000, 1.000000000000000000 ) ) ;
#99 = SURFACE_STYLE_FILL_AREA ( #278 ) ;
#100 = PRODUCT_DEFINITION_CONTEXT ( 'detailed design', #261, 'design' ) ;
#101 =( GEOMETRIC_REPRESENTATION_CONTEXT ( 3 ) GLOBAL_UNCERTAINTY_ASSIGNED_CONTEXT ( ( #181 ) ) GLOBAL_UNIT_ASSIGNED_CONTEXT ( ( #291, #239, #115 ) ) REPRESENTATION_CONTEXT ( 'NONE', 'WORKASPACE' ) );
#102 = SURFACE_STYLE_FILL_AREA ( #281 ) ;
#103 = EDGE_CURVE ( 'NONE', #282, #184, #242, .T. ) ;
#104 = ORIENTED_EDGE ( 'NONE', *, *, #61, .T. ) ;
#105 = CYLINDRICAL_SURFACE ( 'NONE', #287, 0.06250000000000000000 ) ;
#106 = DIRECTION ( 'NONE',  ( 0.000000000000000000, 0.000000000000000000, -1.000000000000000000 ) ) ;
#107 = ORIENTED_EDGE ( 'NONE', *, *, #168, .T. ) ;
#108 = EDGE_LOOP ( 'NONE', ( #206, #302, #262, #58 ) ) ;
#109 = ORIENTED_EDGE ( 'NONE', *, *, #120, .T. ) ;
#110 = FILL_AREA_STYLE_COLOUR ( '', #145 ) ;
#111 = PRESENTATION_LAYER_ASSIGNMENT (  '', '', ( #25 ) ) ;
#112 = MECHANICAL_DESIGN_GEOMETRIC_PRESENTATION_REPRESENTATION (  '', ( #130 ), #14 ) ;
#113 =( NAMED_UNIT ( * ) SI_UNIT ( $, .STERADIAN. ) SOLID_ANGLE_UNIT ( ) );
#114 = DIRECTION ( 'NONE',  ( 1.000000000000000000, 0.000000000000000000, 0.000000000000000000 ) ) ;
#115 =( NAMED_UNIT ( * ) SI_UNIT ( $, .STERADIAN. ) SOLID_ANGLE_UNIT ( ) );
#116 = FACE_OUTER_BOUND ( 'NONE', #232, .T. ) ;
#117 = FILL_AREA_STYLE_COLOUR ( '', #151 ) ;
#118 = STYLED_ITEM ( 'NONE', ( #18 ), #298 ) ;
#119 = SURFACE_STYLE_FILL_AREA ( #248 ) ;
#120 = EDGE_CURVE ( 'NONE', #304, #135, #15, .T. ) ;
#121 = CARTESIAN_POINT ( 'NONE',  ( 0.000000000000000000, 0.3749999999999999445, 0.000000000000000000 ) ) ;
#122 = FACE_OUTER_BOUND ( 'NONE', #131, .T. ) ;
#123 = LINE ( 'NONE', #7, #94 ) ;
#124 = MECHANICAL_DESIGN_GEOMETRIC_PRESENTATION_REPRESENTATION (  '', ( #77 ), #165 ) ;
#125 =( NAMED_UNIT ( * ) SI_UNIT ( $, .STERADIAN. ) SOLID_ANGLE_UNIT ( ) );
#126 = VECTOR ( 'NONE', #96, 39.37007874015748143 ) ;
#127 = PLANE ( 'NONE',  #138 ) ;
#128 = DIRECTION ( 'NONE',  ( -3.768143997376469510E-17, 1.000000000000000000, -0.000000000000000000 ) ) ;
#129 = SURFACE_SIDE_STYLE ('',( #84 ) ) ;
#130 = STYLED_ITEM ( 'NONE', ( #219 ), #83 ) ;
#131 = EDGE_LOOP ( 'NONE', ( #104, #210 ) ) ;
#132 = LINE ( 'NONE', #156, #126 ) ;
#133 = ORIENTED_EDGE ( 'NONE', *, *, #103, .F. ) ;
#134 = DIRECTION ( 'NONE',  ( -0.000000000000000000, -1.000000000000000000, -0.000000000000000000 ) ) ;
#135 = VERTEX_POINT ( 'NONE', #2 ) ;
#136 = ADVANCED_FACE ( 'NONE', ( #196 ), #144, .T. ) ;
#137 = FILL_AREA_STYLE_COLOUR ( '', #203 ) ;
#138 = AXIS2_PLACEMENT_3D ( 'NONE', #49, #11, #98 ) ;
#139 = ORIENTED_EDGE ( 'NONE', *, *, #201, .F. ) ;
#140 = DIMENSIONAL_EXPONENTS ( 1.000000000000000000, 0.000000000000000000, 0.000000000000000000, 0.000000000000000000, 0.000000000000000000, 0.000000000000000000, 0.000000000000000000 ) ;
#141 = LENGTH_MEASURE_WITH_UNIT ( LENGTH_MEASURE( 0.02539999999999999897 ), #5 );
#142 = DIRECTION ( 'NONE',  ( -1.000000000000000000, 0.000000000000000000, 0.000000000000000000 ) ) ;
#143 = FILL_AREA_STYLE ('',( #45 ) ) ;
#144 = CYLINDRICAL_SURFACE ( 'NONE', #265, 0.06250000000000002776 ) ;
#145 = COLOUR_RGB ( '',1.000000000000000000, 0.000000000000000000, 0.000000000000000000 ) ;
#146 =( NAMED_UNIT ( * ) SI_UNIT ( $, .STERADIAN. ) SOLID_ANGLE_UNIT ( ) );
#147 = MECHANICAL_DESIGN_GEOMETRIC_PRESENTATION_REPRESENTATION (  '', ( #59 ), #204 ) ;
#148 = PLANE ( 'NONE',  #283 ) ;
#149 = ADVANCED_BREP_SHAPE_REPRESENTATION ( '00030', ( #76, #298, #161 ), #243 ) ;
#150 =( CONVERSION_BASED_UNIT ( 'INCH', #176 ) LENGTH_UNIT ( ) NAMED_UNIT ( #173 ) );
#151 = COLOUR_RGB ( '',1.000000000000000000, 0.000000000000000000, 0.000000000000000000 ) ;
#152 = LINE ( 'NONE', #202, #218 ) ;
#153 = SURFACE_SIDE_STYLE ('',( #119 ) ) ;
#154 =( CONVERSION_BASED_UNIT ( 'INCH', #72 ) LENGTH_UNIT ( ) NAMED_UNIT ( #166 ) );
#155 = DIRECTION ( 'NONE',  ( -0.000000000000000000, -1.000000000000000000, -0.000000000000000000 ) ) ;
#156 = CARTESIAN_POINT ( 'NONE',  ( -0.06250000000000009714, 2.000000000000000000, 0.000000000000000000 ) ) ;
#157 = VERTEX_POINT ( 'NONE', #197 ) ;
#158 = ORIENTED_EDGE ( 'NONE', *, *, #209, .F. ) ;
#159 = PRESENTATION_LAYER_ASSIGNMENT (  '', '', ( #77 ) ) ;
#160 = CIRCLE ( 'NONE', #186, 0.06250000000000005551 ) ;
#161 = AXIS2_PLACEMENT_3D ( 'NONE', #292, #85, #114 ) ;
#162 = LENGTH_MEASURE_WITH_UNIT ( LENGTH_MEASURE( 0.02539999999999999897 ), #60 );
#163 = DIRECTION ( 'NONE',  ( 0.000000000000000000, 0.000000000000000000, -1.000000000000000000 ) ) ;
#164 = SURFACE_SIDE_STYLE ('',( #270 ) ) ;
#165 =( GEOMETRIC_REPRESENTATION_CONTEXT ( 3 ) GLOBAL_UNCERTAINTY_ASSIGNED_CONTEXT ( ( #225 ) ) GLOBAL_UNIT_ASSIGNED_CONTEXT ( ( #42, #167, #113 ) ) REPRESENTATION_CONTEXT ( 'NONE', 'WORKASPACE' ) );
#166 = DIMENSIONAL_EXPONENTS ( 1.000000000000000000, 0.000000000000000000, 0.000000000000000000, 0.000000000000000000, 0.000000000000000000, 0.000000000000000000, 0.000000000000000000 ) ;
#167 =( NAMED_UNIT ( * ) PLANE_ANGLE_UNIT ( ) SI_UNIT ( $, .RADIAN. ) );
#168 = EDGE_CURVE ( 'NONE', #81, #304, #93, .T. ) ;
#169 = SURFACE_STYLE_USAGE ( .BOTH. , #92 ) ;
#170 = FILL_AREA_STYLE_COLOUR ( '', #1 ) ;
#171 = CARTESIAN_POINT ( 'NONE',  ( 0.000000000000000000, 0.000000000000000000, 0.000000000000000000 ) ) ;
#172 = DIRECTION ( 'NONE',  ( -3.768143997376469510E-17, 1.000000000000000000, -0.000000000000000000 ) ) ;
#173 = DIMENSIONAL_EXPONENTS ( 1.000000000000000000, 0.000000000000000000, 0.000000000000000000, 0.000000000000000000, 0.000000000000000000, 0.000000000000000000, 0.000000000000000000 ) ;
#174 = LENGTH_MEASURE_WITH_UNIT ( LENGTH_MEASURE( 0.02539999999999999897 ), #226 );
#175 = CLOSED_SHELL ( 'NONE', ( #227, #307, #47, #83 ) ) ;
#176 = LENGTH_MEASURE_WITH_UNIT ( LENGTH_MEASURE( 0.02539999999999999897 ), #301 );
#177 = AXIS2_PLACEMENT_3D ( 'NONE', #257, #300, #277 ) ;
#178 = SURFACE_STYLE_USAGE ( .BOTH. , #71 ) ;
#179 = ADVANCED_FACE ( 'NONE', ( #122 ), #89, .F. ) ;
#180 = SURFACE_STYLE_USAGE ( .BOTH. , #153 ) ;
#181 = UNCERTAINTY_MEASURE_WITH_UNIT (LENGTH_MEASURE( 1.000000000000000082E-05 ), #291, 'distance_accuracy_value', 'NONE');
#182 = CARTESIAN_POINT ( 'NONE',  ( 0.000000000000000000, 0.3750000000000000555, -0.06250000000000000000 ) ) ;
#183 = CARTESIAN_POINT ( 'NONE',  ( 0.000000000000000000, 0.3749999999999999445, 0.000000000000000000 ) ) ;
#184 = VERTEX_POINT ( 'NONE', #274 ) ;
#185 = COLOUR_RGB ( '',0.7921568627450980005, 0.8196078431372548767, 0.9333333333333333481 ) ;
#186 = AXIS2_PLACEMENT_3D ( 'NONE', #31, #29, #68 ) ;
#187 = ADVANCED_FACE ( 'NONE', ( #246 ), #148, .F. ) ;
#188 = DIRECTION ( 'NONE',  ( -1.000000000000000000, 0.000000000000000000, 0.000000000000000000 ) ) ;
#189 = PRESENTATION_LAYER_ASSIGNMENT (  '', '', ( #130 ) ) ;
#190 = CARTESIAN_POINT ( 'NONE',  ( 0.000000000000000000, 0.000000000000000000, 0.000000000000000000 ) ) ;
#191 =( NAMED_UNIT ( * ) SI_UNIT ( $, .STERADIAN. ) SOLID_ANGLE_UNIT ( ) );
#192 = CYLINDRICAL_SURFACE ( 'NONE', #299, 0.06250000000000002776 ) ;
#193 = CIRCLE ( 'NONE', #212, 0.06250000000000000000 ) ;
#194 = DIRECTION ( 'NONE',  ( -3.768143997376469510E-17, 1.000000000000000000, 0.000000000000000000 ) ) ;
#195 = DIRECTION ( 'NONE',  ( -0.000000000000000000, -1.000000000000000000, -0.000000000000000000 ) ) ;
#196 = FACE_OUTER_BOUND ( 'NONE', #108, .T. ) ;
#197 = CARTESIAN_POINT ( 'NONE',  ( 0.06250000000000000000, 2.000000000000000000, 7.654042494670963708E-18 ) ) ;
#198 = UNCERTAINTY_MEASURE_WITH_UNIT (LENGTH_MEASURE( 1.000000000000000082E-05 ), #289, 'distance_accuracy_value', 'NONE');
#199 = DIRECTION ( 'NONE',  ( 0.000000000000000000, 0.000000000000000000, -1.000000000000000000 ) ) ;
#200 = CIRCLE ( 'NONE', #286, 0.06250000000000000000 ) ;
#201 = EDGE_CURVE ( 'NONE', #157, #82, #160, .T. ) ;
#202 = CARTESIAN_POINT ( 'NONE',  ( 0.06249999999999997224, 2.000000000000000000, 7.654042494670960626E-18 ) ) ;
#203 = COLOUR_RGB ( '',1.000000000000000000, 0.000000000000000000, 0.000000000000000000 ) ;
#204 =( GEOMETRIC_REPRESENTATION_CONTEXT ( 3 ) GLOBAL_UNCERTAINTY_ASSIGNED_CONTEXT ( ( #229 ) ) GLOBAL_UNIT_ASSIGNED_CONTEXT ( ( #95, #296, #125 ) ) REPRESENTATION_CONTEXT ( 'NONE', 'WORKASPACE' ) );
#205 = SURFACE_STYLE_USAGE ( .BOTH. , #254 ) ;
#206 = ORIENTED_EDGE ( 'NONE', *, *, #103, .T. ) ;
#207 = UNCERTAINTY_MEASURE_WITH_UNIT (LENGTH_MEASURE( 1.000000000000000082E-05 ), #154, 'distance_accuracy_value', 'NONE');
#208 = ORIENTED_EDGE ( 'NONE', *, *, #280, .T. ) ;
#209 = EDGE_CURVE ( 'NONE', #81, #55, #123, .T. ) ;
#210 = ORIENTED_EDGE ( 'NONE', *, *, #201, .T. ) ;
#211 = PRESENTATION_STYLE_ASSIGNMENT (( #180 ) ) ;
#212 = AXIS2_PLACEMENT_3D ( 'NONE', #224, #13, #199 ) ;
#213 = ORIENTED_EDGE ( 'NONE', *, *, #34, .T. ) ;
#214 = ORIENTED_EDGE ( 'NONE', *, *, #168, .F. ) ;
#215 = APPLICATION_PROTOCOL_DEFINITION ( 'draft international standard', 'automotive_design', 1998, #261 ) ;
#216 = DIRECTION ( 'NONE',  ( -1.000000000000000000, 0.000000000000000000, 0.000000000000000000 ) ) ;
#217 = CARTESIAN_POINT ( 'NONE',  ( -6.123233995736763571E-17, 2.000000000000000000, 0.000000000000000000 ) ) ;
#218 = VECTOR ( 'NONE', #128, 39.37007874015748143 ) ;
#219 = PRESENTATION_STYLE_ASSIGNMENT (( #24 ) ) ;
#220 = PRODUCT_DEFINITION ( 'UNKNOWN', '', #80, #100 ) ;
#221 = DIRECTION ( 'NONE',  ( -3.768143997376469510E-17, 1.000000000000000000, -0.000000000000000000 ) ) ;
#222 = DIRECTION ( 'NONE',  ( -1.000000000000000000, -3.768143997376469510E-17, 0.000000000000000000 ) ) ;
#223 = DIRECTION ( 'NONE',  ( -0.000000000000000000, -1.000000000000000000, -0.000000000000000000 ) ) ;
#224 = CARTESIAN_POINT ( 'NONE',  ( 0.000000000000000000, 0.000000000000000000, 0.000000000000000000 ) ) ;
#225 = UNCERTAINTY_MEASURE_WITH_UNIT (LENGTH_MEASURE( 1.000000000000000082E-05 ), #42, 'distance_accuracy_value', 'NONE');
#226 =( LENGTH_UNIT ( ) NAMED_UNIT ( * ) SI_UNIT ( $, .METRE. ) );
#227 = ADVANCED_FACE ( 'NONE', ( #294 ), #105, .T. ) ;
#228 = PRESENTATION_STYLE_ASSIGNMENT (( #205 ) ) ;
#229 = UNCERTAINTY_MEASURE_WITH_UNIT (LENGTH_MEASURE( 1.000000000000000082E-05 ), #95, 'distance_accuracy_value', 'NONE');
#230 = PRESENTATION_STYLE_ASSIGNMENT (( #279 ) ) ;
#231 = AXIS2_PLACEMENT_3D ( 'NONE', #26, #272, #66 ) ;
#232 = EDGE_LOOP ( 'NONE', ( #208, #237 ) ) ;
#233 =( NAMED_UNIT ( * ) PLANE_ANGLE_UNIT ( ) SI_UNIT ( $, .RADIAN. ) );
#234 = FILL_AREA_STYLE ('',( #110 ) ) ;
#235 = ORIENTED_EDGE ( 'NONE', *, *, #267, .F. ) ;
#236 = COLOUR_RGB ( '',0.7921568627450980005, 0.8196078431372548767, 0.9333333333333333481 ) ;
#237 = ORIENTED_EDGE ( 'NONE', *, *, #275, .T. ) ;
#238 = EDGE_CURVE ( 'NONE', #282, #82, #132, .T. ) ;
#239 =( NAMED_UNIT ( * ) PLANE_ANGLE_UNIT ( ) SI_UNIT ( $, .RADIAN. ) );
#240 = PRODUCT_CONTEXT ( 'NONE', #91, 'mechanical' ) ;
#241 =( NAMED_UNIT ( * ) PLANE_ANGLE_UNIT ( ) SI_UNIT ( $, .RADIAN. ) );
#242 = CIRCLE ( 'NONE', #43, 0.06250000000000000000 ) ;
#243 =( GEOMETRIC_REPRESENTATION_CONTEXT ( 3 ) GLOBAL_UNCERTAINTY_ASSIGNED_CONTEXT ( ( #69 ) ) GLOBAL_UNIT_ASSIGNED_CONTEXT ( ( #87, #241, #191 ) ) REPRESENTATION_CONTEXT ( 'NONE', 'WORKASPACE' ) );
#244 = PRESENTATION_STYLE_ASSIGNMENT (( #169 ) ) ;
#245 = APPLICATION_PROTOCOL_DEFINITION ( 'draft international standard', 'automotive_design', 1998, #91 ) ;
#246 = FACE_OUTER_BOUND ( 'NONE', #263, .T. ) ;
#247 = CARTESIAN_POINT ( 'NONE',  ( -0.06250000000000012490, 2.000000000000000000, 0.000000000000000000 ) ) ;
#248 = FILL_AREA_STYLE ('',( #170 ) ) ;
#249 = PRESENTATION_LAYER_ASSIGNMENT (  '', '', ( #59 ) ) ;
#250 = DIRECTION ( 'NONE',  ( 0.000000000000000000, -1.000000000000000000, -0.000000000000000000 ) ) ;
#251 = CARTESIAN_POINT ( 'NONE',  ( 0.06250000000000000000, 2.000000000000000000, 0.000000000000000000 ) ) ;
#252 = CARTESIAN_POINT ( 'NONE',  ( 4.437159120301349476E-35, 0.3750000000000000555, 0.000000000000000000 ) ) ;
#253 = FILL_AREA_STYLE_COLOUR ( '', #236 ) ;
#254 = SURFACE_SIDE_STYLE ('',( #102 ) ) ;
#255 = MECHANICAL_DESIGN_GEOMETRIC_PRESENTATION_REPRESENTATION (  '', ( #118 ), #27 ) ;
#256 = EDGE_CURVE ( 'NONE', #304, #81, #306, .T. ) ;
#257 = CARTESIAN_POINT ( 'NONE',  ( 0.000000000000000000, 0.000000000000000000, 0.000000000000000000 ) ) ;
#258 = ORIENTED_EDGE ( 'NONE', *, *, #256, .T. ) ;
#259 = FACE_OUTER_BOUND ( 'NONE', #308, .T. ) ;
#260 = PRESENTATION_LAYER_ASSIGNMENT (  '', '', ( #273 ) ) ;
#261 = APPLICATION_CONTEXT ( 'automotive_design' ) ;
#262 = ORIENTED_EDGE ( 'NONE', *, *, #61, .F. ) ;
#263 = EDGE_LOOP ( 'NONE', ( #133, #78 ) ) ;
#264 = DIMENSIONAL_EXPONENTS ( 1.000000000000000000, 0.000000000000000000, 0.000000000000000000, 0.000000000000000000, 0.000000000000000000, 0.000000000000000000, 0.000000000000000000 ) ;
#265 = AXIS2_PLACEMENT_3D ( 'NONE', #6, #172, #48 ) ;
#266 = CARTESIAN_POINT ( 'NONE',  ( -6.123233995736763571E-17, 2.000000000000000000, 0.000000000000000000 ) ) ;
#267 = EDGE_CURVE ( 'NONE', #184, #157, #152, .T. ) ;
#268 = SURFACE_STYLE_FILL_AREA ( #143 ) ;
#269 = SHAPE_DEFINITION_REPRESENTATION ( #38, #149 ) ;
#270 = SURFACE_STYLE_FILL_AREA ( #64 ) ;
#271 = DIRECTION ( 'NONE',  ( 3.768143997376469510E-17, -1.000000000000000000, 0.000000000000000000 ) ) ;
#272 = DIRECTION ( 'NONE',  ( -0.000000000000000000, -1.000000000000000000, -0.000000000000000000 ) ) ;
#273 = STYLED_ITEM ( 'NONE', ( #211 ), #227 ) ;
#274 = CARTESIAN_POINT ( 'NONE',  ( 0.06250000000000000000, 0.3749999999999999445, 7.654042494670963708E-18 ) ) ;
#275 = EDGE_CURVE ( 'NONE', #55, #135, #295, .T. ) ;
#276 = AXIS2_PLACEMENT_3D ( 'NONE', #65, #195, #41 ) ;
#277 = DIRECTION ( 'NONE',  ( 0.000000000000000000, 0.000000000000000000, -1.000000000000000000 ) ) ;
#278 = FILL_AREA_STYLE ('',( #253 ) ) ;
#279 = SURFACE_STYLE_USAGE ( .BOTH. , #129 ) ;
#280 = EDGE_CURVE ( 'NONE', #135, #55, #193, .T. ) ;
#281 = FILL_AREA_STYLE ('',( #137 ) ) ;
#282 = VERTEX_POINT ( 'NONE', #32 ) ;
#283 = AXIS2_PLACEMENT_3D ( 'NONE', #252, #194, #222 ) ;
#284 =( LENGTH_UNIT ( ) NAMED_UNIT ( * ) SI_UNIT ( $, .METRE. ) );
#285 = ORIENTED_EDGE ( 'NONE', *, *, #120, .F. ) ;
#286 = AXIS2_PLACEMENT_3D ( 'NONE', #183, #39, #188 ) ;
#287 = AXIS2_PLACEMENT_3D ( 'NONE', #56, #134, #106 ) ;
#288 = LENGTH_MEASURE_WITH_UNIT ( LENGTH_MEASURE( 0.02539999999999999897 ), #297 );
#289 =( CONVERSION_BASED_UNIT ( 'INCH', #141 ) LENGTH_UNIT ( ) NAMED_UNIT ( #140 ) );
#290 = PRODUCT_RELATED_PRODUCT_CATEGORY ( 'part', '', ( #12 ) ) ;
#291 =( CONVERSION_BASED_UNIT ( 'INCH', #162 ) LENGTH_UNIT ( ) NAMED_UNIT ( #97 ) );
#292 = CARTESIAN_POINT ( 'NONE',  ( 0.000000000000000000, 0.000000000000000000, 0.000000000000000000 ) ) ;
#293 = CARTESIAN_POINT ( 'NONE',  ( 7.654042494670957545E-18, 0.3750000000000000555, 0.06250000000000000000 ) ) ;
#294 = FACE_OUTER_BOUND ( 'NONE', #17, .T. ) ;
#295 = CIRCLE ( 'NONE', #177, 0.06250000000000000000 ) ;
#296 =( NAMED_UNIT ( * ) PLANE_ANGLE_UNIT ( ) SI_UNIT ( $, .RADIAN. ) );
#297 =( LENGTH_UNIT ( ) NAMED_UNIT ( * ) SI_UNIT ( $, .METRE. ) );
#298 = MANIFOLD_SOLID_BREP ( 'Revolve - Tool Body (Straight Shanked)', #23 ) ;
#299 = AXIS2_PLACEMENT_3D ( 'NONE', #217, #62, #216 ) ;
#300 = DIRECTION ( 'NONE',  ( -0.000000000000000000, -1.000000000000000000, -0.000000000000000000 ) ) ;
#301 =( LENGTH_UNIT ( ) NAMED_UNIT ( * ) SI_UNIT ( $, .METRE. ) );
#302 = ORIENTED_EDGE ( 'NONE', *, *, #267, .T. ) ;
#303 = DIRECTION ( 'NONE',  ( -1.000000000000000000, 0.000000000000000000, 0.000000000000000000 ) ) ;
#304 = VERTEX_POINT ( 'NONE', #182 ) ;
#305 = ORIENTED_EDGE ( 'NONE', *, *, #275, .F. ) ;
#306 = CIRCLE ( 'NONE', #276, 0.06250000000000000000 ) ;
#307 = ADVANCED_FACE ( 'NONE', ( #73 ), #127, .T. ) ;
#308 = EDGE_LOOP ( 'NONE', ( #158, #107, #109, #305 ) ) ;
#309 = ORIENTED_EDGE ( 'NONE', *, *, #256, .F. ) ;
ENDSEC;
END-ISO-10303-21;
