ISO-10303-21;
HEADER;
FILE_DESCRIPTION (( 'STEP AP214' ),
    '1' );
FILE_NAME ('83750.STEP',
    '2023-07-05T19:23:37',
    ( '' ),
    ( '' ),
    'SwSTEP 2.0',
    'SolidWorks 2023',
    '' );
FILE_SCHEMA (( 'AUTOMOTIVE_DESIGN' ));
ENDSEC;

DATA;
#1 = EDGE_CURVE ( 'NONE', #141, #151, #119, .T. ) ;
#2 = COLOUR_RGB ( '',1.000000000000000000, 0.000000000000000000, 0.000000000000000000 ) ;
#3 = MECHANICAL_DESIGN_GEOMETRIC_PRESENTATION_REPRESENTATION (  '', ( #191 ), #265 ) ;
#4 = SURFACE_STYLE_FILL_AREA ( #35 ) ;
#5 = EDGE_CURVE ( 'NONE', #40, #192, #91, .T. ) ;
#6 = CARTESIAN_POINT ( 'NONE',  ( 0.000000000000000000, 0.06249999999999967387, -0.06249999999999991673 ) ) ;
#7 = VERTEX_POINT ( 'NONE', #312 ) ;
#8 = DIRECTION ( 'NONE',  ( 1.000000000000000000, 0.000000000000000000, 0.000000000000000000 ) ) ;
#9 = AXIS2_PLACEMENT_3D ( 'NONE', #200, #152, #201 ) ;
#10 = DIRECTION ( 'NONE',  ( 1.000000000000000000, 1.065618294547249489E-16, 0.000000000000000000 ) ) ;
#11 =( LENGTH_UNIT ( ) NAMED_UNIT ( * ) SI_UNIT ( $, .METRE. ) );
#12 = LENGTH_MEASURE_WITH_UNIT ( LENGTH_MEASURE( 0.02539999999999999897 ), #11 );
#13 = ORIENTED_EDGE ( 'NONE', *, *, #243, .T. ) ;
#14 = PRESENTATION_LAYER_ASSIGNMENT (  '', '', ( #163 ) ) ;
#15 = CARTESIAN_POINT ( 'NONE',  ( 7.654042494670946760E-18, 0.000000000000000000, 0.06249999999999991673 ) ) ;
#16 = PRODUCT_DEFINITION_CONTEXT ( 'detailed design', #318, 'design' ) ;
#17 = ORIENTED_EDGE ( 'NONE', *, *, #195, .F. ) ;
#18 = CARTESIAN_POINT ( 'NONE',  ( 1.836970198721030181E-16, 1.500000000000000222, 0.000000000000000000 ) ) ;
#19 = ORIENTED_EDGE ( 'NONE', *, *, #262, .T. ) ;
#20 = AXIS2_PLACEMENT_3D ( 'NONE', #194, #329, #10 ) ;
#21 = CIRCLE ( 'NONE', #254, 0.06249999999999962530 ) ;
#22 = PRESENTATION_STYLE_ASSIGNMENT (( #258 ) ) ;
#23 = FACE_OUTER_BOUND ( 'NONE', #283, .T. ) ;
#24 = DIRECTION ( 'NONE',  ( -1.000000000000000000, 0.000000000000000000, 0.000000000000000000 ) ) ;
#25 = DIRECTION ( 'NONE',  ( 0.000000000000000000, 0.000000000000000000, 1.000000000000000000 ) ) ;
#26 = DIRECTION ( 'NONE',  ( 8.659560562354950115E-17, 0.7071067811865461294, -0.7071067811865489050 ) ) ;
#27 =( GEOMETRIC_REPRESENTATION_CONTEXT ( 3 ) GLOBAL_UNCERTAINTY_ASSIGNED_CONTEXT ( ( #304 ) ) GLOBAL_UNIT_ASSIGNED_CONTEXT ( ( #319, #50, #242 ) ) REPRESENTATION_CONTEXT ( 'NONE', 'WORKASPACE' ) );
#28 = MECHANICAL_DESIGN_GEOMETRIC_PRESENTATION_REPRESENTATION (  '', ( #327 ), #306 ) ;
#29 = LENGTH_MEASURE_WITH_UNIT ( LENGTH_MEASURE( 0.02539999999999999897 ), #296 );
#30 = DIMENSIONAL_EXPONENTS ( 1.000000000000000000, 0.000000000000000000, 0.000000000000000000, 0.000000000000000000, 0.000000000000000000, 0.000000000000000000, 0.000000000000000000 ) ;
#31 = DIRECTION ( 'NONE',  ( 0.000000000000000000, 1.000000000000000000, 0.000000000000000000 ) ) ;
#32 = DIRECTION ( 'NONE',  ( 0.000000000000000000, 0.000000000000000000, -1.000000000000000000 ) ) ;
#33 = CARTESIAN_POINT ( 'NONE',  ( 0.000000000000000000, 0.000000000000000000, 0.000000000000000000 ) ) ;
#34 = CARTESIAN_POINT ( 'NONE',  ( 0.000000000000000000, 0.000000000000000000, 0.000000000000000000 ) ) ;
#35 = FILL_AREA_STYLE ('',( #216 ) ) ;
#36 = CIRCLE ( 'NONE', #168, 0.06249999999999972938 ) ;
#37 = DIRECTION ( 'NONE',  ( -0.000000000000000000, -1.000000000000000000, -0.000000000000000000 ) ) ;
#38 = ORIENTED_EDGE ( 'NONE', *, *, #226, .T. ) ;
#39 = CARTESIAN_POINT ( 'NONE',  ( 0.000000000000000000, 0.000000000000000000, 0.000000000000000000 ) ) ;
#40 = VERTEX_POINT ( 'NONE', #126 ) ;
#41 = PRESENTATION_LAYER_ASSIGNMENT (  '', '', ( #111 ) ) ;
#42 = DIRECTION ( 'NONE',  ( 0.000000000000000000, 0.7071067811865461294, 0.7071067811865489050 ) ) ;
#43 = EDGE_LOOP ( 'NONE', ( #121, #93 ) ) ;
#44 = EDGE_LOOP ( 'NONE', ( #56, #38, #85 ) ) ;
#45 = ADVANCED_FACE ( 'NONE', ( #23 ), #183, .T. ) ;
#46 = ORIENTED_EDGE ( 'NONE', *, *, #114, .F. ) ;
#47 = CIRCLE ( 'NONE', #74, 0.06249999999999991673 ) ;
#48 = CARTESIAN_POINT ( 'NONE',  ( 7.654042494670946760E-18, 0.5000000000000000000, 0.06249999999999991673 ) ) ;
#49 = DIRECTION ( 'NONE',  ( 0.000000000000000000, -0.000000000000000000, 1.000000000000000000 ) ) ;
#50 =( NAMED_UNIT ( * ) PLANE_ANGLE_UNIT ( ) SI_UNIT ( $, .RADIAN. ) );
#51 = FILL_AREA_STYLE_COLOUR ( '', #164 ) ;
#52 = FACE_OUTER_BOUND ( 'NONE', #257, .T. ) ;
#53 = AXIS2_PLACEMENT_3D ( 'NONE', #345, #324, #267 ) ;
#54 =( CONVERSION_BASED_UNIT ( 'INCH', #135 ) LENGTH_UNIT ( ) NAMED_UNIT ( #30 ) );
#55 = CARTESIAN_POINT ( 'NONE',  ( 0.06249999999999991673, 1.500000000000000222, 7.654042494670922108E-18 ) ) ;
#56 = ORIENTED_EDGE ( 'NONE', *, *, #262, .F. ) ;
#57 = APPLICATION_PROTOCOL_DEFINITION ( 'draft international standard', 'automotive_design', 1998, #284 ) ;
#58 = UNCERTAINTY_MEASURE_WITH_UNIT (LENGTH_MEASURE( 1.000000000000000082E-05 ), #171, 'distance_accuracy_value', 'NONE');
#59 = FILL_AREA_STYLE ('',( #140 ) ) ;
#60 =( NAMED_UNIT ( * ) PLANE_ANGLE_UNIT ( ) SI_UNIT ( $, .RADIAN. ) );
#61 = CIRCLE ( 'NONE', #53, 0.06249999999999991673 ) ;
#62 = AXIS2_PLACEMENT_3D ( 'NONE', #33, #323, #239 ) ;
#63 = ADVANCED_FACE ( 'NONE', ( #255 ), #199, .T. ) ;
#64 = ADVANCED_FACE ( 'NONE', ( #321 ), #337, .T. ) ;
#65 = DIRECTION ( 'NONE',  ( -1.065618294547249612E-16, 1.000000000000000000, -0.000000000000000000 ) ) ;
#66 = SURFACE_SIDE_STYLE ('',( #309 ) ) ;
#67 = SURFACE_STYLE_USAGE ( .BOTH. , #310 ) ;
#68 = PRESENTATION_LAYER_ASSIGNMENT (  '', '', ( #124 ) ) ;
#69 = AXIS2_PLACEMENT_3D ( 'NONE', #300, #158, #49 ) ;
#70 = FILL_AREA_STYLE_COLOUR ( '', #2 ) ;
#71 = FACE_OUTER_BOUND ( 'NONE', #332, .T. ) ;
#72 = VERTEX_POINT ( 'NONE', #34 ) ;
#73 =( CONVERSION_BASED_UNIT ( 'INCH', #315 ) LENGTH_UNIT ( ) NAMED_UNIT ( #350 ) );
#74 = AXIS2_PLACEMENT_3D ( 'NONE', #335, #106, #109 ) ;
#75 = PRESENTATION_STYLE_ASSIGNMENT (( #132 ) ) ;
#76 = DIRECTION ( 'NONE',  ( -1.065618294547249612E-16, 1.000000000000000000, -0.000000000000000000 ) ) ;
#77 = PLANE ( 'NONE',  #69 ) ;
#78 = DIRECTION ( 'NONE',  ( -1.000000000000000000, 0.000000000000000000, 0.000000000000000000 ) ) ;
#79 =( LENGTH_UNIT ( ) NAMED_UNIT ( * ) SI_UNIT ( $, .METRE. ) );
#80 = CARTESIAN_POINT ( 'NONE',  ( 0.000000000000000000, 0.000000000000000000, 0.000000000000000000 ) ) ;
#81 = SURFACE_STYLE_FILL_AREA ( #208 ) ;
#82 = DIRECTION ( 'NONE',  ( -1.000000000000000000, -1.065618294547249489E-16, 0.000000000000000000 ) ) ;
#83 = SURFACE_STYLE_FILL_AREA ( #59 ) ;
#84 = CIRCLE ( 'NONE', #142, 0.06249999999999991673 ) ;
#85 = ORIENTED_EDGE ( 'NONE', *, *, #229, .T. ) ;
#86 =( LENGTH_UNIT ( ) NAMED_UNIT ( * ) SI_UNIT ( $, .METRE. ) );
#87 = PRESENTATION_STYLE_ASSIGNMENT (( #334 ) ) ;
#88 = VERTEX_POINT ( 'NONE', #209 ) ;
#89 = UNCERTAINTY_MEASURE_WITH_UNIT (LENGTH_MEASURE( 1.000000000000000082E-05 ), #293, 'distance_accuracy_value', 'NONE');
#90 =( NAMED_UNIT ( * ) SI_UNIT ( $, .STERADIAN. ) SOLID_ANGLE_UNIT ( ) );
#91 = CIRCLE ( 'NONE', #9, 0.06249999999999972938 ) ;
#92 = ORIENTED_EDGE ( 'NONE', *, *, #195, .T. ) ;
#93 = ORIENTED_EDGE ( 'NONE', *, *, #250, .F. ) ;
#94 = EDGE_LOOP ( 'NONE', ( #17, #118, #227, #256 ) ) ;
#95 = ORIENTED_EDGE ( 'NONE', *, *, #292, .T. ) ;
#96 = FILL_AREA_STYLE_COLOUR ( '', #148 ) ;
#97 = SURFACE_STYLE_FILL_AREA ( #347 ) ;
#98 = CARTESIAN_POINT ( 'NONE',  ( 2.902588493268279793E-16, 0.5000000000000000000, 0.000000000000000000 ) ) ;
#99 = ADVANCED_BREP_SHAPE_REPRESENTATION ( '83750', ( #230, #348, #122 ), #182 ) ;
#100 = EDGE_CURVE ( 'NONE', #192, #40, #36, .T. ) ;
#101 = DIRECTION ( 'NONE',  ( -1.065618294547249612E-16, 1.000000000000000000, -0.000000000000000000 ) ) ;
#102 = SURFACE_STYLE_FILL_AREA ( #133 ) ;
#103 = VECTOR ( 'NONE', #281, 39.37007874015748143 ) ;
#104 = AXIS2_PLACEMENT_3D ( 'NONE', #18, #260, #24 ) ;
#105 = CARTESIAN_POINT ( 'NONE',  ( 0.000000000000000000, 0.5000000000000000000, 0.000000000000000000 ) ) ;
#106 = DIRECTION ( 'NONE',  ( -0.000000000000000000, -1.000000000000000000, -0.000000000000000000 ) ) ;
#107 = LINE ( 'NONE', #247, #330 ) ;
#108 = LINE ( 'NONE', #166, #103 ) ;
#109 = DIRECTION ( 'NONE',  ( 0.000000000000000000, 0.000000000000000000, -1.000000000000000000 ) ) ;
#110 = ORIENTED_EDGE ( 'NONE', *, *, #226, .F. ) ;
#111 = STYLED_ITEM ( 'NONE', ( #181 ), #326 ) ;
#112 = PLANE ( 'NONE',  #20 ) ;
#113 = APPLICATION_PROTOCOL_DEFINITION ( 'draft international standard', 'automotive_design', 1998, #318 ) ;
#114 = EDGE_CURVE ( 'NONE', #172, #151, #61, .T. ) ;
#115 = UNCERTAINTY_MEASURE_WITH_UNIT (LENGTH_MEASURE( 1.000000000000000082E-05 ), #138, 'distance_accuracy_value', 'NONE');
#116 = ORIENTED_EDGE ( 'NONE', *, *, #290, .T. ) ;
#117 =( GEOMETRIC_REPRESENTATION_CONTEXT ( 3 ) GLOBAL_UNCERTAINTY_ASSIGNED_CONTEXT ( ( #58 ) ) GLOBAL_UNIT_ASSIGNED_CONTEXT ( ( #171, #342, #314 ) ) REPRESENTATION_CONTEXT ( 'NONE', 'WORKASPACE' ) );
#118 = ORIENTED_EDGE ( 'NONE', *, *, #250, .T. ) ;
#119 = LINE ( 'NONE', #15, #237 ) ;
#120 = CYLINDRICAL_SURFACE ( 'NONE', #62, 0.06249999999999991673 ) ;
#121 = ORIENTED_EDGE ( 'NONE', *, *, #292, .F. ) ;
#122 = AXIS2_PLACEMENT_3D ( 'NONE', #39, #169, #8 ) ;
#123 =( NAMED_UNIT ( * ) SI_UNIT ( $, .STERADIAN. ) SOLID_ANGLE_UNIT ( ) );
#124 = STYLED_ITEM ( 'NONE', ( #246 ), #149 ) ;
#125 = COLOUR_RGB ( '',1.000000000000000000, 0.000000000000000000, 0.000000000000000000 ) ;
#126 = CARTESIAN_POINT ( 'NONE',  ( -0.06249999999999953509, 1.500000000000000222, 0.000000000000000000 ) ) ;
#127 = CARTESIAN_POINT ( 'NONE',  ( 0.000000000000000000, 0.5000000000000000000, 0.000000000000000000 ) ) ;
#128 = CARTESIAN_POINT ( 'NONE',  ( 1.836970198721030181E-16, 1.500000000000000222, 0.000000000000000000 ) ) ;
#129 = FACE_OUTER_BOUND ( 'NONE', #302, .T. ) ;
#130 = PRESENTATION_LAYER_ASSIGNMENT (  '', '', ( #298 ) ) ;
#131 = AXIS2_PLACEMENT_3D ( 'NONE', #317, #76, #179 ) ;
#132 = SURFACE_STYLE_USAGE ( .BOTH. , #180 ) ;
#133 = FILL_AREA_STYLE ('',( #96 ) ) ;
#134 = DIMENSIONAL_EXPONENTS ( 1.000000000000000000, 0.000000000000000000, 0.000000000000000000, 0.000000000000000000, 0.000000000000000000, 0.000000000000000000, 0.000000000000000000 ) ;
#135 = LENGTH_MEASURE_WITH_UNIT ( LENGTH_MEASURE( 0.02539999999999999897 ), #186 );
#136 = FACE_OUTER_BOUND ( 'NONE', #219, .T. ) ;
#137 = SURFACE_SIDE_STYLE ('',( #102 ) ) ;
#138 =( CONVERSION_BASED_UNIT ( 'INCH', #29 ) LENGTH_UNIT ( ) NAMED_UNIT ( #184 ) );
#139 = DIRECTION ( 'NONE',  ( -1.000000000000000000, 0.000000000000000000, 0.000000000000000000 ) ) ;
#140 = FILL_AREA_STYLE_COLOUR ( '', #269 ) ;
#141 = VERTEX_POINT ( 'NONE', #48 ) ;
#142 = AXIS2_PLACEMENT_3D ( 'NONE', #127, #344, #206 ) ;
#143 = ORIENTED_EDGE ( 'NONE', *, *, #215, .T. ) ;
#144 = AXIS2_PLACEMENT_3D ( 'NONE', #271, #241, #82 ) ;
#145 = UNCERTAINTY_MEASURE_WITH_UNIT (LENGTH_MEASURE( 1.000000000000000082E-05 ), #308, 'distance_accuracy_value', 'NONE');
#146 = LENGTH_MEASURE_WITH_UNIT ( LENGTH_MEASURE( 0.02539999999999999897 ), #86 );
#147 = DIRECTION ( 'NONE',  ( 0.000000000000000000, 1.000000000000000000, 0.000000000000000000 ) ) ;
#148 = COLOUR_RGB ( '',1.000000000000000000, 0.000000000000000000, 0.000000000000000000 ) ;
#149 = ADVANCED_FACE ( 'NONE', ( #52 ), #185, .T. ) ;
#150 =( LENGTH_UNIT ( ) NAMED_UNIT ( * ) SI_UNIT ( $, .METRE. ) );
#151 = VERTEX_POINT ( 'NONE', #162 ) ;
#152 = DIRECTION ( 'NONE',  ( -1.065618294547249612E-16, 1.000000000000000000, -0.000000000000000000 ) ) ;
#153 = CLOSED_SHELL ( 'NONE', ( #45, #149, #326, #270, #64 ) ) ;
#154 = PRESENTATION_LAYER_ASSIGNMENT (  '', '', ( #191 ) ) ;
#155 = ORIENTED_EDGE ( 'NONE', *, *, #215, .F. ) ;
#156 = DIRECTION ( 'NONE',  ( -1.000000000000000000, 0.000000000000000000, 0.000000000000000000 ) ) ;
#157 =( NAMED_UNIT ( * ) PLANE_ANGLE_UNIT ( ) SI_UNIT ( $, .RADIAN. ) );
#158 = DIRECTION ( 'NONE',  ( 0.000000000000000000, 1.000000000000000000, 0.000000000000000000 ) ) ;
#159 =( NAMED_UNIT ( * ) SI_UNIT ( $, .STERADIAN. ) SOLID_ANGLE_UNIT ( ) );
#160 = CARTESIAN_POINT ( 'NONE',  ( 0.000000000000000000, 39.37007874015748143, 0.000000000000000000 ) ) ;
#161 = DIRECTION ( 'NONE',  ( -1.065618294547249489E-16, 1.000000000000000000, -0.000000000000000000 ) ) ;
#162 = CARTESIAN_POINT ( 'NONE',  ( 7.654042494670946760E-18, 0.06249999999999967387, 0.06249999999999991673 ) ) ;
#163 = STYLED_ITEM ( 'NONE', ( #87 ), #230 ) ;
#164 = COLOUR_RGB ( '',1.000000000000000000, 0.000000000000000000, 0.000000000000000000 ) ;
#165 = PRESENTATION_STYLE_ASSIGNMENT (( #282 ) ) ;
#166 = CARTESIAN_POINT ( 'NONE',  ( 0.000000000000000000, 0.000000000000000000, -0.06249999999999991673 ) ) ;
#167 = ORIENTED_EDGE ( 'NONE', *, *, #114, .T. ) ;
#168 = AXIS2_PLACEMENT_3D ( 'NONE', #128, #264, #78 ) ;
#169 = DIRECTION ( 'NONE',  ( 0.000000000000000000, 0.000000000000000000, 1.000000000000000000 ) ) ;
#170 = AXIS2_PLACEMENT_3D ( 'NONE', #105, #37, #32 ) ;
#171 =( CONVERSION_BASED_UNIT ( 'INCH', #233 ) LENGTH_UNIT ( ) NAMED_UNIT ( #266 ) );
#172 = VERTEX_POINT ( 'NONE', #6 ) ;
#173 = AXIS2_PLACEMENT_3D ( 'NONE', #234, #147, #343 ) ;
#174 = PRESENTATION_STYLE_ASSIGNMENT (( #67 ) ) ;
#175 = ORIENTED_EDGE ( 'NONE', *, *, #294, .F. ) ;
#176 = DIRECTION ( 'NONE',  ( -0.000000000000000000, -1.000000000000000000, -0.000000000000000000 ) ) ;
#177 = ADVANCED_FACE ( 'NONE', ( #272 ), #112, .F. ) ;
#178 = AXIS2_PLACEMENT_3D ( 'NONE', #160, #31, #25 ) ;
#179 = DIRECTION ( 'NONE',  ( -1.000000000000000000, 0.000000000000000000, 0.000000000000000000 ) ) ;
#180 = SURFACE_SIDE_STYLE ('',( #213 ) ) ;
#181 = PRESENTATION_STYLE_ASSIGNMENT (( #320 ) ) ;
#182 =( GEOMETRIC_REPRESENTATION_CONTEXT ( 3 ) GLOBAL_UNCERTAINTY_ASSIGNED_CONTEXT ( ( #333 ) ) GLOBAL_UNIT_ASSIGNED_CONTEXT ( ( #223, #60, #90 ) ) REPRESENTATION_CONTEXT ( 'NONE', 'WORKASPACE' ) );
#183 = CONICAL_SURFACE ( 'NONE', #173, 39.37007874015763775, 0.7853981633974502774 ) ;
#184 = DIMENSIONAL_EXPONENTS ( 1.000000000000000000, 0.000000000000000000, 0.000000000000000000, 0.000000000000000000, 0.000000000000000000, 0.000000000000000000, 0.000000000000000000 ) ;
#185 = CYLINDRICAL_SURFACE ( 'NONE', #311, 0.06249999999999991673 ) ;
#186 =( LENGTH_UNIT ( ) NAMED_UNIT ( * ) SI_UNIT ( $, .METRE. ) );
#187 = DIRECTION ( 'NONE',  ( -0.000000000000000000, -1.000000000000000000, -0.000000000000000000 ) ) ;
#188 = CARTESIAN_POINT ( 'NONE',  ( 0.06249999999999986122, 1.500000000000000222, 7.654042494670917485E-18 ) ) ;
#189 =( NAMED_UNIT ( * ) SI_UNIT ( $, .STERADIAN. ) SOLID_ANGLE_UNIT ( ) );
#190 = MECHANICAL_DESIGN_GEOMETRIC_PRESENTATION_REPRESENTATION (  '', ( #278 ), #231 ) ;
#191 = STYLED_ITEM ( 'NONE', ( #165 ), #348 ) ;
#192 = VERTEX_POINT ( 'NONE', #55 ) ;
#193 = LINE ( 'NONE', #188, #212 ) ;
#194 = CARTESIAN_POINT ( 'NONE',  ( 0.06249999999999991673, 1.500000000000000222, 0.000000000000000000 ) ) ;
#195 = EDGE_CURVE ( 'NONE', #88, #192, #193, .T. ) ;
#196 = PRODUCT_DEFINITION_SHAPE ( 'NONE', 'NONE',  #303 ) ;
#197 = AXIS2_PLACEMENT_3D ( 'NONE', #307, #65, #156 ) ;
#198 = SHAPE_DEFINITION_REPRESENTATION ( #196, #99 ) ;
#199 = CYLINDRICAL_SURFACE ( 'NONE', #197, 0.06249999999999967387 ) ;
#200 = CARTESIAN_POINT ( 'NONE',  ( 1.836970198721030181E-16, 1.500000000000000222, 0.000000000000000000 ) ) ;
#201 = DIRECTION ( 'NONE',  ( -1.000000000000000000, 0.000000000000000000, 0.000000000000000000 ) ) ;
#202 =( NAMED_UNIT ( * ) PLANE_ANGLE_UNIT ( ) SI_UNIT ( $, .RADIAN. ) );
#203 = ORIENTED_EDGE ( 'NONE', *, *, #5, .F. ) ;
#204 = ORIENTED_EDGE ( 'NONE', *, *, #243, .F. ) ;
#205 =( LENGTH_UNIT ( ) NAMED_UNIT ( * ) SI_UNIT ( $, .METRE. ) );
#206 = DIRECTION ( 'NONE',  ( 0.000000000000000000, 0.000000000000000000, -1.000000000000000000 ) ) ;
#207 = FILL_AREA_STYLE_COLOUR ( '', #225 ) ;
#208 = FILL_AREA_STYLE ('',( #51 ) ) ;
#209 = CARTESIAN_POINT ( 'NONE',  ( 0.06249999999999991673, 0.5000000000000000000, 7.654042494670922108E-18 ) ) ;
#210 = DIMENSIONAL_EXPONENTS ( 1.000000000000000000, 0.000000000000000000, 0.000000000000000000, 0.000000000000000000, 0.000000000000000000, 0.000000000000000000, 0.000000000000000000 ) ;
#211 = PLANE ( 'NONE',  #144 ) ;
#212 = VECTOR ( 'NONE', #222, 39.37007874015748143 ) ;
#213 = SURFACE_STYLE_FILL_AREA ( #316 ) ;
#214 =( NAMED_UNIT ( * ) SI_UNIT ( $, .STERADIAN. ) SOLID_ANGLE_UNIT ( ) );
#215 = EDGE_CURVE ( 'NONE', #274, #172, #108, .T. ) ;
#216 = FILL_AREA_STYLE_COLOUR ( '', #259 ) ;
#217 = CLOSED_SHELL ( 'NONE', ( #235, #277, #63, #177 ) ) ;
#218 =( GEOMETRIC_REPRESENTATION_CONTEXT ( 3 ) GLOBAL_UNCERTAINTY_ASSIGNED_CONTEXT ( ( #115 ) ) GLOBAL_UNIT_ASSIGNED_CONTEXT ( ( #138, #325, #214 ) ) REPRESENTATION_CONTEXT ( 'NONE', 'WORKASPACE' ) );
#219 = EDGE_LOOP ( 'NONE', ( #338, #204 ) ) ;
#220 = CARTESIAN_POINT ( 'NONE',  ( 0.000000000000000000, 0.000000000000000000, 0.000000000000000000 ) ) ;
#221 = SURFACE_SIDE_STYLE ('',( #4 ) ) ;
#222 = DIRECTION ( 'NONE',  ( -1.065618294547249489E-16, 1.000000000000000000, -0.000000000000000000 ) ) ;
#223 =( CONVERSION_BASED_UNIT ( 'INCH', #146 ) LENGTH_UNIT ( ) NAMED_UNIT ( #210 ) );
#224 = MECHANICAL_DESIGN_GEOMETRIC_PRESENTATION_REPRESENTATION (  '', ( #124 ), #27 ) ;
#225 = COLOUR_RGB ( '',1.000000000000000000, 0.000000000000000000, 0.000000000000000000 ) ;
#226 = EDGE_CURVE ( 'NONE', #72, #151, #273, .T. ) ;
#227 = ORIENTED_EDGE ( 'NONE', *, *, #294, .T. ) ;
#228 = PRODUCT_DEFINITION_FORMATION_WITH_SPECIFIED_SOURCE ( 'ANY', '', #252, .NOT_KNOWN. ) ;
#229 = EDGE_CURVE ( 'NONE', #151, #172, #47, .T. ) ;
#230 = MANIFOLD_SOLID_BREP ( 'Revolve - Cutting Edge', #153 ) ;
#231 =( GEOMETRIC_REPRESENTATION_CONTEXT ( 3 ) GLOBAL_UNCERTAINTY_ASSIGNED_CONTEXT ( ( #89 ) ) GLOBAL_UNIT_ASSIGNED_CONTEXT ( ( #293, #157, #159 ) ) REPRESENTATION_CONTEXT ( 'NONE', 'WORKASPACE' ) );
#232 =( GEOMETRIC_REPRESENTATION_CONTEXT ( 3 ) GLOBAL_UNCERTAINTY_ASSIGNED_CONTEXT ( ( #275 ) ) GLOBAL_UNIT_ASSIGNED_CONTEXT ( ( #73, #202, #123 ) ) REPRESENTATION_CONTEXT ( 'NONE', 'WORKASPACE' ) );
#233 = LENGTH_MEASURE_WITH_UNIT ( LENGTH_MEASURE( 0.02539999999999999897 ), #150 );
#234 = CARTESIAN_POINT ( 'NONE',  ( 0.000000000000000000, 39.37007874015748143, 0.000000000000000000 ) ) ;
#235 = ADVANCED_FACE ( 'NONE', ( #71 ), #248, .T. ) ;
#236 = FILL_AREA_STYLE_COLOUR ( '', #125 ) ;
#237 = VECTOR ( 'NONE', #176, 39.37007874015748143 ) ;
#238 = PRODUCT_RELATED_PRODUCT_CATEGORY ( 'part', '', ( #252 ) ) ;
#239 = DIRECTION ( 'NONE',  ( 0.000000000000000000, 0.000000000000000000, -1.000000000000000000 ) ) ;
#240 = SURFACE_STYLE_USAGE ( .BOTH. , #137 ) ;
#241 = DIRECTION ( 'NONE',  ( -1.065618294547249489E-16, 1.000000000000000000, 0.000000000000000000 ) ) ;
#242 =( NAMED_UNIT ( * ) SI_UNIT ( $, .STERADIAN. ) SOLID_ANGLE_UNIT ( ) );
#243 = EDGE_CURVE ( 'NONE', #141, #274, #84, .T. ) ;
#244 = PRESENTATION_LAYER_ASSIGNMENT (  '', '', ( #278 ) ) ;
#245 = CIRCLE ( 'NONE', #131, 0.06249999999999962530 ) ;
#246 = PRESENTATION_STYLE_ASSIGNMENT (( #240 ) ) ;
#247 = CARTESIAN_POINT ( 'NONE',  ( -0.06249999999999948652, 1.500000000000000222, 0.000000000000000000 ) ) ;
#248 = CYLINDRICAL_SURFACE ( 'NONE', #104, 0.06249999999999967387 ) ;
#249 = ORIENTED_EDGE ( 'NONE', *, *, #5, .T. ) ;
#250 = EDGE_CURVE ( 'NONE', #88, #7, #245, .T. ) ;
#251 = PRODUCT_CONTEXT ( 'NONE', #284, 'mechanical' ) ;
#252 = PRODUCT ( '83750', '83750', '', ( #251 ) ) ;
#253 = UNCERTAINTY_MEASURE_WITH_UNIT (LENGTH_MEASURE( 1.000000000000000082E-05 ), #54, 'distance_accuracy_value', 'NONE');
#254 = AXIS2_PLACEMENT_3D ( 'NONE', #98, #101, #139 ) ;
#255 = FACE_OUTER_BOUND ( 'NONE', #94, .T. ) ;
#256 = ORIENTED_EDGE ( 'NONE', *, *, #100, .F. ) ;
#257 = EDGE_LOOP ( 'NONE', ( #116, #340, #46, #155 ) ) ;
#258 = SURFACE_STYLE_USAGE ( .BOTH. , #66 ) ;
#259 = COLOUR_RGB ( '',0.7921568627450980005, 0.8196078431372548767, 0.9333333333333333481 ) ;
#260 = DIRECTION ( 'NONE',  ( -1.065618294547249612E-16, 1.000000000000000000, -0.000000000000000000 ) ) ;
#261 =( LENGTH_UNIT ( ) NAMED_UNIT ( * ) SI_UNIT ( $, .METRE. ) );
#262 = EDGE_CURVE ( 'NONE', #72, #172, #263, .T. ) ;
#263 = LINE ( 'NONE', #287, #291 ) ;
#264 = DIRECTION ( 'NONE',  ( -1.065618294547249612E-16, 1.000000000000000000, -0.000000000000000000 ) ) ;
#265 =( GEOMETRIC_REPRESENTATION_CONTEXT ( 3 ) GLOBAL_UNCERTAINTY_ASSIGNED_CONTEXT ( ( #145 ) ) GLOBAL_UNIT_ASSIGNED_CONTEXT ( ( #308, #280, #336 ) ) REPRESENTATION_CONTEXT ( 'NONE', 'WORKASPACE' ) );
#266 = DIMENSIONAL_EXPONENTS ( 1.000000000000000000, 0.000000000000000000, 0.000000000000000000, 0.000000000000000000, 0.000000000000000000, 0.000000000000000000, 0.000000000000000000 ) ;
#267 = DIRECTION ( 'NONE',  ( 0.000000000000000000, 0.000000000000000000, -1.000000000000000000 ) ) ;
#268 = FACE_OUTER_BOUND ( 'NONE', #43, .T. ) ;
#269 = COLOUR_RGB ( '',0.7921568627450980005, 0.8196078431372548767, 0.9333333333333333481 ) ;
#270 = ADVANCED_FACE ( 'NONE', ( #129 ), #120, .T. ) ;
#271 = CARTESIAN_POINT ( 'NONE',  ( 2.902588493268279793E-16, 0.5000000000000000000, 0.000000000000000000 ) ) ;
#272 = FACE_OUTER_BOUND ( 'NONE', #339, .T. ) ;
#273 = LINE ( 'NONE', #220, #305 ) ;
#274 = VERTEX_POINT ( 'NONE', #349 ) ;
#275 = UNCERTAINTY_MEASURE_WITH_UNIT (LENGTH_MEASURE( 1.000000000000000082E-05 ), #73, 'distance_accuracy_value', 'NONE');
#276 = MECHANICAL_DESIGN_GEOMETRIC_PRESENTATION_REPRESENTATION (  '', ( #111 ), #218 ) ;
#277 = ADVANCED_FACE ( 'NONE', ( #268 ), #211, .F. ) ;
#278 = STYLED_ITEM ( 'NONE', ( #75 ), #64 ) ;
#279 = PRESENTATION_LAYER_ASSIGNMENT (  '', '', ( #327 ) ) ;
#280 =( NAMED_UNIT ( * ) PLANE_ANGLE_UNIT ( ) SI_UNIT ( $, .RADIAN. ) );
#281 = DIRECTION ( 'NONE',  ( -0.000000000000000000, -1.000000000000000000, -0.000000000000000000 ) ) ;
#282 = SURFACE_STYLE_USAGE ( .BOTH. , #221 ) ;
#283 = EDGE_LOOP ( 'NONE', ( #110, #19, #167 ) ) ;
#284 = APPLICATION_CONTEXT ( 'automotive_design' ) ;
#285 = CIRCLE ( 'NONE', #170, 0.06249999999999991673 ) ;
#286 = ORIENTED_EDGE ( 'NONE', *, *, #1, .F. ) ;
#287 = CARTESIAN_POINT ( 'NONE',  ( 0.000000000000000000, 0.000000000000000000, 0.000000000000000000 ) ) ;
#288 = FILL_AREA_STYLE ('',( #70 ) ) ;
#289 = ORIENTED_EDGE ( 'NONE', *, *, #100, .T. ) ;
#290 = EDGE_CURVE ( 'NONE', #274, #141, #285, .T. ) ;
#291 = VECTOR ( 'NONE', #26, 39.37007874015748143 ) ;
#292 = EDGE_CURVE ( 'NONE', #7, #88, #21, .T. ) ;
#293 =( CONVERSION_BASED_UNIT ( 'INCH', #295 ) LENGTH_UNIT ( ) NAMED_UNIT ( #297 ) );
#294 = EDGE_CURVE ( 'NONE', #7, #40, #107, .T. ) ;
#295 = LENGTH_MEASURE_WITH_UNIT ( LENGTH_MEASURE( 0.02539999999999999897 ), #261 );
#296 =( LENGTH_UNIT ( ) NAMED_UNIT ( * ) SI_UNIT ( $, .METRE. ) );
#297 = DIMENSIONAL_EXPONENTS ( 1.000000000000000000, 0.000000000000000000, 0.000000000000000000, 0.000000000000000000, 0.000000000000000000, 0.000000000000000000, 0.000000000000000000 ) ;
#298 = STYLED_ITEM ( 'NONE', ( #22 ), #45 ) ;
#299 = LENGTH_MEASURE_WITH_UNIT ( LENGTH_MEASURE( 0.02539999999999999897 ), #79 );
#300 = CARTESIAN_POINT ( 'NONE',  ( 0.000000000000000000, 0.5000000000000000000, 0.000000000000000000 ) ) ;
#301 = DIRECTION ( 'NONE',  ( 0.000000000000000000, 0.000000000000000000, -1.000000000000000000 ) ) ;
#302 = EDGE_LOOP ( 'NONE', ( #286, #13, #143, #313 ) ) ;
#303 = PRODUCT_DEFINITION ( 'UNKNOWN', '', #228, #16 ) ;
#304 = UNCERTAINTY_MEASURE_WITH_UNIT (LENGTH_MEASURE( 1.000000000000000082E-05 ), #319, 'distance_accuracy_value', 'NONE');
#305 = VECTOR ( 'NONE', #42, 39.37007874015748143 ) ;
#306 =( GEOMETRIC_REPRESENTATION_CONTEXT ( 3 ) GLOBAL_UNCERTAINTY_ASSIGNED_CONTEXT ( ( #253 ) ) GLOBAL_UNIT_ASSIGNED_CONTEXT ( ( #54, #328, #189 ) ) REPRESENTATION_CONTEXT ( 'NONE', 'WORKASPACE' ) );
#307 = CARTESIAN_POINT ( 'NONE',  ( 1.836970198721030181E-16, 1.500000000000000222, 0.000000000000000000 ) ) ;
#308 =( CONVERSION_BASED_UNIT ( 'INCH', #12 ) LENGTH_UNIT ( ) NAMED_UNIT ( #134 ) );
#309 = SURFACE_STYLE_FILL_AREA ( #288 ) ;
#310 = SURFACE_SIDE_STYLE ('',( #97 ) ) ;
#311 = AXIS2_PLACEMENT_3D ( 'NONE', #80, #187, #301 ) ;
#312 = CARTESIAN_POINT ( 'NONE',  ( -0.06249999999999933387, 0.5000000000000000000, 0.000000000000000000 ) ) ;
#313 = ORIENTED_EDGE ( 'NONE', *, *, #229, .F. ) ;
#314 =( NAMED_UNIT ( * ) SI_UNIT ( $, .STERADIAN. ) SOLID_ANGLE_UNIT ( ) );
#315 = LENGTH_MEASURE_WITH_UNIT ( LENGTH_MEASURE( 0.02539999999999999897 ), #205 );
#316 = FILL_AREA_STYLE ('',( #207 ) ) ;
#317 = CARTESIAN_POINT ( 'NONE',  ( 2.902588493268279793E-16, 0.5000000000000000000, 0.000000000000000000 ) ) ;
#318 = APPLICATION_CONTEXT ( 'automotive_design' ) ;
#319 =( CONVERSION_BASED_UNIT ( 'INCH', #299 ) LENGTH_UNIT ( ) NAMED_UNIT ( #322 ) );
#320 = SURFACE_STYLE_USAGE ( .BOTH. , #351 ) ;
#321 = FACE_OUTER_BOUND ( 'NONE', #44, .T. ) ;
#322 = DIMENSIONAL_EXPONENTS ( 1.000000000000000000, 0.000000000000000000, 0.000000000000000000, 0.000000000000000000, 0.000000000000000000, 0.000000000000000000, 0.000000000000000000 ) ;
#323 = DIRECTION ( 'NONE',  ( -0.000000000000000000, -1.000000000000000000, -0.000000000000000000 ) ) ;
#324 = DIRECTION ( 'NONE',  ( -0.000000000000000000, -1.000000000000000000, -0.000000000000000000 ) ) ;
#325 =( NAMED_UNIT ( * ) PLANE_ANGLE_UNIT ( ) SI_UNIT ( $, .RADIAN. ) );
#326 = ADVANCED_FACE ( 'NONE', ( #136 ), #77, .T. ) ;
#327 = STYLED_ITEM ( 'NONE', ( #174 ), #270 ) ;
#328 =( NAMED_UNIT ( * ) PLANE_ANGLE_UNIT ( ) SI_UNIT ( $, .RADIAN. ) );
#329 = DIRECTION ( 'NONE',  ( 1.065618294547249489E-16, -1.000000000000000000, 0.000000000000000000 ) ) ;
#330 = VECTOR ( 'NONE', #161, 39.37007874015748143 ) ;
#331 = SURFACE_SIDE_STYLE ('',( #83 ) ) ;
#332 = EDGE_LOOP ( 'NONE', ( #95, #92, #203, #175 ) ) ;
#333 = UNCERTAINTY_MEASURE_WITH_UNIT (LENGTH_MEASURE( 1.000000000000000082E-05 ), #223, 'distance_accuracy_value', 'NONE');
#334 = SURFACE_STYLE_USAGE ( .BOTH. , #331 ) ;
#335 = CARTESIAN_POINT ( 'NONE',  ( 0.000000000000000000, 0.06249999999999967387, 0.000000000000000000 ) ) ;
#336 =( NAMED_UNIT ( * ) SI_UNIT ( $, .STERADIAN. ) SOLID_ANGLE_UNIT ( ) );
#337 = CONICAL_SURFACE ( 'NONE', #178, 39.37007874015763775, 0.7853981633974502774 ) ;
#338 = ORIENTED_EDGE ( 'NONE', *, *, #290, .F. ) ;
#339 = EDGE_LOOP ( 'NONE', ( #249, #289 ) ) ;
#340 = ORIENTED_EDGE ( 'NONE', *, *, #1, .T. ) ;
#341 = MECHANICAL_DESIGN_GEOMETRIC_PRESENTATION_REPRESENTATION (  '', ( #298 ), #117 ) ;
#342 =( NAMED_UNIT ( * ) PLANE_ANGLE_UNIT ( ) SI_UNIT ( $, .RADIAN. ) );
#343 = DIRECTION ( 'NONE',  ( 0.000000000000000000, 0.000000000000000000, 1.000000000000000000 ) ) ;
#344 = DIRECTION ( 'NONE',  ( -0.000000000000000000, -1.000000000000000000, -0.000000000000000000 ) ) ;
#345 = CARTESIAN_POINT ( 'NONE',  ( 0.000000000000000000, 0.06249999999999967387, 0.000000000000000000 ) ) ;
#346 = MECHANICAL_DESIGN_GEOMETRIC_PRESENTATION_REPRESENTATION (  '', ( #163 ), #232 ) ;
#347 = FILL_AREA_STYLE ('',( #236 ) ) ;
#348 = MANIFOLD_SOLID_BREP ( 'Revolve - Tool Body (Straight Shanked)', #217 ) ;
#349 = CARTESIAN_POINT ( 'NONE',  ( 0.000000000000000000, 0.5000000000000000000, -0.06249999999999991673 ) ) ;
#350 = DIMENSIONAL_EXPONENTS ( 1.000000000000000000, 0.000000000000000000, 0.000000000000000000, 0.000000000000000000, 0.000000000000000000, 0.000000000000000000, 0.000000000000000000 ) ;
#351 = SURFACE_SIDE_STYLE ('',( #81 ) ) ;
ENDSEC;
END-ISO-10303-21;
