ISO-10303-21;
HEADER;
FILE_DESCRIPTION (( 'STEP AP214' ),
    '1' );
FILE_NAME ('84090.STEP',
    '2023-06-23T11:47:57',
    ( '' ),
    ( '' ),
    'SwSTEP 2.0',
    'SolidWorks 2023',
    '' );
FILE_SCHEMA (( 'AUTOMOTIVE_DESIGN' ));
ENDSEC;

DATA;
#1 = DIMENSIONAL_EXPONENTS ( 1.000000000000000000, 0.000000000000000000, 0.000000000000000000, 0.000000000000000000, 0.000000000000000000, 0.000000000000000000, 0.000000000000000000 ) ;
#2 = ORIENTED_EDGE ( 'NONE', *, *, #75, .F. ) ;
#3 = DIRECTION ( 'NONE',  ( -3.061616997868383018E-17, 1.000000000000000000, -0.000000000000000000 ) ) ;
#4 = AXIS2_PLACEMENT_3D ( 'NONE', #125, #97, #23 ) ;
#5 = PRESENTATION_LAYER_ASSIGNMENT (  '', '', ( #68 ) ) ;
#6 = VERTEX_POINT ( 'NONE', #105 ) ;
#7 = CARTESIAN_POINT ( 'NONE',  ( 0.000000000000000000, 0.000000000000000000, 0.000000000000000000 ) ) ;
#8 = DIMENSIONAL_EXPONENTS ( 1.000000000000000000, 0.000000000000000000, 0.000000000000000000, 0.000000000000000000, 0.000000000000000000, 0.000000000000000000, 0.000000000000000000 ) ;
#9 = VERTEX_POINT ( 'NONE', #22 ) ;
#10 = UNCERTAINTY_MEASURE_WITH_UNIT (LENGTH_MEASURE( 1.000000000000000082E-05 ), #284, 'distance_accuracy_value', 'NONE');
#11 = VECTOR ( 'NONE', #257, 39.37007874015748143 ) ;
#12 = COLOUR_RGB ( '',1.000000000000000000, 0.000000000000000000, 0.000000000000000000 ) ;
#13 = SURFACE_STYLE_FILL_AREA ( #15 ) ;
#14 = ADVANCED_FACE ( 'NONE', ( #209 ), #19, .T. ) ;
#15 = FILL_AREA_STYLE ('',( #92 ) ) ;
#16 = CARTESIAN_POINT ( 'NONE',  ( 0.1250000000000000278, 2.500000000000000000, 1.530808498934192125E-17 ) ) ;
#17 = FACE_OUTER_BOUND ( 'NONE', #122, .T. ) ;
#18 = CIRCLE ( 'NONE', #119, 0.1250000000000000555 ) ;
#19 = PLANE ( 'NONE',  #174 ) ;
#20 = VECTOR ( 'NONE', #123, 39.37007874015748143 ) ;
#21 = FILL_AREA_STYLE ('',( #258 ) ) ;
#22 = CARTESIAN_POINT ( 'NONE',  ( -0.1250000000000001388, 2.500000000000000000, 0.000000000000000000 ) ) ;
#23 = DIRECTION ( 'NONE',  ( -1.000000000000000000, 0.000000000000000000, 0.000000000000000000 ) ) ;
#24 = EDGE_CURVE ( 'NONE', #86, #9, #18, .T. ) ;
#25 = FILL_AREA_STYLE ('',( #78 ) ) ;
#26 = SURFACE_STYLE_FILL_AREA ( #101 ) ;
#27 =( CONVERSION_BASED_UNIT ( 'INCH', #132 ) LENGTH_UNIT ( ) NAMED_UNIT ( #8 ) );
#28 = PRODUCT ( '84090', '84090', '', ( #239 ) ) ;
#29 = MECHANICAL_DESIGN_GEOMETRIC_PRESENTATION_REPRESENTATION (  '', ( #135 ), #216 ) ;
#30 = DIRECTION ( 'NONE',  ( -0.000000000000000000, -1.000000000000000000, -0.000000000000000000 ) ) ;
#31 = MANIFOLD_SOLID_BREP ( 'Revolve - Cutting Edge', #95 ) ;
#32 =( CONVERSION_BASED_UNIT ( 'INCH', #267 ) LENGTH_UNIT ( ) NAMED_UNIT ( #144 ) );
#33 = ORIENTED_EDGE ( 'NONE', *, *, #44, .T. ) ;
#34 =( NAMED_UNIT ( * ) SI_UNIT ( $, .STERADIAN. ) SOLID_ANGLE_UNIT ( ) );
#35 = VERTEX_POINT ( 'NONE', #70 ) ;
#36 = CIRCLE ( 'NONE', #115, 0.1250000000000000555 ) ;
#37 = DIMENSIONAL_EXPONENTS ( 1.000000000000000000, 0.000000000000000000, 0.000000000000000000, 0.000000000000000000, 0.000000000000000000, 0.000000000000000000, 0.000000000000000000 ) ;
#38 = ORIENTED_EDGE ( 'NONE', *, *, #241, .T. ) ;
#39 =( NAMED_UNIT ( * ) PLANE_ANGLE_UNIT ( ) SI_UNIT ( $, .RADIAN. ) );
#40 = FILL_AREA_STYLE_COLOUR ( '', #154 ) ;
#41 = DIRECTION ( 'NONE',  ( 0.000000000000000000, -0.000000000000000000, 1.000000000000000000 ) ) ;
#42 = PRESENTATION_LAYER_ASSIGNMENT (  '', '', ( #183 ) ) ;
#43 = LENGTH_MEASURE_WITH_UNIT ( LENGTH_MEASURE( 0.02539999999999999897 ), #280 );
#44 = EDGE_CURVE ( 'NONE', #160, #336, #298, .T. ) ;
#45 = CARTESIAN_POINT ( 'NONE',  ( 0.000000000000000000, 0.5000000000000001110, 0.000000000000000000 ) ) ;
#46 = DIRECTION ( 'NONE',  ( -0.000000000000000000, -1.000000000000000000, -0.000000000000000000 ) ) ;
#47 = CARTESIAN_POINT ( 'NONE',  ( -8.929505112985822652E-18, 0.7916597706115068300, 0.000000000000000000 ) ) ;
#48 =( NAMED_UNIT ( * ) SI_UNIT ( $, .STERADIAN. ) SOLID_ANGLE_UNIT ( ) );
#49 = DIRECTION ( 'NONE',  ( 0.000000000000000000, 0.000000000000000000, -1.000000000000000000 ) ) ;
#50 = LENGTH_MEASURE_WITH_UNIT ( LENGTH_MEASURE( 0.02539999999999999897 ), #186 );
#51 = ORIENTED_EDGE ( 'NONE', *, *, #64, .F. ) ;
#52 = DIRECTION ( 'NONE',  ( 0.000000000000000000, 0.000000000000000000, 1.000000000000000000 ) ) ;
#53 = AXIS2_PLACEMENT_3D ( 'NONE', #62, #300, #114 ) ;
#54 = FILL_AREA_STYLE_COLOUR ( '', #242 ) ;
#55 = DIRECTION ( 'NONE',  ( 1.000000000000000000, 3.061616997868383018E-17, 0.000000000000000000 ) ) ;
#56 = UNCERTAINTY_MEASURE_WITH_UNIT (LENGTH_MEASURE( 1.000000000000000082E-05 ), #27, 'distance_accuracy_value', 'NONE');
#57 = EDGE_LOOP ( 'NONE', ( #112, #195, #359, #88 ) ) ;
#58 = FILL_AREA_STYLE ('',( #40 ) ) ;
#59 = EDGE_LOOP ( 'NONE', ( #322, #214 ) ) ;
#60 = COLOUR_RGB ( '',0.7921568627450980005, 0.8196078431372548767, 0.9333333333333333481 ) ;
#61 = PLANE ( 'NONE',  #342 ) ;
#62 = CARTESIAN_POINT ( 'NONE',  ( 0.000000000000000000, 0.000000000000000000, 0.000000000000000000 ) ) ;
#63 = CIRCLE ( 'NONE', #289, 0.1250000000000000278 ) ;
#64 = EDGE_CURVE ( 'NONE', #103, #35, #118, .T. ) ;
#65 = SURFACE_STYLE_USAGE ( .BOTH. , #312 ) ;
#66 = LENGTH_MEASURE_WITH_UNIT ( LENGTH_MEASURE( 0.02539999999999999897 ), #233 );
#67 = APPLICATION_CONTEXT ( 'automotive_design' ) ;
#68 = STYLED_ITEM ( 'NONE', ( #351 ), #14 ) ;
#69 = FACE_OUTER_BOUND ( 'NONE', #353, .T. ) ;
#70 = CARTESIAN_POINT ( 'NONE',  ( 0.1249999999999999861, 0.7916597706115068300, 1.530808498934191817E-17 ) ) ;
#71 = EDGE_CURVE ( 'NONE', #336, #35, #63, .T. ) ;
#72 = SURFACE_STYLE_FILL_AREA ( #25 ) ;
#73 = DIRECTION ( 'NONE',  ( -0.000000000000000000, -1.000000000000000000, -0.000000000000000000 ) ) ;
#74 = SHAPE_DEFINITION_REPRESENTATION ( #253, #128 ) ;
#75 = EDGE_CURVE ( 'NONE', #358, #6, #283, .T. ) ;
#76 = EDGE_CURVE ( 'NONE', #35, #336, #352, .T. ) ;
#77 = CARTESIAN_POINT ( 'NONE',  ( -0.04684999999999999581, 0.5000000000000001110, 0.000000000000000000 ) ) ;
#78 = FILL_AREA_STYLE_COLOUR ( '', #296 ) ;
#79 =( NAMED_UNIT ( * ) PLANE_ANGLE_UNIT ( ) SI_UNIT ( $, .RADIAN. ) );
#80 = DIRECTION ( 'NONE',  ( 0.000000000000000000, -1.000000000000000000, -0.000000000000000000 ) ) ;
#81 = VECTOR ( 'NONE', #341, 39.37007874015748143 ) ;
#82 = CARTESIAN_POINT ( 'NONE',  ( 0.1249999999999999584, 2.500000000000000000, 1.530808498934191817E-17 ) ) ;
#83 = EDGE_LOOP ( 'NONE', ( #51, #334, #33, #311 ) ) ;
#84 = DIRECTION ( 'NONE',  ( -1.000000000000000000, 0.000000000000000000, 0.000000000000000000 ) ) ;
#85 = EDGE_LOOP ( 'NONE', ( #306, #137, #181, #193 ) ) ;
#86 = VERTEX_POINT ( 'NONE', #16 ) ;
#87 = AXIS2_PLACEMENT_3D ( 'NONE', #223, #116, #84 ) ;
#88 = ORIENTED_EDGE ( 'NONE', *, *, #262, .F. ) ;
#89 = FILL_AREA_STYLE ('',( #54 ) ) ;
#90 = SURFACE_STYLE_FILL_AREA ( #21 ) ;
#91 = AXIS2_PLACEMENT_3D ( 'NONE', #211, #192, #55 ) ;
#92 = FILL_AREA_STYLE_COLOUR ( '', #189 ) ;
#93 = CARTESIAN_POINT ( 'NONE',  ( -0.1250000000000001110, 2.500000000000000000, 0.000000000000000000 ) ) ;
#94 = CIRCLE ( 'NONE', #142, 0.04684999999999999581 ) ;
#95 = CLOSED_SHELL ( 'NONE', ( #254, #245, #350, #14 ) ) ;
#96 = DIRECTION ( 'NONE',  ( -1.000000000000000000, 0.000000000000000000, 0.000000000000000000 ) ) ;
#97 = DIRECTION ( 'NONE',  ( -3.061616997868383018E-17, 1.000000000000000000, -0.000000000000000000 ) ) ;
#98 = ADVANCED_FACE ( 'NONE', ( #176 ), #285, .T. ) ;
#99 = APPLICATION_PROTOCOL_DEFINITION ( 'draft international standard', 'automotive_design', 1998, #67 ) ;
#100 = EDGE_CURVE ( 'NONE', #35, #86, #182, .T. ) ;
#101 = FILL_AREA_STYLE ('',( #134 ) ) ;
#102 = CIRCLE ( 'NONE', #237, 0.04684999999999999581 ) ;
#103 = VERTEX_POINT ( 'NONE', #290 ) ;
#104 = AXIS2_PLACEMENT_3D ( 'NONE', #343, #250, #96 ) ;
#105 = CARTESIAN_POINT ( 'NONE',  ( 0.000000000000000000, 0.000000000000000000, -0.04684999999999999581 ) ) ;
#106 = CARTESIAN_POINT ( 'NONE',  ( 0.000000000000000000, 0.000000000000000000, 0.000000000000000000 ) ) ;
#107 = CARTESIAN_POINT ( 'NONE',  ( 0.000000000000000000, 0.5000000000000000000, 0.000000000000000000 ) ) ;
#108 = DIRECTION ( 'NONE',  ( -3.061616997868383018E-17, 1.000000000000000000, -0.000000000000000000 ) ) ;
#109 = AXIS2_PLACEMENT_3D ( 'NONE', #47, #252, #319 ) ;
#110 =( GEOMETRIC_REPRESENTATION_CONTEXT ( 3 ) GLOBAL_UNCERTAINTY_ASSIGNED_CONTEXT ( ( #56 ) ) GLOBAL_UNIT_ASSIGNED_CONTEXT ( ( #27, #79, #264 ) ) REPRESENTATION_CONTEXT ( 'NONE', 'WORKASPACE' ) );
#111 = ORIENTED_EDGE ( 'NONE', *, *, #262, .T. ) ;
#112 = ORIENTED_EDGE ( 'NONE', *, *, #71, .T. ) ;
#113 =( NAMED_UNIT ( * ) SI_UNIT ( $, .STERADIAN. ) SOLID_ANGLE_UNIT ( ) );
#114 = DIRECTION ( 'NONE',  ( 0.000000000000000000, 0.000000000000000000, -1.000000000000000000 ) ) ;
#115 = AXIS2_PLACEMENT_3D ( 'NONE', #324, #188, #187 ) ;
#116 = DIRECTION ( 'NONE',  ( -3.061616997868383018E-17, 1.000000000000000000, -0.000000000000000000 ) ) ;
#117 =( NAMED_UNIT ( * ) SI_UNIT ( $, .STERADIAN. ) SOLID_ANGLE_UNIT ( ) );
#118 = LINE ( 'NONE', #346, #11 ) ;
#119 = AXIS2_PLACEMENT_3D ( 'NONE', #190, #108, #213 ) ;
#120 = CIRCLE ( 'NONE', #238, 0.04684999999999999581 ) ;
#121 = CYLINDRICAL_SURFACE ( 'NONE', #305, 0.04684999999999999581 ) ;
#122 = EDGE_LOOP ( 'NONE', ( #299, #169, #246, #270 ) ) ;
#123 = DIRECTION ( 'NONE',  ( -3.061616997868383018E-17, 1.000000000000000000, -0.000000000000000000 ) ) ;
#124 = PRESENTATION_STYLE_ASSIGNMENT (( #178 ) ) ;
#125 = CARTESIAN_POINT ( 'NONE',  ( -6.123233995736766036E-17, 2.500000000000000000, 0.000000000000000000 ) ) ;
#126 = AXIS2_PLACEMENT_3D ( 'NONE', #172, #338, #281 ) ;
#127 =( NAMED_UNIT ( * ) PLANE_ANGLE_UNIT ( ) SI_UNIT ( $, .RADIAN. ) );
#128 = ADVANCED_BREP_SHAPE_REPRESENTATION ( '84090', ( #31, #138, #277 ), #110 ) ;
#129 = UNCERTAINTY_MEASURE_WITH_UNIT (LENGTH_MEASURE( 1.000000000000000082E-05 ), #236, 'distance_accuracy_value', 'NONE');
#130 = DIRECTION ( 'NONE',  ( 0.000000000000000000, 0.000000000000000000, -1.000000000000000000 ) ) ;
#131 = FACE_OUTER_BOUND ( 'NONE', #274, .T. ) ;
#132 = LENGTH_MEASURE_WITH_UNIT ( LENGTH_MEASURE( 0.02539999999999999897 ), #191 );
#133 = PRODUCT_RELATED_PRODUCT_CATEGORY ( 'part', '', ( #28 ) ) ;
#134 = FILL_AREA_STYLE_COLOUR ( '', #60 ) ;
#135 = STYLED_ITEM ( 'NONE', ( #206 ), #31 ) ;
#136 = ORIENTED_EDGE ( 'NONE', *, *, #228, .T. ) ;
#137 = ORIENTED_EDGE ( 'NONE', *, *, #139, .T. ) ;
#138 = MANIFOLD_SOLID_BREP ( 'Revolve - Tool Body (Reduced Cut Diameter)', #185 ) ;
#139 = EDGE_CURVE ( 'NONE', #243, #358, #266, .T. ) ;
#140 =( LENGTH_UNIT ( ) NAMED_UNIT ( * ) SI_UNIT ( $, .METRE. ) );
#141 = EDGE_LOOP ( 'NONE', ( #38, #136 ) ) ;
#142 = AXIS2_PLACEMENT_3D ( 'NONE', #278, #3, #145 ) ;
#143 = CARTESIAN_POINT ( 'NONE',  ( 5.737470254005349551E-18, 0.5000000000000000000, 0.04684999999999999581 ) ) ;
#144 = DIMENSIONAL_EXPONENTS ( 1.000000000000000000, 0.000000000000000000, 0.000000000000000000, 0.000000000000000000, 0.000000000000000000, 0.000000000000000000, 0.000000000000000000 ) ;
#145 = DIRECTION ( 'NONE',  ( -1.000000000000000000, 0.000000000000000000, 0.000000000000000000 ) ) ;
#146 = DIRECTION ( 'NONE',  ( -1.000000000000000000, 0.000000000000000000, 0.000000000000000000 ) ) ;
#147 = CYLINDRICAL_SURFACE ( 'NONE', #104, 0.1250000000000000278 ) ;
#148 = CARTESIAN_POINT ( 'NONE',  ( -8.929505112985822652E-18, 0.7916597706115068300, 0.000000000000000000 ) ) ;
#149 = PRESENTATION_LAYER_ASSIGNMENT (  '', '', ( #156 ) ) ;
#150 = LINE ( 'NONE', #93, #20 ) ;
#151 = ORIENTED_EDGE ( 'NONE', *, *, #218, .F. ) ;
#152 = FACE_OUTER_BOUND ( 'NONE', #85, .T. ) ;
#153 =( LENGTH_UNIT ( ) NAMED_UNIT ( * ) SI_UNIT ( $, .METRE. ) );
#154 = COLOUR_RGB ( '',1.000000000000000000, 0.000000000000000000, 0.000000000000000000 ) ;
#155 = DIRECTION ( 'NONE',  ( -3.061616997868383018E-17, 1.000000000000000000, -0.000000000000000000 ) ) ;
#156 = STYLED_ITEM ( 'NONE', ( #337 ), #245 ) ;
#157 = CARTESIAN_POINT ( 'NONE',  ( 0.000000000000000000, 0.5000000000000000000, -0.04684999999999999581 ) ) ;
#158 = DIRECTION ( 'NONE',  ( 0.000000000000000000, 0.000000000000000000, -1.000000000000000000 ) ) ;
#159 = FACE_OUTER_BOUND ( 'NONE', #83, .T. ) ;
#160 = VERTEX_POINT ( 'NONE', #77 ) ;
#161 = EDGE_CURVE ( 'NONE', #9, #86, #36, .T. ) ;
#162 = STYLED_ITEM ( 'NONE', ( #229 ), #350 ) ;
#163 = DIRECTION ( 'NONE',  ( 0.000000000000000000, 0.000000000000000000, -1.000000000000000000 ) ) ;
#164 = PRODUCT_DEFINITION ( 'UNKNOWN', '', #273, #287 ) ;
#165 = SURFACE_SIDE_STYLE ('',( #221 ) ) ;
#166 = ORIENTED_EDGE ( 'NONE', *, *, #161, .T. ) ;
#167 = SURFACE_SIDE_STYLE ('',( #198 ) ) ;
#168 = EDGE_CURVE ( 'NONE', #243, #220, #292, .T. ) ;
#169 = ORIENTED_EDGE ( 'NONE', *, *, #64, .T. ) ;
#170 = CIRCLE ( 'NONE', #53, 0.04684999999999999581 ) ;
#171 = ADVANCED_FACE ( 'NONE', ( #131 ), #268, .F. ) ;
#172 = CARTESIAN_POINT ( 'NONE',  ( 2.195742056803375821E-35, 0.5000000000000000000, 0.000000000000000000 ) ) ;
#173 = SURFACE_SIDE_STYLE ('',( #13 ) ) ;
#174 = AXIS2_PLACEMENT_3D ( 'NONE', #354, #80, #240 ) ;
#175 = CARTESIAN_POINT ( 'NONE',  ( -0.1250000000000000278, 0.7916597706115068300, 0.000000000000000000 ) ) ;
#176 = FACE_OUTER_BOUND ( 'NONE', #57, .T. ) ;
#177 =( LENGTH_UNIT ( ) NAMED_UNIT ( * ) SI_UNIT ( $, .METRE. ) );
#178 = SURFACE_STYLE_USAGE ( .BOTH. , #173 ) ;
#179 = LENGTH_MEASURE_WITH_UNIT ( LENGTH_MEASURE( 0.02539999999999999897 ), #153 );
#180 = ADVANCED_FACE ( 'NONE', ( #159 ), #304, .T. ) ;
#181 = ORIENTED_EDGE ( 'NONE', *, *, #75, .T. ) ;
#182 = LINE ( 'NONE', #82, #204 ) ;
#183 = STYLED_ITEM ( 'NONE', ( #124 ), #254 ) ;
#184 = AXIS2_PLACEMENT_3D ( 'NONE', #45, #340, #146 ) ;
#185 = CLOSED_SHELL ( 'NONE', ( #98, #297, #279, #180, #329, #171 ) ) ;
#186 =( LENGTH_UNIT ( ) NAMED_UNIT ( * ) SI_UNIT ( $, .METRE. ) );
#187 = DIRECTION ( 'NONE',  ( -1.000000000000000000, 0.000000000000000000, 0.000000000000000000 ) ) ;
#188 = DIRECTION ( 'NONE',  ( -3.061616997868383018E-17, 1.000000000000000000, -0.000000000000000000 ) ) ;
#189 = COLOUR_RGB ( '',1.000000000000000000, 0.000000000000000000, 0.000000000000000000 ) ;
#190 = CARTESIAN_POINT ( 'NONE',  ( -6.123233995736766036E-17, 2.500000000000000000, 0.000000000000000000 ) ) ;
#191 =( LENGTH_UNIT ( ) NAMED_UNIT ( * ) SI_UNIT ( $, .METRE. ) );
#192 = DIRECTION ( 'NONE',  ( 3.061616997868383018E-17, -1.000000000000000000, 0.000000000000000000 ) ) ;
#193 = ORIENTED_EDGE ( 'NONE', *, *, #228, .F. ) ;
#194 = DIRECTION ( 'NONE',  ( -0.000000000000000000, -1.000000000000000000, -0.000000000000000000 ) ) ;
#195 = ORIENTED_EDGE ( 'NONE', *, *, #100, .T. ) ;
#196 = MECHANICAL_DESIGN_GEOMETRIC_PRESENTATION_REPRESENTATION (  '', ( #156 ), #294 ) ;
#197 = ORIENTED_EDGE ( 'NONE', *, *, #241, .F. ) ;
#198 = SURFACE_STYLE_FILL_AREA ( #89 ) ;
#199 = EDGE_CURVE ( 'NONE', #103, #160, #94, .T. ) ;
#200 = ORIENTED_EDGE ( 'NONE', *, *, #199, .F. ) ;
#201 = PRESENTATION_LAYER_ASSIGNMENT (  '', '', ( #316 ) ) ;
#202 = CARTESIAN_POINT ( 'NONE',  ( 0.000000000000000000, 0.5000000000000000000, 0.000000000000000000 ) ) ;
#203 = DIRECTION ( 'NONE',  ( -0.2588190451025217387, 0.9659258262890679791, 0.000000000000000000 ) ) ;
#204 = VECTOR ( 'NONE', #155, 39.37007874015748143 ) ;
#205 = CYLINDRICAL_SURFACE ( 'NONE', #295, 0.04684999999999999581 ) ;
#206 = PRESENTATION_STYLE_ASSIGNMENT (( #230 ) ) ;
#207 =( GEOMETRIC_REPRESENTATION_CONTEXT ( 3 ) GLOBAL_UNCERTAINTY_ASSIGNED_CONTEXT ( ( #129 ) ) GLOBAL_UNIT_ASSIGNED_CONTEXT ( ( #236, #356, #34 ) ) REPRESENTATION_CONTEXT ( 'NONE', 'WORKASPACE' ) );
#208 = MECHANICAL_DESIGN_GEOMETRIC_PRESENTATION_REPRESENTATION (  '', ( #162 ), #226 ) ;
#209 = FACE_OUTER_BOUND ( 'NONE', #141, .T. ) ;
#210 = DIRECTION ( 'NONE',  ( -0.000000000000000000, -1.000000000000000000, -0.000000000000000000 ) ) ;
#211 = CARTESIAN_POINT ( 'NONE',  ( 0.1250000000000000000, 2.500000000000000000, 0.000000000000000000 ) ) ;
#212 = VECTOR ( 'NONE', #203, 39.37007874015748143 ) ;
#213 = DIRECTION ( 'NONE',  ( -1.000000000000000000, 0.000000000000000000, 0.000000000000000000 ) ) ;
#214 = ORIENTED_EDGE ( 'NONE', *, *, #139, .F. ) ;
#215 = ORIENTED_EDGE ( 'NONE', *, *, #347, .T. ) ;
#216 =( GEOMETRIC_REPRESENTATION_CONTEXT ( 3 ) GLOBAL_UNCERTAINTY_ASSIGNED_CONTEXT ( ( #301 ) ) GLOBAL_UNIT_ASSIGNED_CONTEXT ( ( #286, #127, #344 ) ) REPRESENTATION_CONTEXT ( 'NONE', 'WORKASPACE' ) );
#217 = ORIENTED_EDGE ( 'NONE', *, *, #168, .T. ) ;
#218 = EDGE_CURVE ( 'NONE', #160, #103, #102, .T. ) ;
#219 = SURFACE_STYLE_USAGE ( .BOTH. , #165 ) ;
#220 = VERTEX_POINT ( 'NONE', #307 ) ;
#221 = SURFACE_STYLE_FILL_AREA ( #58 ) ;
#222 = ORIENTED_EDGE ( 'NONE', *, *, #100, .F. ) ;
#223 = CARTESIAN_POINT ( 'NONE',  ( 0.000000000000000000, 0.5000000000000001110, 0.000000000000000000 ) ) ;
#224 =( GEOMETRIC_REPRESENTATION_CONTEXT ( 3 ) GLOBAL_UNCERTAINTY_ASSIGNED_CONTEXT ( ( #269 ) ) GLOBAL_UNIT_ASSIGNED_CONTEXT ( ( #32, #309, #117 ) ) REPRESENTATION_CONTEXT ( 'NONE', 'WORKASPACE' ) );
#225 = DIRECTION ( 'NONE',  ( 0.000000000000000000, 0.000000000000000000, -1.000000000000000000 ) ) ;
#226 =( GEOMETRIC_REPRESENTATION_CONTEXT ( 3 ) GLOBAL_UNCERTAINTY_ASSIGNED_CONTEXT ( ( #349 ) ) GLOBAL_UNIT_ASSIGNED_CONTEXT ( ( #314, #355, #348 ) ) REPRESENTATION_CONTEXT ( 'NONE', 'WORKASPACE' ) );
#227 = DIRECTION ( 'NONE',  ( -1.000000000000000000, 0.000000000000000000, 0.000000000000000000 ) ) ;
#228 = EDGE_CURVE ( 'NONE', #220, #6, #170, .T. ) ;
#229 = PRESENTATION_STYLE_ASSIGNMENT (( #65 ) ) ;
#230 = SURFACE_STYLE_USAGE ( .BOTH. , #167 ) ;
#231 = FACE_OUTER_BOUND ( 'NONE', #330, .T. ) ;
#232 = MECHANICAL_DESIGN_GEOMETRIC_PRESENTATION_REPRESENTATION (  '', ( #68 ), #224 ) ;
#233 =( LENGTH_UNIT ( ) NAMED_UNIT ( * ) SI_UNIT ( $, .METRE. ) );
#234 = CARTESIAN_POINT ( 'NONE',  ( -0.04684999999999999581, 0.5000000000000001110, 0.000000000000000000 ) ) ;
#235 = SURFACE_STYLE_USAGE ( .BOTH. , #288 ) ;
#236 =( CONVERSION_BASED_UNIT ( 'INCH', #50 ) LENGTH_UNIT ( ) NAMED_UNIT ( #302 ) );
#237 = AXIS2_PLACEMENT_3D ( 'NONE', #303, #335, #332 ) ;
#238 = AXIS2_PLACEMENT_3D ( 'NONE', #202, #73, #49 ) ;
#239 = PRODUCT_CONTEXT ( 'NONE', #67, 'mechanical' ) ;
#240 = DIRECTION ( 'NONE',  ( 0.000000000000000000, 0.000000000000000000, -1.000000000000000000 ) ) ;
#241 = EDGE_CURVE ( 'NONE', #6, #220, #282, .T. ) ;
#242 = COLOUR_RGB ( '',0.7921568627450980005, 0.8196078431372548767, 0.9333333333333333481 ) ;
#243 = VERTEX_POINT ( 'NONE', #143 ) ;
#244 = FACE_OUTER_BOUND ( 'NONE', #59, .T. ) ;
#245 = ADVANCED_FACE ( 'NONE', ( #244 ), #61, .T. ) ;
#246 = ORIENTED_EDGE ( 'NONE', *, *, #71, .F. ) ;
#247 = DIRECTION ( 'NONE',  ( 0.000000000000000000, 1.000000000000000000, 0.000000000000000000 ) ) ;
#248 = PRESENTATION_LAYER_ASSIGNMENT (  '', '', ( #162 ) ) ;
#249 = MECHANICAL_DESIGN_GEOMETRIC_PRESENTATION_REPRESENTATION (  '', ( #316 ), #207 ) ;
#250 = DIRECTION ( 'NONE',  ( -3.061616997868383018E-17, 1.000000000000000000, -0.000000000000000000 ) ) ;
#251 = CARTESIAN_POINT ( 'NONE',  ( 0.000000000000000000, 0.000000000000000000, -0.04684999999999999581 ) ) ;
#252 = DIRECTION ( 'NONE',  ( -3.061616997868383018E-17, 1.000000000000000000, -0.000000000000000000 ) ) ;
#253 = PRODUCT_DEFINITION_SHAPE ( 'NONE', 'NONE',  #164 ) ;
#254 = ADVANCED_FACE ( 'NONE', ( #308 ), #205, .T. ) ;
#255 = ORIENTED_EDGE ( 'NONE', *, *, #24, .F. ) ;
#256 = PLANE ( 'NONE',  #126 ) ;
#257 = DIRECTION ( 'NONE',  ( 0.2588190451025216277, 0.9659258262890679791, 3.169619151431776035E-17 ) ) ;
#258 = FILL_AREA_STYLE_COLOUR ( '', #12 ) ;
#259 = AXIS2_PLACEMENT_3D ( 'NONE', #107, #210, #158 ) ;
#260 = CONICAL_SURFACE ( 'NONE', #184, 0.04684999999999999581, 0.2617993877991502960 ) ;
#261 = CARTESIAN_POINT ( 'NONE',  ( 0.000000000000000000, 0.000000000000000000, 0.000000000000000000 ) ) ;
#262 = EDGE_CURVE ( 'NONE', #336, #9, #150, .T. ) ;
#263 = EDGE_LOOP ( 'NONE', ( #215, #217, #197, #2 ) ) ;
#264 =( NAMED_UNIT ( * ) SI_UNIT ( $, .STERADIAN. ) SOLID_ANGLE_UNIT ( ) );
#265 = CARTESIAN_POINT ( 'NONE',  ( 5.737470254005349551E-18, 0.000000000000000000, 0.04684999999999999581 ) ) ;
#266 = CIRCLE ( 'NONE', #259, 0.04684999999999999581 ) ;
#267 = LENGTH_MEASURE_WITH_UNIT ( LENGTH_MEASURE( 0.02539999999999999897 ), #177 );
#268 = PLANE ( 'NONE',  #91 ) ;
#269 = UNCERTAINTY_MEASURE_WITH_UNIT (LENGTH_MEASURE( 1.000000000000000082E-05 ), #32, 'distance_accuracy_value', 'NONE');
#270 = ORIENTED_EDGE ( 'NONE', *, *, #44, .F. ) ;
#271 = APPLICATION_CONTEXT ( 'automotive_design' ) ;
#272 =( GEOMETRIC_REPRESENTATION_CONTEXT ( 3 ) GLOBAL_UNCERTAINTY_ASSIGNED_CONTEXT ( ( #10 ) ) GLOBAL_UNIT_ASSIGNED_CONTEXT ( ( #284, #318, #48 ) ) REPRESENTATION_CONTEXT ( 'NONE', 'WORKASPACE' ) );
#273 = PRODUCT_DEFINITION_FORMATION_WITH_SPECIFIED_SOURCE ( 'ANY', '', #28, .NOT_KNOWN. ) ;
#274 = EDGE_LOOP ( 'NONE', ( #166, #327 ) ) ;
#275 = LENGTH_MEASURE_WITH_UNIT ( LENGTH_MEASURE( 0.02539999999999999897 ), #140 );
#276 = CARTESIAN_POINT ( 'NONE',  ( 0.000000000000000000, 0.5000000000000000000, 0.000000000000000000 ) ) ;
#277 = AXIS2_PLACEMENT_3D ( 'NONE', #261, #52, #345 ) ;
#278 = CARTESIAN_POINT ( 'NONE',  ( 0.000000000000000000, 0.5000000000000001110, 0.000000000000000000 ) ) ;
#279 = ADVANCED_FACE ( 'NONE', ( #231 ), #256, .F. ) ;
#280 =( LENGTH_UNIT ( ) NAMED_UNIT ( * ) SI_UNIT ( $, .METRE. ) );
#281 = DIRECTION ( 'NONE',  ( -1.000000000000000000, -3.061616997868383018E-17, 0.000000000000000000 ) ) ;
#282 = CIRCLE ( 'NONE', #339, 0.04684999999999999581 ) ;
#283 = LINE ( 'NONE', #251, #81 ) ;
#284 =( CONVERSION_BASED_UNIT ( 'INCH', #66 ) LENGTH_UNIT ( ) NAMED_UNIT ( #326 ) );
#285 = CYLINDRICAL_SURFACE ( 'NONE', #4, 0.1250000000000000278 ) ;
#286 =( CONVERSION_BASED_UNIT ( 'INCH', #179 ) LENGTH_UNIT ( ) NAMED_UNIT ( #1 ) );
#287 = PRODUCT_DEFINITION_CONTEXT ( 'detailed design', #271, 'design' ) ;
#288 = SURFACE_SIDE_STYLE ('',( #72 ) ) ;
#289 = AXIS2_PLACEMENT_3D ( 'NONE', #148, #315, #227 ) ;
#290 = CARTESIAN_POINT ( 'NONE',  ( 0.04684999999999999581, 0.5000000000000001110, 1.052277762167363194E-17 ) ) ;
#291 = DIRECTION ( 'NONE',  ( -0.000000000000000000, -1.000000000000000000, -0.000000000000000000 ) ) ;
#292 = LINE ( 'NONE', #265, #310 ) ;
#293 = PRESENTATION_STYLE_ASSIGNMENT (( #323 ) ) ;
#294 =( GEOMETRIC_REPRESENTATION_CONTEXT ( 3 ) GLOBAL_UNCERTAINTY_ASSIGNED_CONTEXT ( ( #317 ) ) GLOBAL_UNIT_ASSIGNED_CONTEXT ( ( #331, #39, #113 ) ) REPRESENTATION_CONTEXT ( 'NONE', 'WORKASPACE' ) );
#295 = AXIS2_PLACEMENT_3D ( 'NONE', #313, #46, #225 ) ;
#296 = COLOUR_RGB ( '',1.000000000000000000, 0.000000000000000000, 0.000000000000000000 ) ;
#297 = ADVANCED_FACE ( 'NONE', ( #17 ), #260, .T. ) ;
#298 = LINE ( 'NONE', #234, #212 ) ;
#299 = ORIENTED_EDGE ( 'NONE', *, *, #218, .T. ) ;
#300 = DIRECTION ( 'NONE',  ( -0.000000000000000000, -1.000000000000000000, -0.000000000000000000 ) ) ;
#301 = UNCERTAINTY_MEASURE_WITH_UNIT (LENGTH_MEASURE( 1.000000000000000082E-05 ), #286, 'distance_accuracy_value', 'NONE');
#302 = DIMENSIONAL_EXPONENTS ( 1.000000000000000000, 0.000000000000000000, 0.000000000000000000, 0.000000000000000000, 0.000000000000000000, 0.000000000000000000, 0.000000000000000000 ) ;
#303 = CARTESIAN_POINT ( 'NONE',  ( 0.000000000000000000, 0.5000000000000001110, 0.000000000000000000 ) ) ;
#304 = CONICAL_SURFACE ( 'NONE', #87, 0.04684999999999999581, 0.2617993877991502960 ) ;
#305 = AXIS2_PLACEMENT_3D ( 'NONE', #106, #291, #130 ) ;
#306 = ORIENTED_EDGE ( 'NONE', *, *, #168, .F. ) ;
#307 = CARTESIAN_POINT ( 'NONE',  ( 5.737470254005349551E-18, 0.000000000000000000, 0.04684999999999999581 ) ) ;
#308 = FACE_OUTER_BOUND ( 'NONE', #263, .T. ) ;
#309 =( NAMED_UNIT ( * ) PLANE_ANGLE_UNIT ( ) SI_UNIT ( $, .RADIAN. ) );
#310 = VECTOR ( 'NONE', #30, 39.37007874015748143 ) ;
#311 = ORIENTED_EDGE ( 'NONE', *, *, #76, .F. ) ;
#312 = SURFACE_SIDE_STYLE ('',( #90 ) ) ;
#313 = CARTESIAN_POINT ( 'NONE',  ( 0.000000000000000000, 0.000000000000000000, 0.000000000000000000 ) ) ;
#314 =( CONVERSION_BASED_UNIT ( 'INCH', #43 ) LENGTH_UNIT ( ) NAMED_UNIT ( #37 ) );
#315 = DIRECTION ( 'NONE',  ( -3.061616997868383018E-17, 1.000000000000000000, -0.000000000000000000 ) ) ;
#316 = STYLED_ITEM ( 'NONE', ( #293 ), #138 ) ;
#317 = UNCERTAINTY_MEASURE_WITH_UNIT (LENGTH_MEASURE( 1.000000000000000082E-05 ), #331, 'distance_accuracy_value', 'NONE');
#318 =( NAMED_UNIT ( * ) PLANE_ANGLE_UNIT ( ) SI_UNIT ( $, .RADIAN. ) );
#319 = DIRECTION ( 'NONE',  ( -1.000000000000000000, 0.000000000000000000, 0.000000000000000000 ) ) ;
#320 = APPLICATION_PROTOCOL_DEFINITION ( 'draft international standard', 'automotive_design', 1998, #271 ) ;
#321 = SURFACE_SIDE_STYLE ('',( #26 ) ) ;
#322 = ORIENTED_EDGE ( 'NONE', *, *, #347, .F. ) ;
#323 = SURFACE_STYLE_USAGE ( .BOTH. , #321 ) ;
#324 = CARTESIAN_POINT ( 'NONE',  ( -6.123233995736766036E-17, 2.500000000000000000, 0.000000000000000000 ) ) ;
#325 = MECHANICAL_DESIGN_GEOMETRIC_PRESENTATION_REPRESENTATION (  '', ( #183 ), #272 ) ;
#326 = DIMENSIONAL_EXPONENTS ( 1.000000000000000000, 0.000000000000000000, 0.000000000000000000, 0.000000000000000000, 0.000000000000000000, 0.000000000000000000, 0.000000000000000000 ) ;
#327 = ORIENTED_EDGE ( 'NONE', *, *, #24, .T. ) ;
#328 = DIMENSIONAL_EXPONENTS ( 1.000000000000000000, 0.000000000000000000, 0.000000000000000000, 0.000000000000000000, 0.000000000000000000, 0.000000000000000000, 0.000000000000000000 ) ;
#329 = ADVANCED_FACE ( 'NONE', ( #69 ), #147, .T. ) ;
#330 = EDGE_LOOP ( 'NONE', ( #151, #200 ) ) ;
#331 =( CONVERSION_BASED_UNIT ( 'INCH', #275 ) LENGTH_UNIT ( ) NAMED_UNIT ( #328 ) );
#332 = DIRECTION ( 'NONE',  ( -1.000000000000000000, 0.000000000000000000, 0.000000000000000000 ) ) ;
#333 = PRESENTATION_LAYER_ASSIGNMENT (  '', '', ( #135 ) ) ;
#334 = ORIENTED_EDGE ( 'NONE', *, *, #199, .T. ) ;
#335 = DIRECTION ( 'NONE',  ( -3.061616997868383018E-17, 1.000000000000000000, -0.000000000000000000 ) ) ;
#336 = VERTEX_POINT ( 'NONE', #175 ) ;
#337 = PRESENTATION_STYLE_ASSIGNMENT (( #219 ) ) ;
#338 = DIRECTION ( 'NONE',  ( -3.061616997868383018E-17, 1.000000000000000000, 0.000000000000000000 ) ) ;
#339 = AXIS2_PLACEMENT_3D ( 'NONE', #7, #194, #163 ) ;
#340 = DIRECTION ( 'NONE',  ( -3.061616997868383018E-17, 1.000000000000000000, -0.000000000000000000 ) ) ;
#341 = DIRECTION ( 'NONE',  ( -0.000000000000000000, -1.000000000000000000, -0.000000000000000000 ) ) ;
#342 = AXIS2_PLACEMENT_3D ( 'NONE', #276, #247, #41 ) ;
#343 = CARTESIAN_POINT ( 'NONE',  ( -6.123233995736766036E-17, 2.500000000000000000, 0.000000000000000000 ) ) ;
#344 =( NAMED_UNIT ( * ) SI_UNIT ( $, .STERADIAN. ) SOLID_ANGLE_UNIT ( ) );
#345 = DIRECTION ( 'NONE',  ( 1.000000000000000000, 0.000000000000000000, 0.000000000000000000 ) ) ;
#346 = CARTESIAN_POINT ( 'NONE',  ( 0.04684999999999999581, 0.5000000000000001110, 5.737470254005349551E-18 ) ) ;
#347 = EDGE_CURVE ( 'NONE', #358, #243, #120, .T. ) ;
#348 =( NAMED_UNIT ( * ) SI_UNIT ( $, .STERADIAN. ) SOLID_ANGLE_UNIT ( ) );
#349 = UNCERTAINTY_MEASURE_WITH_UNIT (LENGTH_MEASURE( 1.000000000000000082E-05 ), #314, 'distance_accuracy_value', 'NONE');
#350 = ADVANCED_FACE ( 'NONE', ( #152 ), #121, .T. ) ;
#351 = PRESENTATION_STYLE_ASSIGNMENT (( #235 ) ) ;
#352 = CIRCLE ( 'NONE', #109, 0.1250000000000000278 ) ;
#353 = EDGE_LOOP ( 'NONE', ( #222, #357, #111, #255 ) ) ;
#354 = CARTESIAN_POINT ( 'NONE',  ( 0.000000000000000000, 0.000000000000000000, 0.000000000000000000 ) ) ;
#355 =( NAMED_UNIT ( * ) PLANE_ANGLE_UNIT ( ) SI_UNIT ( $, .RADIAN. ) );
#356 =( NAMED_UNIT ( * ) PLANE_ANGLE_UNIT ( ) SI_UNIT ( $, .RADIAN. ) );
#357 = ORIENTED_EDGE ( 'NONE', *, *, #76, .T. ) ;
#358 = VERTEX_POINT ( 'NONE', #157 ) ;
#359 = ORIENTED_EDGE ( 'NONE', *, *, #161, .F. ) ;
ENDSEC;
END-ISO-10303-21;
