ISO-10303-21;
HEADER;
FILE_DESCRIPTION (( 'STEP AP214' ),
    '1' );
FILE_NAME ('Micro_GEMM-030-3X.STEP',
    '2021-09-01T21:27:00',
    ( '' ),
    ( '' ),
    'SwSTEP 2.0',
    'SolidWorks 2020',
    '' );
FILE_SCHEMA (( 'AUTOMOTIVE_DESIGN' ));
ENDSEC;

DATA;
#1 = EDGE_CURVE ( 'NONE', #193, #225, #143, .T. ) ;
#2 = LINE ( 'NONE', #119, #176 ) ;
#3 = CONICAL_SURFACE ( 'NONE', #207, 0.04405500000000001082, 0.7853981633974570498 ) ;
#4 = AXIS2_PLACEMENT_3D ( 'NONE', #59, #75, #198 ) ;
#5 = CARTESIAN_POINT ( 'NONE',  ( 3.379117917267799633E-17, 0.0000000000000000000, 0.2759259175478573911 ) ) ;
#6 = ORIENTED_EDGE ( 'NONE', *, *, #95, .T. ) ;
#7 = CARTESIAN_POINT ( 'NONE',  ( 0.04405500000000001082, 5.395181473643666598E-18, 1.496062999999999921 ) ) ;
#8 = ORIENTED_EDGE ( 'NONE', *, *, #179, .F. ) ;
#9 = CARTESIAN_POINT ( 'NONE',  ( -0.05905499999999994781, 0.0000000000000000000, 0.2759259175478573911 ) ) ;
#10 = DIRECTION ( 'NONE',  ( 0.0000000000000000000, 0.0000000000000000000, 1.000000000000000000 ) ) ;
#11 = STYLED_ITEM ( 'NONE', ( #291 ), #79 ) ;
#12 = CARTESIAN_POINT ( 'NONE',  ( 0.05899594500000002878, 0.0000000000000000000, 0.2755909999999999749 ) ) ;
#13 = CARTESIAN_POINT ( 'NONE',  ( 0.0000000000000000000, 0.0000000000000000000, 0.0000000000000000000 ) ) ;
#14 = APPLICATION_PROTOCOL_DEFINITION ( 'draft international standard', 'automotive_design', 1998, #290 ) ;
#15 = FACE_OUTER_BOUND ( 'NONE', #120, .T. ) ;
#16 = ORIENTED_EDGE ( 'NONE', *, *, #73, .T. ) ;
#17 = CIRCLE ( 'NONE', #184, 0.05899594499999999409 ) ;
#18 = AXIS2_PLACEMENT_3D ( 'NONE', #297, #89, #178 ) ;
#19 = CYLINDRICAL_SURFACE ( 'NONE', #208, 0.05899594499999999409 ) ;
#20 = EDGE_CURVE ( 'NONE', #123, #37, #17, .T. ) ;
#21 = FACE_OUTER_BOUND ( 'NONE', #294, .T. ) ;
#22 = CARTESIAN_POINT ( 'NONE',  ( 0.0000000000000000000, 0.0000000000000000000, 1.496062999999999921 ) ) ;
#23 = CARTESIAN_POINT ( 'NONE',  ( 0.04405500000000001082, 6.313666573004179469E-18, 1.496062999999999921 ) ) ;
#24 = AXIS2_PLACEMENT_3D ( 'NONE', #244, #145, #51 ) ;
#25 = CARTESIAN_POINT ( 'NONE',  ( 3.379117917267799633E-17, 0.0000000000000000000, 0.2759259175478573911 ) ) ;
#26 = CARTESIAN_POINT ( 'NONE',  ( 0.05899594499999999409, 7.224919520692329689E-18, 0.0000000000000000000 ) ) ;
#27 = ORIENTED_EDGE ( 'NONE', *, *, #179, .T. ) ;
#28 = DIRECTION ( 'NONE',  ( 1.224646799147352961E-16, 0.0000000000000000000, 1.000000000000000000 ) ) ;
#29 = VERTEX_POINT ( 'NONE', #275 ) ;
#30 = CARTESIAN_POINT ( 'NONE',  ( 0.0000000000000000000, 0.0000000000000000000, 1.496062999999999921 ) ) ;
#31 = EDGE_CURVE ( 'NONE', #211, #113, #299, .T. ) ;
#32 = FILL_AREA_STYLE_COLOUR ( '', #152 ) ;
#33 = VECTOR ( 'NONE', #212, 39.37007874015747433 ) ;
#34 =( NAMED_UNIT ( * ) PLANE_ANGLE_UNIT ( ) SI_UNIT ( $, .RADIAN. ) );
#35 = EDGE_LOOP ( 'NONE', ( #125, #266, #154, #77 ) ) ;
#36 = FILL_AREA_STYLE_COLOUR ( '', #185 ) ;
#37 = VERTEX_POINT ( 'NONE', #252 ) ;
#38 = ORIENTED_EDGE ( 'NONE', *, *, #91, .T. ) ;
#39 = ADVANCED_FACE ( 'NONE', ( #21 ), #3, .T. ) ;
#40 = ORIENTED_EDGE ( 'NONE', *, *, #210, .F. ) ;
#41 = CARTESIAN_POINT ( 'NONE',  ( 0.0000000000000000000, 0.0000000000000000000, 0.0000000000000000000 ) ) ;
#42 = ADVANCED_FACE ( 'NONE', ( #15 ), #19, .T. ) ;
#43 = AXIS2_PLACEMENT_3D ( 'NONE', #30, #127, #85 ) ;
#44 = DIRECTION ( 'NONE',  ( -1.000000000000000000, 0.0000000000000000000, 1.224646799147352961E-16 ) ) ;
#45 = UNCERTAINTY_MEASURE_WITH_UNIT (LENGTH_MEASURE( 1.000000000000000082E-05 ), #206, 'distance_accuracy_value', 'NONE');
#46 = DIRECTION ( 'NONE',  ( 1.000000000000000000, 0.0000000000000000000, 0.0000000000000000000 ) ) ;
#47 = PLANE ( 'NONE',  #49 ) ;
#48 = STYLED_ITEM ( 'NONE', ( #192 ), #247 ) ;
#49 = AXIS2_PLACEMENT_3D ( 'NONE', #144, #80, #98 ) ;
#50 = LENGTH_MEASURE_WITH_UNIT ( LENGTH_MEASURE( 0.02539999999999999897 ), #121 );
#51 = DIRECTION ( 'NONE',  ( 1.000000000000000000, 0.0000000000000000000, 0.0000000000000000000 ) ) ;
#52 = SURFACE_SIDE_STYLE ('',( #261 ) ) ;
#53 = AXIS2_PLACEMENT_3D ( 'NONE', #229, #62, #201 ) ;
#54 = CIRCLE ( 'NONE', #277, 0.05899594499999999409 ) ;
#55 = ORIENTED_EDGE ( 'NONE', *, *, #73, .F. ) ;
#56 = DIRECTION ( 'NONE',  ( 0.1736481776669314137, 0.0000000000000000000, 0.9848077530122077983 ) ) ;
#57 = EDGE_LOOP ( 'NONE', ( #215, #76, #246, #6 ) ) ;
#58 = CIRCLE ( 'NONE', #188, 0.05905499999999998251 ) ;
#59 = CARTESIAN_POINT ( 'NONE',  ( 0.0000000000000000000, 0.0000000000000000000, 1.496062999999999921 ) ) ;
#60 = ORIENTED_EDGE ( 'NONE', *, *, #281, .F. ) ;
#61 = CARTESIAN_POINT ( 'NONE',  ( 8.847974565113086764E-34, 0.0000000000000000000, 7.224919520692328148E-18 ) ) ;
#62 = DIRECTION ( 'NONE',  ( 0.0000000000000000000, 0.0000000000000000000, 1.000000000000000000 ) ) ;
#63 = PRODUCT_DEFINITION_FORMATION_WITH_SPECIFIED_SOURCE ( 'ANY', '', #293, .NOT_KNOWN. ) ;
#64 = EDGE_CURVE ( 'NONE', #113, #211, #134, .T. ) ;
#65 = APPLICATION_PROTOCOL_DEFINITION ( 'draft international standard', 'automotive_design', 1998, #167 ) ;
#66 = VECTOR ( 'NONE', #183, 39.37007874015748854 ) ;
#67 = DIRECTION ( 'NONE',  ( 1.000000000000000000, 0.0000000000000000000, 0.0000000000000000000 ) ) ;
#68 = CARTESIAN_POINT ( 'NONE',  ( -0.05899594499999995939, 7.224919520692329689E-18, 0.2755909999999999749 ) ) ;
#69 = UNCERTAINTY_MEASURE_WITH_UNIT (LENGTH_MEASURE( 1.000000000000000082E-05 ), #181, 'distance_accuracy_value', 'NONE');
#70 = FACE_OUTER_BOUND ( 'NONE', #195, .T. ) ;
#71 = CIRCLE ( 'NONE', #97, 0.05899594499999999409 ) ;
#72 = DIRECTION ( 'NONE',  ( 1.000000000000000000, 0.0000000000000000000, 0.0000000000000000000 ) ) ;
#73 = EDGE_CURVE ( 'NONE', #193, #113, #199, .T. ) ;
#74 = VERTEX_POINT ( 'NONE', #172 ) ;
#75 = DIRECTION ( 'NONE',  ( -0.0000000000000000000, -0.0000000000000000000, -1.000000000000000000 ) ) ;
#76 = ORIENTED_EDGE ( 'NONE', *, *, #202, .F. ) ;
#77 = ORIENTED_EDGE ( 'NONE', *, *, #287, .F. ) ;
#78 = VECTOR ( 'NONE', #269, 39.37007874015748143 ) ;
#79 = MANIFOLD_SOLID_BREP ( 'Cut-Revolve1', #280 ) ;
#80 = DIRECTION ( 'NONE',  ( 0.0000000000000000000, 0.0000000000000000000, 1.000000000000000000 ) ) ;
#81 = DIRECTION ( 'NONE',  ( 0.0000000000000000000, 0.0000000000000000000, -1.000000000000000000 ) ) ;
#82 = ADVANCED_FACE ( 'NONE', ( #92 ), #295, .T. ) ;
#83 = FACE_OUTER_BOUND ( 'NONE', #86, .T. ) ;
#84 = SURFACE_STYLE_USAGE ( .BOTH. , #197 ) ;
#85 = DIRECTION ( 'NONE',  ( -1.000000000000000000, 0.0000000000000000000, 0.0000000000000000000 ) ) ;
#86 = EDGE_LOOP ( 'NONE', ( #273, #268, #170, #216 ) ) ;
#87 = PRESENTATION_LAYER_ASSIGNMENT (  '', '', ( #11 ) ) ;
#88 = ORIENTED_EDGE ( 'NONE', *, *, #233, .T. ) ;
#89 = DIRECTION ( 'NONE',  ( 0.0000000000000000000, 0.0000000000000000000, -1.000000000000000000 ) ) ;
#90 = MECHANICAL_DESIGN_GEOMETRIC_PRESENTATION_REPRESENTATION (  '', ( #11 ), #257 ) ;
#91 = EDGE_CURVE ( 'NONE', #211, #256, #2, .T. ) ;
#92 = FACE_OUTER_BOUND ( 'NONE', #35, .T. ) ;
#93 = AXIS2_PLACEMENT_3D ( 'NONE', #124, #10, #130 ) ;
#94 = DIRECTION ( 'NONE',  ( 0.0000000000000000000, 0.0000000000000000000, 1.000000000000000000 ) ) ;
#95 = EDGE_CURVE ( 'NONE', #256, #272, #58, .T. ) ;
#96 = FACE_OUTER_BOUND ( 'NONE', #57, .T. ) ;
#97 = AXIS2_PLACEMENT_3D ( 'NONE', #282, #164, #260 ) ;
#98 = DIRECTION ( 'NONE',  ( 1.000000000000000000, 0.0000000000000000000, -0.0000000000000000000 ) ) ;
#99 = ORIENTED_EDGE ( 'NONE', *, *, #148, .T. ) ;
#100 = SURFACE_STYLE_USAGE ( .BOTH. , #52 ) ;
#101 = ORIENTED_EDGE ( 'NONE', *, *, #64, .T. ) ;
#102 = LINE ( 'NONE', #289, #78 ) ;
#103 = ORIENTED_EDGE ( 'NONE', *, *, #259, .T. ) ;
#104 =( GEOMETRIC_REPRESENTATION_CONTEXT ( 3 ) GLOBAL_UNCERTAINTY_ASSIGNED_CONTEXT ( ( #162 ) ) GLOBAL_UNIT_ASSIGNED_CONTEXT ( ( #105, #34, #249 ) ) REPRESENTATION_CONTEXT ( 'NONE', 'WORKASPACE' ) );
#105 =( CONVERSION_BASED_UNIT ( 'INCH', #168 ) LENGTH_UNIT ( ) NAMED_UNIT ( #223 ) );
#106 = SURFACE_STYLE_FILL_AREA ( #129 ) ;
#107 = LINE ( 'NONE', #12, #140 ) ;
#108 = DIRECTION ( 'NONE',  ( -1.224646799147352961E-16, -0.0000000000000000000, -1.000000000000000000 ) ) ;
#109 = EDGE_LOOP ( 'NONE', ( #177, #296, #88, #240 ) ) ;
#110 = AXIS2_PLACEMENT_3D ( 'NONE', #265, #286, #155 ) ;
#111 = DIRECTION ( 'NONE',  ( 1.000000000000000000, 0.0000000000000000000, 0.0000000000000000000 ) ) ;
#112 = DIRECTION ( 'NONE',  ( -1.000000000000000000, 0.0000000000000000000, 1.224646799147352961E-16 ) ) ;
#113 = VERTEX_POINT ( 'NONE', #161 ) ;
#114 = DIRECTION ( 'NONE',  ( 0.0000000000000000000, 0.0000000000000000000, -1.000000000000000000 ) ) ;
#115 = VECTOR ( 'NONE', #253, 39.37007874015748854 ) ;
#116 = LINE ( 'NONE', #209, #128 ) ;
#117 = DIRECTION ( 'NONE',  ( -0.0000000000000000000, -0.0000000000000000000, -1.000000000000000000 ) ) ;
#118 = EDGE_LOOP ( 'NONE', ( #101, #38, #40, #137 ) ) ;
#119 = CARTESIAN_POINT ( 'NONE',  ( 0.05905499999999998251, 7.232151672364692341E-18, 1.496062999999999921 ) ) ;
#120 = EDGE_LOOP ( 'NONE', ( #60, #165, #103, #218 ) ) ;
#121 =( LENGTH_UNIT ( ) NAMED_UNIT ( * ) SI_UNIT ( $, .METRE. ) );
#122 = VECTOR ( 'NONE', #175, 39.37007874015748143 ) ;
#123 = VERTEX_POINT ( 'NONE', #26 ) ;
#124 = CARTESIAN_POINT ( 'NONE',  ( 0.0000000000000000000, 0.0000000000000000000, 1.496062999999999921 ) ) ;
#125 = ORIENTED_EDGE ( 'NONE', *, *, #196, .F. ) ;
#126 = PRODUCT_DEFINITION ( 'UNKNOWN', '', #63, #231 ) ;
#127 = DIRECTION ( 'NONE',  ( -0.0000000000000000000, -0.0000000000000000000, -1.000000000000000000 ) ) ;
#128 = VECTOR ( 'NONE', #283, 39.37007874015748143 ) ;
#129 = FILL_AREA_STYLE ('',( #32 ) ) ;
#130 = DIRECTION ( 'NONE',  ( 1.000000000000000000, 0.0000000000000000000, -0.0000000000000000000 ) ) ;
#131 = ORIENTED_EDGE ( 'NONE', *, *, #148, .F. ) ;
#132 = CARTESIAN_POINT ( 'NONE',  ( 0.0000000000000000000, 0.0000000000000000000, 1.481063000000000240 ) ) ;
#133 = CARTESIAN_POINT ( 'NONE',  ( 0.0000000000000000000, 0.0000000000000000000, 1.496062999999999921 ) ) ;
#134 = CIRCLE ( 'NONE', #18, 0.05905499999999998251 ) ;
#135 = PRESENTATION_LAYER_ASSIGNMENT (  '', '', ( #48 ) ) ;
#136 =( NAMED_UNIT ( * ) PLANE_ANGLE_UNIT ( ) SI_UNIT ( $, .RADIAN. ) );
#137 = ORIENTED_EDGE ( 'NONE', *, *, #233, .F. ) ;
#138 =( NAMED_UNIT ( * ) SI_UNIT ( $, .STERADIAN. ) SOLID_ANGLE_UNIT ( ) );
#139 = EDGE_CURVE ( 'NONE', #29, #272, #285, .T. ) ;
#140 = VECTOR ( 'NONE', #56, 39.37007874015748143 ) ;
#141 = DIRECTION ( 'NONE',  ( -1.224646799147352961E-16, -0.0000000000000000000, -1.000000000000000000 ) ) ;
#142 = CARTESIAN_POINT ( 'NONE',  ( 0.05905499999999998251, 7.232151672364692341E-18, 1.481063000000000240 ) ) ;
#143 = CIRCLE ( 'NONE', #53, 0.04405500000000001082 ) ;
#144 = CARTESIAN_POINT ( 'NONE',  ( 0.0000000000000000000, 0.0000000000000000000, 0.0000000000000000000 ) ) ;
#145 = DIRECTION ( 'NONE',  ( 1.224646799147352961E-16, 0.0000000000000000000, 1.000000000000000000 ) ) ;
#146 = FACE_OUTER_BOUND ( 'NONE', #203, .T. ) ;
#147 = FACE_OUTER_BOUND ( 'NONE', #213, .T. ) ;
#148 = EDGE_CURVE ( 'NONE', #225, #211, #239, .T. ) ;
#149 = DIMENSIONAL_EXPONENTS ( 1.000000000000000000, 0.0000000000000000000, 0.0000000000000000000, 0.0000000000000000000, 0.0000000000000000000, 0.0000000000000000000, 0.0000000000000000000 ) ;
#150 = ORIENTED_EDGE ( 'NONE', *, *, #20, .T. ) ;
#151 = CYLINDRICAL_SURFACE ( 'NONE', #4, 0.05905499999999998251 ) ;
#152 = COLOUR_RGB ( '',0.7921568627450980005, 0.8196078431372548767, 0.9333333333333333481 ) ;
#153 = ADVANCED_FACE ( 'NONE', ( #96 ), #226, .T. ) ;
#154 = ORIENTED_EDGE ( 'NONE', *, *, #210, .T. ) ;
#155 = DIRECTION ( 'NONE',  ( -1.000000000000000000, 0.0000000000000000000, 1.224646799147352961E-16 ) ) ;
#156 = DIRECTION ( 'NONE',  ( 0.0000000000000000000, 0.0000000000000000000, -1.000000000000000000 ) ) ;
#157 = DIRECTION ( 'NONE',  ( 1.000000000000000000, 0.0000000000000000000, 0.0000000000000000000 ) ) ;
#158 = DIRECTION ( 'NONE',  ( -1.000000000000000000, 0.0000000000000000000, 1.224646799147352961E-16 ) ) ;
#159 = AXIS2_PLACEMENT_3D ( 'NONE', #189, #94, #72 ) ;
#160 = CARTESIAN_POINT ( 'NONE',  ( 8.847974565113086764E-34, 0.0000000000000000000, 7.224919520692328148E-18 ) ) ;
#161 = CARTESIAN_POINT ( 'NONE',  ( -0.05905499999999998251, 0.0000000000000000000, 1.481063000000000240 ) ) ;
#162 = UNCERTAINTY_MEASURE_WITH_UNIT (LENGTH_MEASURE( 1.000000000000000082E-05 ), #105, 'distance_accuracy_value', 'NONE');
#163 = DIRECTION ( 'NONE',  ( -1.224646799147352961E-16, -0.0000000000000000000, -1.000000000000000000 ) ) ;
#164 = DIRECTION ( 'NONE',  ( -1.224646799147352961E-16, -0.0000000000000000000, -1.000000000000000000 ) ) ;
#165 = ORIENTED_EDGE ( 'NONE', *, *, #202, .T. ) ;
#166 =( LENGTH_UNIT ( ) NAMED_UNIT ( * ) SI_UNIT ( $, .METRE. ) );
#167 = APPLICATION_CONTEXT ( 'automotive_design' ) ;
#168 = LENGTH_MEASURE_WITH_UNIT ( LENGTH_MEASURE( 0.02539999999999999897 ), #166 );
#169 = AXIS2_PLACEMENT_3D ( 'NONE', #25, #255, #46 ) ;
#170 = ORIENTED_EDGE ( 'NONE', *, *, #182, .F. ) ;
#171 = PLANE ( 'NONE',  #93 ) ;
#172 = CARTESIAN_POINT ( 'NONE',  ( 0.05899594500000002878, 0.0000000000000000000, 0.2755909999999999749 ) ) ;
#173 = FACE_OUTER_BOUND ( 'NONE', #109, .T. ) ;
#174 = ORIENTED_EDGE ( 'NONE', *, *, #64, .F. ) ;
#175 = DIRECTION ( 'NONE',  ( -1.224646799147352961E-16, -0.0000000000000000000, -1.000000000000000000 ) ) ;
#176 = VECTOR ( 'NONE', #117, 39.37007874015748143 ) ;
#177 = ORIENTED_EDGE ( 'NONE', *, *, #91, .F. ) ;
#178 = DIRECTION ( 'NONE',  ( 1.000000000000000000, 0.0000000000000000000, 0.0000000000000000000 ) ) ;
#179 = EDGE_CURVE ( 'NONE', #225, #193, #228, .T. ) ;
#180 = AXIS2_PLACEMENT_3D ( 'NONE', #22, #114, #235 ) ;
#181 =( CONVERSION_BASED_UNIT ( 'INCH', #276 ) LENGTH_UNIT ( ) NAMED_UNIT ( #149 ) );
#182 = EDGE_CURVE ( 'NONE', #37, #123, #54, .T. ) ;
#183 = DIRECTION ( 'NONE',  ( 0.7071067811865536790, 8.659560562355008046E-17, -0.7071067811865412445 ) ) ;
#184 = AXIS2_PLACEMENT_3D ( 'NONE', #61, #224, #112 ) ;
#185 = COLOUR_RGB ( '',0.7921568627450980005, 0.8196078431372548767, 0.9333333333333333481 ) ;
#186 = CARTESIAN_POINT ( 'NONE',  ( 3.375016360238180974E-17, 0.0000000000000000000, 0.2755909999999999749 ) ) ;
#187 =( NAMED_UNIT ( * ) PLANE_ANGLE_UNIT ( ) SI_UNIT ( $, .RADIAN. ) );
#188 = AXIS2_PLACEMENT_3D ( 'NONE', #5, #163, #237 ) ;
#189 = CARTESIAN_POINT ( 'NONE',  ( 0.0000000000000000000, 0.0000000000000000000, 1.496062999999999921 ) ) ;
#190 = CARTESIAN_POINT ( 'NONE',  ( 0.05905500000000002414, 7.232151672364696963E-18, 0.2759259175478573911 ) ) ;
#191 = PRODUCT_RELATED_PRODUCT_CATEGORY ( 'part', '', ( #293 ) ) ;
#192 = PRESENTATION_STYLE_ASSIGNMENT (( #100 ) ) ;
#193 = VERTEX_POINT ( 'NONE', #232 ) ;
#194 = FACE_OUTER_BOUND ( 'NONE', #118, .T. ) ;
#195 = EDGE_LOOP ( 'NONE', ( #241, #150 ) ) ;
#196 = EDGE_CURVE ( 'NONE', #29, #74, #71, .T. ) ;
#197 = SURFACE_SIDE_STYLE ('',( #106 ) ) ;
#198 = DIRECTION ( 'NONE',  ( -1.000000000000000000, 0.0000000000000000000, 0.0000000000000000000 ) ) ;
#199 = LINE ( 'NONE', #222, #115 ) ;
#200 = CONICAL_SURFACE ( 'NONE', #180, 0.04405500000000001082, 0.7853981633974570498 ) ;
#201 = DIRECTION ( 'NONE',  ( 1.000000000000000000, 0.0000000000000000000, 0.0000000000000000000 ) ) ;
#202 = EDGE_CURVE ( 'NONE', #74, #29, #270, .T. ) ;
#203 = EDGE_LOOP ( 'NONE', ( #131, #250, #16, #236 ) ) ;
#204 = ADVANCED_FACE ( 'NONE', ( #146 ), #200, .T. ) ;
#205 = ORIENTED_EDGE ( 'NONE', *, *, #1, .T. ) ;
#206 =( CONVERSION_BASED_UNIT ( 'INCH', #50 ) LENGTH_UNIT ( ) NAMED_UNIT ( #274 ) );
#207 = AXIS2_PLACEMENT_3D ( 'NONE', #133, #156, #227 ) ;
#208 = AXIS2_PLACEMENT_3D ( 'NONE', #13, #108, #158 ) ;
#209 = CARTESIAN_POINT ( 'NONE',  ( -0.05905499999999998251, 0.0000000000000000000, 1.496062999999999921 ) ) ;
#210 = EDGE_CURVE ( 'NONE', #272, #256, #221, .T. ) ;
#211 = VERTEX_POINT ( 'NONE', #142 ) ;
#212 = DIRECTION ( 'NONE',  ( -0.1736481776669312194, 2.126576849575783625E-17, 0.9848077530122080203 ) ) ;
#213 = EDGE_LOOP ( 'NONE', ( #205, #27 ) ) ;
#214 = FILL_AREA_STYLE ('',( #36 ) ) ;
#215 = ORIENTED_EDGE ( 'NONE', *, *, #139, .F. ) ;
#216 = ORIENTED_EDGE ( 'NONE', *, *, #259, .F. ) ;
#217 = CYLINDRICAL_SURFACE ( 'NONE', #43, 0.05905499999999998251 ) ;
#218 = ORIENTED_EDGE ( 'NONE', *, *, #20, .F. ) ;
#219 = CYLINDRICAL_SURFACE ( 'NONE', #110, 0.05899594499999999409 ) ;
#220 =( GEOMETRIC_REPRESENTATION_CONTEXT ( 3 ) GLOBAL_UNCERTAINTY_ASSIGNED_CONTEXT ( ( #69 ) ) GLOBAL_UNIT_ASSIGNED_CONTEXT ( ( #181, #136, #138 ) ) REPRESENTATION_CONTEXT ( 'NONE', 'WORKASPACE' ) );
#221 = CIRCLE ( 'NONE', #169, 0.05905499999999998251 ) ;
#222 = CARTESIAN_POINT ( 'NONE',  ( -0.04405500000000001082, 0.0000000000000000000, 1.496062999999999921 ) ) ;
#223 = DIMENSIONAL_EXPONENTS ( 1.000000000000000000, 0.0000000000000000000, 0.0000000000000000000, 0.0000000000000000000, 0.0000000000000000000, 0.0000000000000000000, 0.0000000000000000000 ) ;
#224 = DIRECTION ( 'NONE',  ( -1.224646799147352961E-16, -0.0000000000000000000, -1.000000000000000000 ) ) ;
#225 = VERTEX_POINT ( 'NONE', #23 ) ;
#226 = CONICAL_SURFACE ( 'NONE', #245, 0.05899594499999999409, 0.1745329251994339192 ) ;
#227 = DIRECTION ( 'NONE',  ( -1.000000000000000000, 0.0000000000000000000, 0.0000000000000000000 ) ) ;
#228 = CIRCLE ( 'NONE', #159, 0.04405500000000001082 ) ;
#229 = CARTESIAN_POINT ( 'NONE',  ( 0.0000000000000000000, 0.0000000000000000000, 1.496062999999999921 ) ) ;
#230 = DIRECTION ( 'NONE',  ( -1.000000000000000000, 0.0000000000000000000, 0.0000000000000000000 ) ) ;
#231 = PRODUCT_DEFINITION_CONTEXT ( 'detailed design', #167, 'design' ) ;
#232 = CARTESIAN_POINT ( 'NONE',  ( -0.04405500000000001082, 0.0000000000000000000, 1.496062999999999921 ) ) ;
#233 = EDGE_CURVE ( 'NONE', #113, #272, #116, .T. ) ;
#234 = AXIS2_PLACEMENT_3D ( 'NONE', #186, #141, #230 ) ;
#235 = DIRECTION ( 'NONE',  ( -1.000000000000000000, 0.0000000000000000000, 0.0000000000000000000 ) ) ;
#236 = ORIENTED_EDGE ( 'NONE', *, *, #31, .F. ) ;
#237 = DIRECTION ( 'NONE',  ( 1.000000000000000000, 0.0000000000000000000, 0.0000000000000000000 ) ) ;
#238 = ADVANCED_FACE ( 'NONE', ( #70 ), #47, .F. ) ;
#239 = LINE ( 'NONE', #7, #66 ) ;
#240 = ORIENTED_EDGE ( 'NONE', *, *, #95, .F. ) ;
#241 = ORIENTED_EDGE ( 'NONE', *, *, #182, .T. ) ;
#242 =( LENGTH_UNIT ( ) NAMED_UNIT ( * ) SI_UNIT ( $, .METRE. ) );
#243 = ADVANCED_FACE ( 'NONE', ( #147 ), #171, .T. ) ;
#244 = CARTESIAN_POINT ( 'NONE',  ( 3.375016360238180974E-17, 0.0000000000000000000, 0.2755909999999999749 ) ) ;
#245 = AXIS2_PLACEMENT_3D ( 'NONE', #279, #28, #67 ) ;
#246 = ORIENTED_EDGE ( 'NONE', *, *, #287, .T. ) ;
#247 = ADVANCED_BREP_SHAPE_REPRESENTATION ( 'Micro_GEMM-030-3X', ( #79, #284 ), #104 ) ;
#248 = PRODUCT_DEFINITION_SHAPE ( 'NONE', 'NONE',  #126 ) ;
#249 =( NAMED_UNIT ( * ) SI_UNIT ( $, .STERADIAN. ) SOLID_ANGLE_UNIT ( ) );
#250 = ORIENTED_EDGE ( 'NONE', *, *, #1, .F. ) ;
#251 = DIRECTION ( 'NONE',  ( 0.0000000000000000000, 0.0000000000000000000, 1.000000000000000000 ) ) ;
#252 = CARTESIAN_POINT ( 'NONE',  ( -0.05899594499999999409, 0.0000000000000000000, 1.444983904138465630E-17 ) ) ;
#253 = DIRECTION ( 'NONE',  ( -0.7071067811865536790, 0.0000000000000000000, -0.7071067811865412445 ) ) ;
#254 = DIRECTION ( 'NONE',  ( -1.224646799147352961E-16, -0.0000000000000000000, -1.000000000000000000 ) ) ;
#255 = DIRECTION ( 'NONE',  ( -1.224646799147352961E-16, -0.0000000000000000000, -1.000000000000000000 ) ) ;
#256 = VERTEX_POINT ( 'NONE', #190 ) ;
#257 =( GEOMETRIC_REPRESENTATION_CONTEXT ( 3 ) GLOBAL_UNCERTAINTY_ASSIGNED_CONTEXT ( ( #45 ) ) GLOBAL_UNIT_ASSIGNED_CONTEXT ( ( #206, #187, #258 ) ) REPRESENTATION_CONTEXT ( 'NONE', 'WORKASPACE' ) );
#258 =( NAMED_UNIT ( * ) SI_UNIT ( $, .STERADIAN. ) SOLID_ANGLE_UNIT ( ) );
#259 = EDGE_CURVE ( 'NONE', #29, #37, #102, .T. ) ;
#260 = DIRECTION ( 'NONE',  ( -1.000000000000000000, 0.0000000000000000000, 0.0000000000000000000 ) ) ;
#261 = SURFACE_STYLE_FILL_AREA ( #214 ) ;
#262 = AXIS2_PLACEMENT_3D ( 'NONE', #132, #81, #157 ) ;
#263 = CARTESIAN_POINT ( 'NONE',  ( 0.05899594499999999409, 7.224919520692329689E-18, -7.224919520692328148E-18 ) ) ;
#264 = ADVANCED_FACE ( 'NONE', ( #194 ), #217, .T. ) ;
#265 = CARTESIAN_POINT ( 'NONE',  ( 0.0000000000000000000, 0.0000000000000000000, 0.0000000000000000000 ) ) ;
#266 = ORIENTED_EDGE ( 'NONE', *, *, #139, .T. ) ;
#267 = LINE ( 'NONE', #263, #122 ) ;
#268 = ORIENTED_EDGE ( 'NONE', *, *, #281, .T. ) ;
#269 = DIRECTION ( 'NONE',  ( -1.224646799147352961E-16, -0.0000000000000000000, -1.000000000000000000 ) ) ;
#270 = CIRCLE ( 'NONE', #234, 0.05899594499999999409 ) ;
#271 = ADVANCED_FACE ( 'NONE', ( #83 ), #219, .T. ) ;
#272 = VERTEX_POINT ( 'NONE', #9 ) ;
#273 = ORIENTED_EDGE ( 'NONE', *, *, #196, .T. ) ;
#274 = DIMENSIONAL_EXPONENTS ( 1.000000000000000000, 0.0000000000000000000, 0.0000000000000000000, 0.0000000000000000000, 0.0000000000000000000, 0.0000000000000000000, 0.0000000000000000000 ) ;
#275 = CARTESIAN_POINT ( 'NONE',  ( -0.05899594499999995939, 7.228535596528510244E-18, 0.2755909999999999749 ) ) ;
#276 = LENGTH_MEASURE_WITH_UNIT ( LENGTH_MEASURE( 0.02539999999999999897 ), #242 );
#277 = AXIS2_PLACEMENT_3D ( 'NONE', #160, #254, #44 ) ;
#278 = PRODUCT_CONTEXT ( 'NONE', #290, 'mechanical' ) ;
#279 = CARTESIAN_POINT ( 'NONE',  ( 3.375016360238180974E-17, 0.0000000000000000000, 0.2755909999999999749 ) ) ;
#280 = CLOSED_SHELL ( 'NONE', ( #271, #82, #39, #264, #292, #243, #204, #153, #42, #238 ) ) ;
#281 = EDGE_CURVE ( 'NONE', #74, #123, #267, .T. ) ;
#282 = CARTESIAN_POINT ( 'NONE',  ( 3.375016360238180974E-17, 0.0000000000000000000, 0.2755909999999999749 ) ) ;
#283 = DIRECTION ( 'NONE',  ( -0.0000000000000000000, -0.0000000000000000000, -1.000000000000000000 ) ) ;
#284 = AXIS2_PLACEMENT_3D ( 'NONE', #41, #251, #111 ) ;
#285 = LINE ( 'NONE', #68, #33 ) ;
#286 = DIRECTION ( 'NONE',  ( -1.224646799147352961E-16, -0.0000000000000000000, -1.000000000000000000 ) ) ;
#287 = EDGE_CURVE ( 'NONE', #74, #256, #107, .T. ) ;
#288 = MECHANICAL_DESIGN_GEOMETRIC_PRESENTATION_REPRESENTATION (  '', ( #48 ), #220 ) ;
#289 = CARTESIAN_POINT ( 'NONE',  ( -0.05899594499999999409, 0.0000000000000000000, 7.224919520692328148E-18 ) ) ;
#290 = APPLICATION_CONTEXT ( 'automotive_design' ) ;
#291 = PRESENTATION_STYLE_ASSIGNMENT (( #84 ) ) ;
#292 = ADVANCED_FACE ( 'NONE', ( #173 ), #151, .T. ) ;
#293 = PRODUCT ( 'Micro_GEMM-030-3X', 'Micro_GEMM-030-3X', '', ( #278 ) ) ;
#294 = EDGE_LOOP ( 'NONE', ( #8, #99, #174, #55 ) ) ;
#295 = CONICAL_SURFACE ( 'NONE', #24, 0.05899594499999999409, 0.1745329251994339192 ) ;
#296 = ORIENTED_EDGE ( 'NONE', *, *, #31, .T. ) ;
#297 = CARTESIAN_POINT ( 'NONE',  ( 0.0000000000000000000, 0.0000000000000000000, 1.481063000000000240 ) ) ;
#298 = SHAPE_DEFINITION_REPRESENTATION ( #248, #247 ) ;
#299 = CIRCLE ( 'NONE', #262, 0.05905499999999998251 ) ;
ENDSEC;
END-ISO-10303-21;
