ISO-10303-21;
HEADER;
FILE_DESCRIPTION (( 'STEP AP214' ),
    '1' );
FILE_NAME ('Micro_BMRM-010-4X.STEP',
    '2021-09-03T14:23:48',
    ( '' ),
    ( '' ),
    'SwSTEP 2.0',
    'SolidWorks 2020',
    '' );
FILE_SCHEMA (( 'AUTOMOTIVE_DESIGN' ));
ENDSEC;

DATA;
#1 = CARTESIAN_POINT ( 'NONE',  ( 0.0000000000000000000, 0.0000000000000000000, 1.968503999999999809 ) ) ;
#2 = EDGE_LOOP ( 'NONE', ( #154, #143 ) ) ;
#3 = CYLINDRICAL_SURFACE ( 'NONE', #268, 0.01966531500000000265 ) ;
#4 = CARTESIAN_POINT ( 'NONE',  ( -0.06374000000000018540, 0.0000000000000000000, 1.968503999999999809 ) ) ;
#5 = VECTOR ( 'NONE', #164, 39.37007874015748143 ) ;
#6 = CIRCLE ( 'NONE', #45, 0.07874000000000000443 ) ;
#7 = PLANE ( 'NONE',  #218 ) ;
#8 = SURFACE_STYLE_USAGE ( .BOTH. , #240 ) ;
#9 = ORIENTED_EDGE ( 'NONE', *, *, #228, .F. ) ;
#10 = VECTOR ( 'NONE', #152, 39.37007874015748143 ) ;
#11 = DIRECTION ( 'NONE',  ( 0.1736481776669313859, 0.0000000000000000000, 0.9848077530122077983 ) ) ;
#12 = CONICAL_SURFACE ( 'NONE', #291, 0.06374000000000018540, 0.7853981633974522758 ) ;
#13 = LENGTH_MEASURE_WITH_UNIT ( LENGTH_MEASURE( 0.02539999999999999897 ), #130 );
#14 = FACE_OUTER_BOUND ( 'NONE', #24, .T. ) ;
#15 = EDGE_CURVE ( 'NONE', #77, #227, #29, .T. ) ;
#16 = CARTESIAN_POINT ( 'NONE',  ( 1.446430334472939084E-17, 0.0000000000000000000, 0.1181100000000000066 ) ) ;
#17 = CIRCLE ( 'NONE', #186, 0.01966531500000000265 ) ;
#18 = DIRECTION ( 'NONE',  ( -1.000000000000000000, 0.0000000000000000000, 0.0000000000000000000 ) ) ;
#19 = DIRECTION ( 'NONE',  ( -1.000000000000000000, 0.0000000000000000000, 0.0000000000000000000 ) ) ;
#20 =( NAMED_UNIT ( * ) PLANE_ANGLE_UNIT ( ) SI_UNIT ( $, .RADIAN. ) );
#21 = DIRECTION ( 'NONE',  ( -1.000000000000000000, 0.0000000000000000000, 0.0000000000000000000 ) ) ;
#22 = PRODUCT_DEFINITION_SHAPE ( 'NONE', 'NONE',  #201 ) ;
#23 = CARTESIAN_POINT ( 'NONE',  ( 0.01966531500000000265, 2.408306506897443486E-18, -2.408306506897443486E-18 ) ) ;
#24 = EDGE_LOOP ( 'NONE', ( #28, #210, #92, #103 ) ) ;
#25 = CARTESIAN_POINT ( 'NONE',  ( -0.07874000000000000443, 0.0000000000000000000, 1.953504000000000129 ) ) ;
#26 = VERTEX_POINT ( 'NONE', #204 ) ;
#27 = DIRECTION ( 'NONE',  ( 0.0000000000000000000, 0.0000000000000000000, 1.000000000000000000 ) ) ;
#28 = ORIENTED_EDGE ( 'NONE', *, *, #228, .T. ) ;
#29 = CIRCLE ( 'NONE', #38, 0.01966531500000000265 ) ;
#30 = DIRECTION ( 'NONE',  ( -1.224646799147353207E-16, -0.0000000000000000000, -1.000000000000000000 ) ) ;
#31 = CIRCLE ( 'NONE', #220, 0.01966531500000000265 ) ;
#32 = CARTESIAN_POINT ( 'NONE',  ( 0.0000000000000000000, 0.0000000000000000000, 1.953504000000000129 ) ) ;
#33 = UNCERTAINTY_MEASURE_WITH_UNIT (LENGTH_MEASURE( 1.000000000000000082E-05 ), #322, 'distance_accuracy_value', 'NONE');
#34 = ORIENTED_EDGE ( 'NONE', *, *, #257, .F. ) ;
#35 = SURFACE_STYLE_FILL_AREA ( #41 ) ;
#36 = FACE_OUTER_BOUND ( 'NONE', #111, .T. ) ;
#37 =( GEOMETRIC_REPRESENTATION_CONTEXT ( 3 ) GLOBAL_UNCERTAINTY_ASSIGNED_CONTEXT ( ( #69 ) ) GLOBAL_UNIT_ASSIGNED_CONTEXT ( ( #96, #94, #68 ) ) REPRESENTATION_CONTEXT ( 'NONE', 'WORKASPACE' ) );
#38 = AXIS2_PLACEMENT_3D ( 'NONE', #16, #229, #21 ) ;
#39 = AXIS2_PLACEMENT_3D ( 'NONE', #104, #74, #273 ) ;
#40 =( LENGTH_UNIT ( ) NAMED_UNIT ( * ) SI_UNIT ( $, .METRE. ) );
#41 = FILL_AREA_STYLE ('',( #123 ) ) ;
#42 = AXIS2_PLACEMENT_3D ( 'NONE', #259, #138, #235 ) ;
#43 = CARTESIAN_POINT ( 'NONE',  ( 0.07874000000000000443, 9.642868896486258509E-18, 1.968503999999999809 ) ) ;
#44 = ORIENTED_EDGE ( 'NONE', *, *, #270, .T. ) ;
#45 = AXIS2_PLACEMENT_3D ( 'NONE', #32, #285, #53 ) ;
#46 = EDGE_CURVE ( 'NONE', #26, #134, #226, .T. ) ;
#47 = DIRECTION ( 'NONE',  ( 0.0000000000000000000, 0.0000000000000000000, -1.000000000000000000 ) ) ;
#48 = EDGE_CURVE ( 'NONE', #168, #26, #276, .T. ) ;
#49 = APPLICATION_CONTEXT ( 'automotive_design' ) ;
#50 = CARTESIAN_POINT ( 'NONE',  ( 5.549354549769427352E-17, 0.0000000000000000000, 0.4531391870401411670 ) ) ;
#51 = VERTEX_POINT ( 'NONE', #125 ) ;
#52 = CONICAL_SURFACE ( 'NONE', #65, 0.01966531500000000265, 0.1745329251994338915 ) ;
#53 = DIRECTION ( 'NONE',  ( 1.000000000000000000, 0.0000000000000000000, 0.0000000000000000000 ) ) ;
#54 = AXIS2_PLACEMENT_3D ( 'NONE', #289, #221, #195 ) ;
#55 = ADVANCED_FACE ( 'NONE', ( #225 ), #325, .T. ) ;
#56 = DIRECTION ( 'NONE',  ( 0.0000000000000000000, 0.0000000000000000000, -1.000000000000000000 ) ) ;
#57 = ORIENTED_EDGE ( 'NONE', *, *, #298, .F. ) ;
#58 = SURFACE_STYLE_FILL_AREA ( #141 ) ;
#59 = DIRECTION ( 'NONE',  ( 1.224646799147353207E-16, 0.0000000000000000000, 1.000000000000000000 ) ) ;
#60 = AXIS2_PLACEMENT_3D ( 'NONE', #105, #133, #231 ) ;
#61 = ORIENTED_EDGE ( 'NONE', *, *, #280, .F. ) ;
#62 = ORIENTED_EDGE ( 'NONE', *, *, #183, .T. ) ;
#63 = CARTESIAN_POINT ( 'NONE',  ( 0.06374000000000018540, 8.724383797125754882E-18, 1.968503999999999809 ) ) ;
#64 = CARTESIAN_POINT ( 'NONE',  ( 0.01966531500000001306, 0.0000000000000000000, 0.1181100000000000066 ) ) ;
#65 = AXIS2_PLACEMENT_3D ( 'NONE', #233, #59, #262 ) ;
#66 = STYLED_ITEM ( 'NONE', ( #98 ), #158 ) ;
#67 = ADVANCED_FACE ( 'NONE', ( #323 ), #12, .T. ) ;
#68 =( NAMED_UNIT ( * ) SI_UNIT ( $, .STERADIAN. ) SOLID_ANGLE_UNIT ( ) );
#69 = UNCERTAINTY_MEASURE_WITH_UNIT (LENGTH_MEASURE( 1.000000000000000082E-05 ), #96, 'distance_accuracy_value', 'NONE');
#70 = APPLICATION_CONTEXT ( 'automotive_design' ) ;
#71 = AXIS2_PLACEMENT_3D ( 'NONE', #202, #181, #299 ) ;
#72 = CARTESIAN_POINT ( 'NONE',  ( -0.01966531499999998878, 6.025587701691850612E-18, 0.1181100000000000066 ) ) ;
#73 = DIRECTION ( 'NONE',  ( -1.224646799147353207E-16, -0.0000000000000000000, -1.000000000000000000 ) ) ;
#74 = DIRECTION ( 'NONE',  ( 0.0000000000000000000, 0.0000000000000000000, 1.000000000000000000 ) ) ;
#75 = DIRECTION ( 'NONE',  ( 0.0000000000000000000, 0.0000000000000000000, -1.000000000000000000 ) ) ;
#76 = CIRCLE ( 'NONE', #197, 0.01966531499999999918 ) ;
#77 = VERTEX_POINT ( 'NONE', #72 ) ;
#78 = PRODUCT ( 'Micro_BMRM-010-4X', 'Micro_BMRM-010-4X', '', ( #101 ) ) ;
#79 = FACE_OUTER_BOUND ( 'NONE', #215, .T. ) ;
#80 = DIRECTION ( 'NONE',  ( -1.000000000000000000, 0.0000000000000000000, 2.170579261049421609E-16 ) ) ;
#81 = ADVANCED_FACE ( 'NONE', ( #79 ), #102, .T. ) ;
#82 = CONICAL_SURFACE ( 'NONE', #263, 0.01966531500000000265, 0.1745329251994338915 ) ;
#83 = VECTOR ( 'NONE', #320, 39.37007874015748143 ) ;
#84 =( NAMED_UNIT ( * ) PLANE_ANGLE_UNIT ( ) SI_UNIT ( $, .RADIAN. ) );
#85 = CARTESIAN_POINT ( 'NONE',  ( -0.06374000000000018540, 0.0000000000000000000, 1.968503999999999809 ) ) ;
#86 = ORIENTED_EDGE ( 'NONE', *, *, #236, .F. ) ;
#87 = DIRECTION ( 'NONE',  ( 1.000000000000000000, 0.0000000000000000000, 0.0000000000000000000 ) ) ;
#88 = UNCERTAINTY_MEASURE_WITH_UNIT (LENGTH_MEASURE( 1.000000000000000082E-05 ), #282, 'distance_accuracy_value', 'NONE');
#89 = ORIENTED_EDGE ( 'NONE', *, *, #48, .T. ) ;
#90 = PRODUCT_RELATED_PRODUCT_CATEGORY ( 'part', '', ( #78 ) ) ;
#91 = DIRECTION ( 'NONE',  ( -1.224646799147353207E-16, -0.0000000000000000000, -1.000000000000000000 ) ) ;
#92 = ORIENTED_EDGE ( 'NONE', *, *, #46, .F. ) ;
#93 = DIRECTION ( 'NONE',  ( 1.000000000000000000, 0.0000000000000000000, 0.0000000000000000000 ) ) ;
#94 =( NAMED_UNIT ( * ) PLANE_ANGLE_UNIT ( ) SI_UNIT ( $, .RADIAN. ) );
#95 = ADVANCED_FACE ( 'NONE', ( #254 ), #269, .T. ) ;
#96 =( CONVERSION_BASED_UNIT ( 'INCH', #122 ) LENGTH_UNIT ( ) NAMED_UNIT ( #116 ) );
#97 = ADVANCED_FACE ( 'NONE', ( #14 ), #182, .T. ) ;
#98 = PRESENTATION_STYLE_ASSIGNMENT (( #319 ) ) ;
#99 = EDGE_LOOP ( 'NONE', ( #279, #131, #61 ) ) ;
#100 = AXIS2_PLACEMENT_3D ( 'NONE', #109, #56, #190 ) ;
#101 = PRODUCT_CONTEXT ( 'NONE', #70, 'mechanical' ) ;
#102 = CYLINDRICAL_SURFACE ( 'NONE', #60, 0.01966531500000000265 ) ;
#103 = ORIENTED_EDGE ( 'NONE', *, *, #48, .F. ) ;
#104 = CARTESIAN_POINT ( 'NONE',  ( 0.0000000000000000000, 0.0000000000000000000, 0.0000000000000000000 ) ) ;
#105 = CARTESIAN_POINT ( 'NONE',  ( 0.0000000000000000000, 0.0000000000000000000, 0.0000000000000000000 ) ) ;
#106 = ORIENTED_EDGE ( 'NONE', *, *, #15, .F. ) ;
#107 = ORIENTED_EDGE ( 'NONE', *, *, #160, .T. ) ;
#108 = EDGE_CURVE ( 'NONE', #134, #26, #247, .T. ) ;
#109 = CARTESIAN_POINT ( 'NONE',  ( 0.0000000000000000000, 0.0000000000000000000, 1.953504000000000129 ) ) ;
#110 = COLOUR_RGB ( '',0.7921568627450980005, 0.8196078431372548767, 0.9333333333333333481 ) ;
#111 = EDGE_LOOP ( 'NONE', ( #249, #179, #258 ) ) ;
#112 = DIRECTION ( 'NONE',  ( 0.0000000000000000000, 0.0000000000000000000, -1.000000000000000000 ) ) ;
#113 = CIRCLE ( 'NONE', #146, 0.06374000000000018540 ) ;
#114 = PRODUCT_DEFINITION_CONTEXT ( 'detailed design', #49, 'design' ) ;
#115 = LINE ( 'NONE', #255, #277 ) ;
#116 = DIMENSIONAL_EXPONENTS ( 1.000000000000000000, 0.0000000000000000000, 0.0000000000000000000, 0.0000000000000000000, 0.0000000000000000000, 0.0000000000000000000, 0.0000000000000000000 ) ;
#117 = ORIENTED_EDGE ( 'NONE', *, *, #145, .T. ) ;
#118 = DIRECTION ( 'NONE',  ( 0.0000000000000000000, 0.0000000000000000000, 1.000000000000000000 ) ) ;
#119 = STYLED_ITEM ( 'NONE', ( #306 ), #251 ) ;
#120 =( NAMED_UNIT ( * ) SI_UNIT ( $, .STERADIAN. ) SOLID_ANGLE_UNIT ( ) );
#121 = ADVANCED_FACE ( 'NONE', ( #252 ), #157, .T. ) ;
#122 = LENGTH_MEASURE_WITH_UNIT ( LENGTH_MEASURE( 0.02539999999999999897 ), #40 );
#123 = FILL_AREA_STYLE_COLOUR ( '', #110 ) ;
#124 = CARTESIAN_POINT ( 'NONE',  ( 0.0000000000000000000, 0.0000000000000000000, 1.968503999999999809 ) ) ;
#125 = CARTESIAN_POINT ( 'NONE',  ( -0.01966531499999999918, 0.0000000000000000000, 0.01966531500000000265 ) ) ;
#126 = AXIS2_PLACEMENT_3D ( 'NONE', #50, #73, #161 ) ;
#127 = MECHANICAL_DESIGN_GEOMETRIC_PRESENTATION_REPRESENTATION (  '', ( #66 ), #317 ) ;
#128 = DIRECTION ( 'NONE',  ( 0.0000000000000000000, 1.000000000000000000, 0.0000000000000000000 ) ) ;
#129 = EDGE_CURVE ( 'NONE', #296, #134, #203, .T. ) ;
#130 =( LENGTH_UNIT ( ) NAMED_UNIT ( * ) SI_UNIT ( $, .METRE. ) );
#131 = ORIENTED_EDGE ( 'NONE', *, *, #301, .T. ) ;
#132 =( NAMED_UNIT ( * ) SI_UNIT ( $, .STERADIAN. ) SOLID_ANGLE_UNIT ( ) );
#133 = DIRECTION ( 'NONE',  ( -1.224646799147353207E-16, -0.0000000000000000000, -1.000000000000000000 ) ) ;
#134 = VERTEX_POINT ( 'NONE', #214 ) ;
#135 = DIRECTION ( 'NONE',  ( -1.000000000000000000, 0.0000000000000000000, 1.224646799147353207E-16 ) ) ;
#136 = LINE ( 'NONE', #4, #237 ) ;
#137 = ORIENTED_EDGE ( 'NONE', *, *, #213, .T. ) ;
#138 = DIRECTION ( 'NONE',  ( -1.224646799147353207E-16, -0.0000000000000000000, -1.000000000000000000 ) ) ;
#139 = ORIENTED_EDGE ( 'NONE', *, *, #145, .F. ) ;
#140 = ORIENTED_EDGE ( 'NONE', *, *, #189, .F. ) ;
#141 = FILL_AREA_STYLE ('',( #165 ) ) ;
#142 = DIMENSIONAL_EXPONENTS ( 1.000000000000000000, 0.0000000000000000000, 0.0000000000000000000, 0.0000000000000000000, 0.0000000000000000000, 0.0000000000000000000, 0.0000000000000000000 ) ;
#143 = ORIENTED_EDGE ( 'NONE', *, *, #189, .T. ) ;
#144 = DIRECTION ( 'NONE',  ( 1.224646799147353207E-16, 0.0000000000000000000, 1.000000000000000000 ) ) ;
#145 = EDGE_CURVE ( 'NONE', #227, #77, #199, .T. ) ;
#146 = AXIS2_PLACEMENT_3D ( 'NONE', #148, #118, #93 ) ;
#147 = DIRECTION ( 'NONE',  ( -1.000000000000000000, 1.224646799147352961E-16, 0.0000000000000000000 ) ) ;
#148 = CARTESIAN_POINT ( 'NONE',  ( 0.0000000000000000000, 0.0000000000000000000, 1.968503999999999809 ) ) ;
#149 = EDGE_CURVE ( 'NONE', #77, #26, #284, .T. ) ;
#150 = SURFACE_SIDE_STYLE ('',( #35 ) ) ;
#151 = AXIS2_PLACEMENT_3D ( 'NONE', #1, #47, #248 ) ;
#152 = DIRECTION ( 'NONE',  ( -0.0000000000000000000, -0.0000000000000000000, -1.000000000000000000 ) ) ;
#153 = SHAPE_DEFINITION_REPRESENTATION ( #22, #158 ) ;
#154 = ORIENTED_EDGE ( 'NONE', *, *, #257, .T. ) ;
#155 = VECTOR ( 'NONE', #246, 39.37007874015748854 ) ;
#156 =( GEOMETRIC_REPRESENTATION_CONTEXT ( 3 ) GLOBAL_UNCERTAINTY_ASSIGNED_CONTEXT ( ( #88 ) ) GLOBAL_UNIT_ASSIGNED_CONTEXT ( ( #282, #84, #120 ) ) REPRESENTATION_CONTEXT ( 'NONE', 'WORKASPACE' ) );
#157 = CYLINDRICAL_SURFACE ( 'NONE', #295, 0.07874000000000000443 ) ;
#158 = ADVANCED_BREP_SHAPE_REPRESENTATION ( 'Micro_BMRM-010-4X', ( #251, #39 ), #37 ) ;
#159 = CARTESIAN_POINT ( 'NONE',  ( -0.07874000000000000443, 0.0000000000000000000, 1.968503999999999809 ) ) ;
#160 = EDGE_CURVE ( 'NONE', #227, #212, #167, .T. ) ;
#161 = DIRECTION ( 'NONE',  ( 1.000000000000000000, 0.0000000000000000000, 0.0000000000000000000 ) ) ;
#162 = PRESENTATION_LAYER_ASSIGNMENT (  '', '', ( #66 ) ) ;
#163 = ORIENTED_EDGE ( 'NONE', *, *, #108, .T. ) ;
#164 = DIRECTION ( 'NONE',  ( -1.224646799147353207E-16, -0.0000000000000000000, -1.000000000000000000 ) ) ;
#165 = FILL_AREA_STYLE_COLOUR ( '', #238 ) ;
#166 = EDGE_LOOP ( 'NONE', ( #140, #187, #9, #260 ) ) ;
#167 = LINE ( 'NONE', #23, #5 ) ;
#168 = VERTEX_POINT ( 'NONE', #25 ) ;
#169 = FACE_OUTER_BOUND ( 'NONE', #2, .T. ) ;
#170 = EDGE_LOOP ( 'NONE', ( #57, #34, #62, #86 ) ) ;
#171 = DIRECTION ( 'NONE',  ( 1.000000000000000000, 0.0000000000000000000, -0.0000000000000000000 ) ) ;
#172 = LINE ( 'NONE', #294, #155 ) ;
#173 = CIRCLE ( 'NONE', #250, 0.01966531499999999918 ) ;
#174 = CARTESIAN_POINT ( 'NONE',  ( 2.408306506897442716E-18, 0.0000000000000000000, 0.01966531499999999918 ) ) ;
#175 = VECTOR ( 'NONE', #286, 39.37007874015747433 ) ;
#176 = ORIENTED_EDGE ( 'NONE', *, *, #149, .F. ) ;
#177 = EDGE_CURVE ( 'NONE', #77, #51, #115, .T. ) ;
#178 = DIRECTION ( 'NONE',  ( 1.000000000000000000, 0.0000000000000000000, 0.0000000000000000000 ) ) ;
#179 = ORIENTED_EDGE ( 'NONE', *, *, #209, .T. ) ;
#180 = AXIS2_PLACEMENT_3D ( 'NONE', #198, #128, #178 ) ;
#181 = DIRECTION ( 'NONE',  ( -1.224646799147353207E-16, -0.0000000000000000000, -1.000000000000000000 ) ) ;
#182 = CYLINDRICAL_SURFACE ( 'NONE', #264, 0.07874000000000000443 ) ;
#183 = EDGE_CURVE ( 'NONE', #232, #168, #136, .T. ) ;
#184 = EDGE_LOOP ( 'NONE', ( #194, #266, #89, #278 ) ) ;
#185 =( LENGTH_UNIT ( ) NAMED_UNIT ( * ) SI_UNIT ( $, .METRE. ) );
#186 = AXIS2_PLACEMENT_3D ( 'NONE', #174, #144, #267 ) ;
#187 = ORIENTED_EDGE ( 'NONE', *, *, #298, .T. ) ;
#188 = DIRECTION ( 'NONE',  ( 0.0000000000000000000, -1.000000000000000000, 0.0000000000000000000 ) ) ;
#189 = EDGE_CURVE ( 'NONE', #288, #232, #307, .T. ) ;
#190 = DIRECTION ( 'NONE',  ( 1.000000000000000000, 0.0000000000000000000, 0.0000000000000000000 ) ) ;
#191 = DIRECTION ( 'NONE',  ( -0.7071067811865502373, 0.0000000000000000000, -0.7071067811865446862 ) ) ;
#192 = CARTESIAN_POINT ( 'NONE',  ( 0.0000000000000000000, 0.0000000000000000000, 1.968503999999999809 ) ) ;
#193 = ADVANCED_FACE ( 'NONE', ( #310 ), #52, .T. ) ;
#194 = ORIENTED_EDGE ( 'NONE', *, *, #129, .F. ) ;
#195 = DIRECTION ( 'NONE',  ( 1.000000000000000000, 0.0000000000000000000, 0.0000000000000000000 ) ) ;
#196 = LINE ( 'NONE', #64, #321 ) ;
#197 = AXIS2_PLACEMENT_3D ( 'NONE', #219, #316, #147 ) ;
#198 = CARTESIAN_POINT ( 'NONE',  ( 2.408306506897442716E-18, 0.0000000000000000000, 0.01966531499999999918 ) ) ;
#199 = CIRCLE ( 'NONE', #42, 0.01966531500000000265 ) ;
#200 = DIRECTION ( 'NONE',  ( -0.0000000000000000000, -0.0000000000000000000, -1.000000000000000000 ) ) ;
#201 = PRODUCT_DEFINITION ( 'UNKNOWN', '', #242, #114 ) ;
#202 = CARTESIAN_POINT ( 'NONE',  ( 5.549354549769427352E-17, 0.0000000000000000000, 0.4531391870401411670 ) ) ;
#203 = LINE ( 'NONE', #43, #10 ) ;
#204 = CARTESIAN_POINT ( 'NONE',  ( -0.07873999999999994892, 0.0000000000000000000, 0.4531391870401411670 ) ) ;
#205 = ORIENTED_EDGE ( 'NONE', *, *, #177, .T. ) ;
#206 = DIRECTION ( 'NONE',  ( 1.224646799147353207E-16, 0.0000000000000000000, 1.000000000000000000 ) ) ;
#207 = EDGE_LOOP ( 'NONE', ( #222, #117, #205, #137 ) ) ;
#208 = CARTESIAN_POINT ( 'NONE',  ( 3.612459760346164074E-18, 0.0000000000000000000, 0.0000000000000000000 ) ) ;
#209 = EDGE_CURVE ( 'NONE', #241, #212, #173, .T. ) ;
#210 = ORIENTED_EDGE ( 'NONE', *, *, #129, .T. ) ;
#211 = CARTESIAN_POINT ( 'NONE',  ( 2.408306506897442716E-18, 0.0000000000000000000, 0.01966531499999999918 ) ) ;
#212 = VERTEX_POINT ( 'NONE', #287 ) ;
#213 = EDGE_CURVE ( 'NONE', #51, #212, #31, .T. ) ;
#214 = CARTESIAN_POINT ( 'NONE',  ( 0.07874000000000004607, 9.642868896486264672E-18, 0.4531391870401411670 ) ) ;
#215 = EDGE_LOOP ( 'NONE', ( #308, #107, #303, #283 ) ) ;
#216 = AXIS2_PLACEMENT_3D ( 'NONE', #192, #27, #87 ) ;
#217 = DIRECTION ( 'NONE',  ( 1.000000000000000000, 0.0000000000000000000, 0.0000000000000000000 ) ) ;
#218 = AXIS2_PLACEMENT_3D ( 'NONE', #290, #314, #171 ) ;
#219 = CARTESIAN_POINT ( 'NONE',  ( 2.408306506897442716E-18, 0.0000000000000000000, 0.01966531499999999918 ) ) ;
#220 = AXIS2_PLACEMENT_3D ( 'NONE', #211, #206, #80 ) ;
#221 = DIRECTION ( 'NONE',  ( 0.0000000000000000000, 1.000000000000000000, 0.0000000000000000000 ) ) ;
#222 = ORIENTED_EDGE ( 'NONE', *, *, #160, .F. ) ;
#223 = PRESENTATION_LAYER_ASSIGNMENT (  '', '', ( #119 ) ) ;
#224 = ADVANCED_FACE ( 'NONE', ( #234 ), #3, .T. ) ;
#225 = FACE_OUTER_BOUND ( 'NONE', #99, .T. ) ;
#226 = CIRCLE ( 'NONE', #71, 0.07874000000000000443 ) ;
#227 = VERTEX_POINT ( 'NONE', #309 ) ;
#228 = EDGE_CURVE ( 'NONE', #168, #296, #256, .T. ) ;
#229 = DIRECTION ( 'NONE',  ( -1.224646799147353207E-16, -0.0000000000000000000, -1.000000000000000000 ) ) ;
#230 = APPLICATION_PROTOCOL_DEFINITION ( 'draft international standard', 'automotive_design', 1998, #49 ) ;
#231 = DIRECTION ( 'NONE',  ( -1.000000000000000000, 0.0000000000000000000, 1.224646799147353207E-16 ) ) ;
#232 = VERTEX_POINT ( 'NONE', #85 ) ;
#233 = CARTESIAN_POINT ( 'NONE',  ( 1.446430334472939084E-17, 0.0000000000000000000, 0.1181100000000000066 ) ) ;
#234 = FACE_OUTER_BOUND ( 'NONE', #207, .T. ) ;
#235 = DIRECTION ( 'NONE',  ( -1.000000000000000000, 0.0000000000000000000, 0.0000000000000000000 ) ) ;
#236 = EDGE_CURVE ( 'NONE', #296, #168, #6, .T. ) ;
#237 = VECTOR ( 'NONE', #191, 39.37007874015748854 ) ;
#238 = COLOUR_RGB ( '',0.7921568627450980005, 0.8196078431372548767, 0.9333333333333333481 ) ;
#239 = EDGE_LOOP ( 'NONE', ( #106, #313, #302, #311 ) ) ;
#240 = SURFACE_SIDE_STYLE ('',( #58 ) ) ;
#241 = VERTEX_POINT ( 'NONE', #208 ) ;
#242 = PRODUCT_DEFINITION_FORMATION_WITH_SPECIFIED_SOURCE ( 'ANY', '', #78, .NOT_KNOWN. ) ;
#243 = DIRECTION ( 'NONE',  ( 1.224646799147353207E-16, 0.0000000000000000000, 1.000000000000000000 ) ) ;
#244 = SPHERICAL_SURFACE ( 'NONE', #54, 0.01966531499999999918 ) ;
#245 = APPLICATION_PROTOCOL_DEFINITION ( 'draft international standard', 'automotive_design', 1998, #70 ) ;
#246 = DIRECTION ( 'NONE',  ( 0.7071067811865502373, 8.659560562354966138E-17, -0.7071067811865446862 ) ) ;
#247 = CIRCLE ( 'NONE', #126, 0.07874000000000000443 ) ;
#248 = DIRECTION ( 'NONE',  ( -1.000000000000000000, 0.0000000000000000000, 0.0000000000000000000 ) ) ;
#249 = ORIENTED_EDGE ( 'NONE', *, *, #301, .F. ) ;
#250 = AXIS2_PLACEMENT_3D ( 'NONE', #265, #188, #112 ) ;
#251 = MANIFOLD_SOLID_BREP ( 'Fillet1', #305 ) ;
#252 = FACE_OUTER_BOUND ( 'NONE', #184, .T. ) ;
#253 = ADVANCED_FACE ( 'NONE', ( #169 ), #7, .T. ) ;
#254 = FACE_OUTER_BOUND ( 'NONE', #170, .T. ) ;
#255 = CARTESIAN_POINT ( 'NONE',  ( -0.01966531500000000265, 0.0000000000000000000, 2.408306506897443486E-18 ) ) ;
#256 = CIRCLE ( 'NONE', #100, 0.07874000000000000443 ) ;
#257 = EDGE_CURVE ( 'NONE', #232, #288, #113, .T. ) ;
#258 = ORIENTED_EDGE ( 'NONE', *, *, #213, .F. ) ;
#259 = CARTESIAN_POINT ( 'NONE',  ( 1.446430334472939084E-17, 0.0000000000000000000, 0.1181100000000000066 ) ) ;
#260 = ORIENTED_EDGE ( 'NONE', *, *, #183, .F. ) ;
#261 = CARTESIAN_POINT ( 'NONE',  ( 0.0000000000000000000, 0.0000000000000000000, 0.0000000000000000000 ) ) ;
#262 = DIRECTION ( 'NONE',  ( 1.000000000000000000, 0.0000000000000000000, 0.0000000000000000000 ) ) ;
#263 = AXIS2_PLACEMENT_3D ( 'NONE', #271, #243, #217 ) ;
#264 = AXIS2_PLACEMENT_3D ( 'NONE', #124, #200, #18 ) ;
#265 = CARTESIAN_POINT ( 'NONE',  ( 2.408306506897442716E-18, 0.0000000000000000000, 0.01966531499999999918 ) ) ;
#266 = ORIENTED_EDGE ( 'NONE', *, *, #236, .T. ) ;
#267 = DIRECTION ( 'NONE',  ( -1.000000000000000000, 0.0000000000000000000, 2.170579261049421609E-16 ) ) ;
#268 = AXIS2_PLACEMENT_3D ( 'NONE', #261, #30, #135 ) ;
#269 = CONICAL_SURFACE ( 'NONE', #151, 0.06374000000000018540, 0.7853981633974522758 ) ;
#270 = EDGE_CURVE ( 'NONE', #227, #134, #196, .T. ) ;
#271 = CARTESIAN_POINT ( 'NONE',  ( 1.446430334472939084E-17, 0.0000000000000000000, 0.1181100000000000066 ) ) ;
#272 = CARTESIAN_POINT ( 'NONE',  ( 0.07874000000000000443, 9.642868896486258509E-18, 1.953504000000000129 ) ) ;
#273 = DIRECTION ( 'NONE',  ( 1.000000000000000000, 0.0000000000000000000, 0.0000000000000000000 ) ) ;
#274 = CARTESIAN_POINT ( 'NONE',  ( 0.0000000000000000000, 0.0000000000000000000, 1.968503999999999809 ) ) ;
#275 = CARTESIAN_POINT ( 'NONE',  ( 0.0000000000000000000, 0.0000000000000000000, 1.968503999999999809 ) ) ;
#276 = LINE ( 'NONE', #159, #83 ) ;
#277 = VECTOR ( 'NONE', #91, 39.37007874015748143 ) ;
#278 = ORIENTED_EDGE ( 'NONE', *, *, #108, .F. ) ;
#279 = ORIENTED_EDGE ( 'NONE', *, *, #209, .F. ) ;
#280 = EDGE_CURVE ( 'NONE', #212, #51, #17, .T. ) ;
#281 = MECHANICAL_DESIGN_GEOMETRIC_PRESENTATION_REPRESENTATION (  '', ( #119 ), #156 ) ;
#282 =( CONVERSION_BASED_UNIT ( 'INCH', #304 ) LENGTH_UNIT ( ) NAMED_UNIT ( #142 ) );
#283 = ORIENTED_EDGE ( 'NONE', *, *, #177, .F. ) ;
#284 = LINE ( 'NONE', #312, #175 ) ;
#285 = DIRECTION ( 'NONE',  ( 0.0000000000000000000, 0.0000000000000000000, -1.000000000000000000 ) ) ;
#286 = DIRECTION ( 'NONE',  ( -0.1736481776669311916, 2.126576849575783316E-17, 0.9848077530122080203 ) ) ;
#287 = CARTESIAN_POINT ( 'NONE',  ( 0.01966531500000000612, 2.408306506897443486E-18, 0.01966531499999999225 ) ) ;
#288 = VERTEX_POINT ( 'NONE', #63 ) ;
#289 = CARTESIAN_POINT ( 'NONE',  ( 2.408306506897442716E-18, 0.0000000000000000000, 0.01966531499999999918 ) ) ;
#290 = CARTESIAN_POINT ( 'NONE',  ( 0.0000000000000000000, 0.0000000000000000000, 1.968503999999999809 ) ) ;
#291 = AXIS2_PLACEMENT_3D ( 'NONE', #274, #75, #297 ) ;
#292 = DIMENSIONAL_EXPONENTS ( 1.000000000000000000, 0.0000000000000000000, 0.0000000000000000000, 0.0000000000000000000, 0.0000000000000000000, 0.0000000000000000000, 0.0000000000000000000 ) ;
#293 = ADVANCED_FACE ( 'NONE', ( #36 ), #244, .T. ) ;
#294 = CARTESIAN_POINT ( 'NONE',  ( 0.06374000000000018540, 7.805898697765251255E-18, 1.968503999999999809 ) ) ;
#295 = AXIS2_PLACEMENT_3D ( 'NONE', #275, #300, #19 ) ;
#296 = VERTEX_POINT ( 'NONE', #272 ) ;
#297 = DIRECTION ( 'NONE',  ( -1.000000000000000000, 0.0000000000000000000, 0.0000000000000000000 ) ) ;
#298 = EDGE_CURVE ( 'NONE', #288, #296, #172, .T. ) ;
#299 = DIRECTION ( 'NONE',  ( 1.000000000000000000, 0.0000000000000000000, 0.0000000000000000000 ) ) ;
#300 = DIRECTION ( 'NONE',  ( -0.0000000000000000000, -0.0000000000000000000, -1.000000000000000000 ) ) ;
#301 = EDGE_CURVE ( 'NONE', #241, #51, #76, .T. ) ;
#302 = ORIENTED_EDGE ( 'NONE', *, *, #46, .T. ) ;
#303 = ORIENTED_EDGE ( 'NONE', *, *, #280, .T. ) ;
#304 = LENGTH_MEASURE_WITH_UNIT ( LENGTH_MEASURE( 0.02539999999999999897 ), #185 );
#305 = CLOSED_SHELL ( 'NONE', ( #55, #81, #193, #67, #97, #121, #253, #95, #315, #224, #293 ) ) ;
#306 = PRESENTATION_STYLE_ASSIGNMENT (( #8 ) ) ;
#307 = CIRCLE ( 'NONE', #216, 0.06374000000000018540 ) ;
#308 = ORIENTED_EDGE ( 'NONE', *, *, #15, .T. ) ;
#309 = CARTESIAN_POINT ( 'NONE',  ( 0.01966531500000001306, 0.0000000000000000000, 0.1181100000000000066 ) ) ;
#310 = FACE_OUTER_BOUND ( 'NONE', #239, .T. ) ;
#311 = ORIENTED_EDGE ( 'NONE', *, *, #270, .F. ) ;
#312 = CARTESIAN_POINT ( 'NONE',  ( -0.01966531499999998878, 2.408306506897443486E-18, 0.1181100000000000066 ) ) ;
#313 = ORIENTED_EDGE ( 'NONE', *, *, #149, .T. ) ;
#314 = DIRECTION ( 'NONE',  ( 0.0000000000000000000, 0.0000000000000000000, 1.000000000000000000 ) ) ;
#315 = ADVANCED_FACE ( 'NONE', ( #318 ), #82, .T. ) ;
#316 = DIRECTION ( 'NONE',  ( 1.224646799147353207E-16, 1.000000000000000000, -0.0000000000000000000 ) ) ;
#317 =( GEOMETRIC_REPRESENTATION_CONTEXT ( 3 ) GLOBAL_UNCERTAINTY_ASSIGNED_CONTEXT ( ( #33 ) ) GLOBAL_UNIT_ASSIGNED_CONTEXT ( ( #322, #20, #132 ) ) REPRESENTATION_CONTEXT ( 'NONE', 'WORKASPACE' ) );
#318 = FACE_OUTER_BOUND ( 'NONE', #324, .T. ) ;
#319 = SURFACE_STYLE_USAGE ( .BOTH. , #150 ) ;
#320 = DIRECTION ( 'NONE',  ( -0.0000000000000000000, -0.0000000000000000000, -1.000000000000000000 ) ) ;
#321 = VECTOR ( 'NONE', #11, 39.37007874015748143 ) ;
#322 =( CONVERSION_BASED_UNIT ( 'INCH', #13 ) LENGTH_UNIT ( ) NAMED_UNIT ( #292 ) );
#323 = FACE_OUTER_BOUND ( 'NONE', #166, .T. ) ;
#324 = EDGE_LOOP ( 'NONE', ( #176, #139, #44, #163 ) ) ;
#325 = SPHERICAL_SURFACE ( 'NONE', #180, 0.01966531499999999918 ) ;
ENDSEC;
END-ISO-10303-21;
