ISO-10303-21;
HEADER;
FILE_DESCRIPTION (( 'STEP AP214' ),
    '1' );
FILE_NAME ('17030.STEP',
    '2023-06-30T21:51:50',
    ( '' ),
    ( '' ),
    'SwSTEP 2.0',
    'SolidWorks 2023',
    '' );
FILE_SCHEMA (( 'AUTOMOTIVE_DESIGN' ));
ENDSEC;

DATA;
#1 = ORIENTED_EDGE ( 'NONE', *, *, #235, .T. ) ;
#2 = SHAPE_DEFINITION_REPRESENTATION ( #359, #266 ) ;
#3 = EDGE_LOOP ( 'NONE', ( #144, #202, #267, #140 ) ) ;
#4 = DIRECTION ( 'NONE',  ( 0.000000000000000000, 0.000000000000000000, 1.000000000000000000 ) ) ;
#5 = AXIS2_PLACEMENT_3D ( 'NONE', #293, #42, #121 ) ;
#6 = ORIENTED_EDGE ( 'NONE', *, *, #146, .F. ) ;
#7 = COLOUR_RGB ( '',1.000000000000000000, 0.000000000000000000, 0.000000000000000000 ) ;
#8 = UNCERTAINTY_MEASURE_WITH_UNIT (LENGTH_MEASURE( 1.000000000000000082E-05 ), #29, 'distance_accuracy_value', 'NONE');
#9 = SURFACE_SIDE_STYLE ('',( #173 ) ) ;
#10 = CYLINDRICAL_SURFACE ( 'NONE', #116, 0.06249999999999995143 ) ;
#11 =( CONVERSION_BASED_UNIT ( 'INCH', #155 ) LENGTH_UNIT ( ) NAMED_UNIT ( #178 ) );
#12 = CARTESIAN_POINT ( 'NONE',  ( 0.000000000000000000, 0.3750000000000000555, 0.000000000000000000 ) ) ;
#13 = COLOUR_RGB ( '',1.000000000000000000, 0.000000000000000000, 0.000000000000000000 ) ;
#14 = DIMENSIONAL_EXPONENTS ( 1.000000000000000000, 0.000000000000000000, 0.000000000000000000, 0.000000000000000000, 0.000000000000000000, 0.000000000000000000, 0.000000000000000000 ) ;
#15 = ORIENTED_EDGE ( 'NONE', *, *, #67, .T. ) ;
#16 =( NAMED_UNIT ( * ) PLANE_ANGLE_UNIT ( ) SI_UNIT ( $, .RADIAN. ) );
#17 = CARTESIAN_POINT ( 'NONE',  ( 0.000000000000000000, 0.06250000000000001388, 0.000000000000000000 ) ) ;
#18 = CIRCLE ( 'NONE', #228, 0.06249999999999995143 ) ;
#19 = PRESENTATION_LAYER_ASSIGNMENT (  '', '', ( #45 ) ) ;
#20 = CARTESIAN_POINT ( 'NONE',  ( -0.06249999999999967387, 0.3749999999999999445, 0.000000000000000000 ) ) ;
#21 = SURFACE_SIDE_STYLE ('',( #340 ) ) ;
#22 = FACE_OUTER_BOUND ( 'NONE', #370, .T. ) ;
#23 = CARTESIAN_POINT ( 'NONE',  ( 0.000000000000000000, 0.06250000000000001388, 0.000000000000000000 ) ) ;
#24 = EDGE_CURVE ( 'NONE', #227, #34, #56, .T. ) ;
#25 = FACE_OUTER_BOUND ( 'NONE', #231, .T. ) ;
#26 = MECHANICAL_DESIGN_GEOMETRIC_PRESENTATION_REPRESENTATION (  '', ( #45 ), #190 ) ;
#27 = SURFACE_STYLE_FILL_AREA ( #306 ) ;
#28 = MECHANICAL_DESIGN_GEOMETRIC_PRESENTATION_REPRESENTATION (  '', ( #136 ), #196 ) ;
#29 =( CONVERSION_BASED_UNIT ( 'INCH', #312 ) LENGTH_UNIT ( ) NAMED_UNIT ( #14 ) );
#30 = ORIENTED_EDGE ( 'NONE', *, *, #348, .F. ) ;
#31 = SPHERICAL_SURFACE ( 'NONE', #169, 0.06249999999999997918 ) ;
#32 = CIRCLE ( 'NONE', #142, 0.06249999999999997918 ) ;
#33 = APPLICATION_CONTEXT ( 'automotive_design' ) ;
#34 = VERTEX_POINT ( 'NONE', #350 ) ;
#35 =( CONVERSION_BASED_UNIT ( 'INCH', #259 ) LENGTH_UNIT ( ) NAMED_UNIT ( #213 ) );
#36 = UNCERTAINTY_MEASURE_WITH_UNIT (LENGTH_MEASURE( 1.000000000000000082E-05 ), #35, 'distance_accuracy_value', 'NONE');
#37 = EDGE_LOOP ( 'NONE', ( #290, #143, #212, #112 ) ) ;
#38 = EDGE_CURVE ( 'NONE', #319, #227, #51, .T. ) ;
#39 = CARTESIAN_POINT ( 'NONE',  ( 7.654042494670951382E-18, 0.3750000000000000555, 0.06249999999999995143 ) ) ;
#40 = AXIS2_PLACEMENT_3D ( 'NONE', #195, #186, #346 ) ;
#41 =( NAMED_UNIT ( * ) SI_UNIT ( $, .STERADIAN. ) SOLID_ANGLE_UNIT ( ) );
#42 = DIRECTION ( 'NONE',  ( -1.224646799147353207E-16, 1.000000000000000000, -0.000000000000000000 ) ) ;
#43 = LINE ( 'NONE', #180, #338 ) ;
#44 = VECTOR ( 'NONE', #209, 39.37007874015748143 ) ;
#45 = STYLED_ITEM ( 'NONE', ( #181 ), #296 ) ;
#46 = DIRECTION ( 'NONE',  ( 1.224646799147353207E-16, -0.000000000000000000, 1.000000000000000000 ) ) ;
#47 = EDGE_CURVE ( 'NONE', #94, #260, #75, .T. ) ;
#48 =( CONVERSION_BASED_UNIT ( 'INCH', #130 ) LENGTH_UNIT ( ) NAMED_UNIT ( #241 ) );
#49 = DIRECTION ( 'NONE',  ( 0.000000000000000000, 0.000000000000000000, -1.000000000000000000 ) ) ;
#50 = DIRECTION ( 'NONE',  ( 0.000000000000000000, 0.000000000000000000, -1.000000000000000000 ) ) ;
#51 = CIRCLE ( 'NONE', #282, 0.06249999999999995143 ) ;
#52 = CYLINDRICAL_SURFACE ( 'NONE', #362, 0.06249999999999995143 ) ;
#53 = CARTESIAN_POINT ( 'NONE',  ( -6.123233995736759873E-17, 2.000000000000000000, 0.000000000000000000 ) ) ;
#54 = PLANE ( 'NONE',  #40 ) ;
#55 = AXIS2_PLACEMENT_3D ( 'NONE', #367, #163, #275 ) ;
#56 = CIRCLE ( 'NONE', #270, 0.06249999999999997918 ) ;
#57 = EDGE_CURVE ( 'NONE', #303, #283, #243, .T. ) ;
#58 = VERTEX_POINT ( 'NONE', #154 ) ;
#59 = EDGE_LOOP ( 'NONE', ( #341, #110 ) ) ;
#60 = FILL_AREA_STYLE ('',( #313 ) ) ;
#61 =( GEOMETRIC_REPRESENTATION_CONTEXT ( 3 ) GLOBAL_UNCERTAINTY_ASSIGNED_CONTEXT ( ( #352 ) ) GLOBAL_UNIT_ASSIGNED_CONTEXT ( ( #217, #114, #342 ) ) REPRESENTATION_CONTEXT ( 'NONE', 'WORKASPACE' ) );
#62 = AXIS2_PLACEMENT_3D ( 'NONE', #17, #335, #50 ) ;
#63 = CLOSED_SHELL ( 'NONE', ( #182, #307, #233, #83, #276 ) ) ;
#64 = PRESENTATION_LAYER_ASSIGNMENT (  '', '', ( #222 ) ) ;
#65 = ORIENTED_EDGE ( 'NONE', *, *, #253, .T. ) ;
#66 = CARTESIAN_POINT ( 'NONE',  ( 0.000000000000000000, 0.3750000000000000555, 0.000000000000000000 ) ) ;
#67 = EDGE_CURVE ( 'NONE', #283, #187, #160, .T. ) ;
#68 =( LENGTH_UNIT ( ) NAMED_UNIT ( * ) SI_UNIT ( $, .METRE. ) );
#69 = CIRCLE ( 'NONE', #345, 0.06249999999999995143 ) ;
#70 = DIRECTION ( 'NONE',  ( -0.000000000000000000, -1.000000000000000000, -0.000000000000000000 ) ) ;
#71 =( LENGTH_UNIT ( ) NAMED_UNIT ( * ) SI_UNIT ( $, .METRE. ) );
#72 = SURFACE_SIDE_STYLE ('',( #97 ) ) ;
#73 = FILL_AREA_STYLE ('',( #326 ) ) ;
#74 =( LENGTH_UNIT ( ) NAMED_UNIT ( * ) SI_UNIT ( $, .METRE. ) );
#75 = LINE ( 'NONE', #210, #149 ) ;
#76 = PRESENTATION_LAYER_ASSIGNMENT (  '', '', ( #156 ) ) ;
#77 = PRESENTATION_STYLE_ASSIGNMENT (( #332 ) ) ;
#78 =( CONVERSION_BASED_UNIT ( 'INCH', #101 ) LENGTH_UNIT ( ) NAMED_UNIT ( #151 ) );
#79 = FILL_AREA_STYLE_COLOUR ( '', #315 ) ;
#80 =( GEOMETRIC_REPRESENTATION_CONTEXT ( 3 ) GLOBAL_UNCERTAINTY_ASSIGNED_CONTEXT ( ( #153 ) ) GLOBAL_UNIT_ASSIGNED_CONTEXT ( ( #11, #122, #355 ) ) REPRESENTATION_CONTEXT ( 'NONE', 'WORKASPACE' ) );
#81 = FILL_AREA_STYLE_COLOUR ( '', #234 ) ;
#82 = DIRECTION ( 'NONE',  ( -1.224646799147353207E-16, 1.000000000000000000, -0.000000000000000000 ) ) ;
#83 = ADVANCED_FACE ( 'NONE', ( #96 ), #10, .T. ) ;
#84 = COLOUR_RGB ( '',1.000000000000000000, 0.000000000000000000, 0.000000000000000000 ) ;
#85 = LENGTH_MEASURE_WITH_UNIT ( LENGTH_MEASURE( 0.02539999999999999897 ), #286 );
#86 = ORIENTED_EDGE ( 'NONE', *, *, #146, .T. ) ;
#87 =( NAMED_UNIT ( * ) PLANE_ANGLE_UNIT ( ) SI_UNIT ( $, .RADIAN. ) );
#88 = STYLED_ITEM ( 'NONE', ( #358 ), #83 ) ;
#89 = ORIENTED_EDGE ( 'NONE', *, *, #93, .T. ) ;
#90 = DIRECTION ( 'NONE',  ( 0.000000000000000000, 0.000000000000000000, -1.000000000000000000 ) ) ;
#91 = ORIENTED_EDGE ( 'NONE', *, *, #108, .F. ) ;
#92 = PRODUCT_DEFINITION_CONTEXT ( 'detailed design', #301, 'design' ) ;
#93 = EDGE_CURVE ( 'NONE', #94, #199, #159, .T. ) ;
#94 = VERTEX_POINT ( 'NONE', #236 ) ;
#95 = DIRECTION ( 'NONE',  ( -1.224646799147353207E-16, 1.000000000000000000, -0.000000000000000000 ) ) ;
#96 = FACE_OUTER_BOUND ( 'NONE', #373, .T. ) ;
#97 = SURFACE_STYLE_FILL_AREA ( #297 ) ;
#98 = DIRECTION ( 'NONE',  ( -0.000000000000000000, -1.000000000000000000, -0.000000000000000000 ) ) ;
#99 = PRESENTATION_LAYER_ASSIGNMENT (  '', '', ( #136 ) ) ;
#100 = CARTESIAN_POINT ( 'NONE',  ( 0.06249999999999995143, 2.000000000000000000, 0.000000000000000000 ) ) ;
#101 = LENGTH_MEASURE_WITH_UNIT ( LENGTH_MEASURE( 0.02539999999999999897 ), #219 );
#102 = CARTESIAN_POINT ( 'NONE',  ( 7.654042494670951382E-18, 0.06250000000000001388, 0.06249999999999995143 ) ) ;
#103 = CARTESIAN_POINT ( 'NONE',  ( 0.06249999999999995837, 2.000000000000000000, 7.654042494670954463E-18 ) ) ;
#104 = CYLINDRICAL_SURFACE ( 'NONE', #200, 0.06249999999999991673 ) ;
#105 = CIRCLE ( 'NONE', #177, 0.06250000000000001388 ) ;
#106 = PRESENTATION_LAYER_ASSIGNMENT (  '', '', ( #135 ) ) ;
#107 = DIRECTION ( 'NONE',  ( -0.000000000000000000, -1.000000000000000000, -0.000000000000000000 ) ) ;
#108 = EDGE_CURVE ( 'NONE', #199, #58, #43, .T. ) ;
#109 = CARTESIAN_POINT ( 'NONE',  ( 1.377727649040773128E-16, 0.3749999999999999445, 0.000000000000000000 ) ) ;
#110 = ORIENTED_EDGE ( 'NONE', *, *, #57, .F. ) ;
#111 = FILL_AREA_STYLE ('',( #81 ) ) ;
#112 = ORIENTED_EDGE ( 'NONE', *, *, #348, .T. ) ;
#113 = APPLICATION_PROTOCOL_DEFINITION ( 'draft international standard', 'automotive_design', 1998, #301 ) ;
#114 =( NAMED_UNIT ( * ) PLANE_ANGLE_UNIT ( ) SI_UNIT ( $, .RADIAN. ) );
#115 = EDGE_CURVE ( 'NONE', #260, #58, #302, .T. ) ;
#116 = AXIS2_PLACEMENT_3D ( 'NONE', #321, #70, #179 ) ;
#117 = ORIENTED_EDGE ( 'NONE', *, *, #93, .F. ) ;
#118 = SURFACE_STYLE_USAGE ( .BOTH. , #72 ) ;
#119 = EDGE_CURVE ( 'NONE', #199, #94, #269, .T. ) ;
#120 = CARTESIAN_POINT ( 'NONE',  ( 0.000000000000000000, 0.06250000000000001388, 0.000000000000000000 ) ) ;
#121 = DIRECTION ( 'NONE',  ( -1.000000000000000000, 0.000000000000000000, 0.000000000000000000 ) ) ;
#122 =( NAMED_UNIT ( * ) PLANE_ANGLE_UNIT ( ) SI_UNIT ( $, .RADIAN. ) );
#123 = ORIENTED_EDGE ( 'NONE', *, *, #115, .T. ) ;
#124 = LENGTH_MEASURE_WITH_UNIT ( LENGTH_MEASURE( 0.02539999999999999897 ), #74 );
#125 = DIRECTION ( 'NONE',  ( 0.000000000000000000, 0.000000000000000000, -1.000000000000000000 ) ) ;
#126 = DIRECTION ( 'NONE',  ( 0.000000000000000000, 0.000000000000000000, -1.000000000000000000 ) ) ;
#127 = DIRECTION ( 'NONE',  ( -1.224646799147353207E-16, 1.000000000000000000, -0.000000000000000000 ) ) ;
#128 = VECTOR ( 'NONE', #203, 39.37007874015748143 ) ;
#129 =( NAMED_UNIT ( * ) SI_UNIT ( $, .STERADIAN. ) SOLID_ANGLE_UNIT ( ) );
#130 = LENGTH_MEASURE_WITH_UNIT ( LENGTH_MEASURE( 0.02539999999999999897 ), #280 );
#131 = SURFACE_STYLE_USAGE ( .BOTH. , #21 ) ;
#132 = PLANE ( 'NONE',  #299 ) ;
#133 = CARTESIAN_POINT ( 'NONE',  ( -6.123233995736759873E-17, 2.000000000000000000, 0.000000000000000000 ) ) ;
#134 = DIRECTION ( 'NONE',  ( 0.000000000000000000, 0.000000000000000000, 1.000000000000000000 ) ) ;
#135 = STYLED_ITEM ( 'NONE', ( #317 ), #276 ) ;
#136 = STYLED_ITEM ( 'NONE', ( #77 ), #233 ) ;
#137 = SURFACE_STYLE_FILL_AREA ( #281 ) ;
#138 =( NAMED_UNIT ( * ) PLANE_ANGLE_UNIT ( ) SI_UNIT ( $, .RADIAN. ) );
#139 = ORIENTED_EDGE ( 'NONE', *, *, #38, .F. ) ;
#140 = ORIENTED_EDGE ( 'NONE', *, *, #318, .T. ) ;
#141 = SURFACE_SIDE_STYLE ('',( #288 ) ) ;
#142 = AXIS2_PLACEMENT_3D ( 'NONE', #268, #164, #245 ) ;
#143 = ORIENTED_EDGE ( 'NONE', *, *, #24, .T. ) ;
#144 = ORIENTED_EDGE ( 'NONE', *, *, #24, .F. ) ;
#145 = CARTESIAN_POINT ( 'NONE',  ( -7.654042494670957545E-18, 0.06250000000000001388, 0.000000000000000000 ) ) ;
#146 = EDGE_CURVE ( 'NONE', #58, #260, #105, .T. ) ;
#147 = FACE_OUTER_BOUND ( 'NONE', #171, .T. ) ;
#148 = UNCERTAINTY_MEASURE_WITH_UNIT (LENGTH_MEASURE( 1.000000000000000082E-05 ), #328, 'distance_accuracy_value', 'NONE');
#149 = VECTOR ( 'NONE', #240, 39.37007874015748143 ) ;
#150 =( LENGTH_UNIT ( ) NAMED_UNIT ( * ) SI_UNIT ( $, .METRE. ) );
#151 = DIMENSIONAL_EXPONENTS ( 1.000000000000000000, 0.000000000000000000, 0.000000000000000000, 0.000000000000000000, 0.000000000000000000, 0.000000000000000000, 0.000000000000000000 ) ;
#152 = CARTESIAN_POINT ( 'NONE',  ( 0.000000000000000000, 0.000000000000000000, 0.000000000000000000 ) ) ;
#153 = UNCERTAINTY_MEASURE_WITH_UNIT (LENGTH_MEASURE( 1.000000000000000082E-05 ), #11, 'distance_accuracy_value', 'NONE');
#154 = CARTESIAN_POINT ( 'NONE',  ( -0.06250000000000006939, 2.000000000000000000, 0.000000000000000000 ) ) ;
#155 = LENGTH_MEASURE_WITH_UNIT ( LENGTH_MEASURE( 0.02539999999999999897 ), #150 );
#156 = STYLED_ITEM ( 'NONE', ( #273 ), #182 ) ;
#157 = PRODUCT_DEFINITION_FORMATION_WITH_SPECIFIED_SOURCE ( 'ANY', '', #162, .NOT_KNOWN. ) ;
#158 = LENGTH_MEASURE_WITH_UNIT ( LENGTH_MEASURE( 0.02539999999999999897 ), #71 );
#159 = CIRCLE ( 'NONE', #5, 0.06249999999999981265 ) ;
#160 = LINE ( 'NONE', #356, #44 ) ;
#161 = CARTESIAN_POINT ( 'NONE',  ( -6.123233995736759873E-17, 2.000000000000000000, 0.000000000000000000 ) ) ;
#162 = PRODUCT ( '17030', '17030', '', ( #257 ) ) ;
#163 = DIRECTION ( 'NONE',  ( -1.224646799147353207E-16, 1.000000000000000000, 0.000000000000000000 ) ) ;
#164 = DIRECTION ( 'NONE',  ( 0.000000000000000000, 0.000000000000000000, -1.000000000000000000 ) ) ;
#165 = DIRECTION ( 'NONE',  ( -1.000000000000000000, 0.000000000000000000, 0.000000000000000000 ) ) ;
#166 = CARTESIAN_POINT ( 'NONE',  ( 0.06249999999999996531, 0.06250000000000001388, 0.000000000000000000 ) ) ;
#167 = FILL_AREA_STYLE_COLOUR ( '', #7 ) ;
#168 =( GEOMETRIC_REPRESENTATION_CONTEXT ( 3 ) GLOBAL_UNCERTAINTY_ASSIGNED_CONTEXT ( ( #148 ) ) GLOBAL_UNIT_ASSIGNED_CONTEXT ( ( #328, #16, #41 ) ) REPRESENTATION_CONTEXT ( 'NONE', 'WORKASPACE' ) );
#169 = AXIS2_PLACEMENT_3D ( 'NONE', #145, #4, #175 ) ;
#170 = ORIENTED_EDGE ( 'NONE', *, *, #119, .T. ) ;
#171 = EDGE_LOOP ( 'NONE', ( #1, #65, #30, #256, #176 ) ) ;
#172 = PRODUCT_RELATED_PRODUCT_CATEGORY ( 'part', '', ( #162 ) ) ;
#173 = SURFACE_STYLE_FILL_AREA ( #60 ) ;
#174 = AXIS2_PLACEMENT_3D ( 'NONE', #363, #284, #255 ) ;
#175 = DIRECTION ( 'NONE',  ( 1.000000000000000000, 0.000000000000000000, 0.000000000000000000 ) ) ;
#176 = ORIENTED_EDGE ( 'NONE', *, *, #67, .F. ) ;
#177 = AXIS2_PLACEMENT_3D ( 'NONE', #161, #82, #165 ) ;
#178 = DIMENSIONAL_EXPONENTS ( 1.000000000000000000, 0.000000000000000000, 0.000000000000000000, 0.000000000000000000, 0.000000000000000000, 0.000000000000000000, 0.000000000000000000 ) ;
#179 = DIRECTION ( 'NONE',  ( 0.000000000000000000, 0.000000000000000000, -1.000000000000000000 ) ) ;
#180 = CARTESIAN_POINT ( 'NONE',  ( -0.06249999999999997224, 2.000000000000000000, 0.000000000000000000 ) ) ;
#181 = PRESENTATION_STYLE_ASSIGNMENT (( #357 ) ) ;
#182 = ADVANCED_FACE ( 'NONE', ( #334 ), #278, .T. ) ;
#183 = SURFACE_STYLE_FILL_AREA ( #73 ) ;
#184 =( NAMED_UNIT ( * ) PLANE_ANGLE_UNIT ( ) SI_UNIT ( $, .RADIAN. ) );
#185 = CIRCLE ( 'NONE', #62, 0.06249999999999995143 ) ;
#186 = DIRECTION ( 'NONE',  ( 0.000000000000000000, 1.000000000000000000, 0.000000000000000000 ) ) ;
#187 = VERTEX_POINT ( 'NONE', #189 ) ;
#188 = ADVANCED_FACE ( 'NONE', ( #22 ), #132, .F. ) ;
#189 = CARTESIAN_POINT ( 'NONE',  ( 0.000000000000000000, 0.06250000000000001388, -0.06249999999999995143 ) ) ;
#190 =( GEOMETRIC_REPRESENTATION_CONTEXT ( 3 ) GLOBAL_UNCERTAINTY_ASSIGNED_CONTEXT ( ( #324 ) ) GLOBAL_UNIT_ASSIGNED_CONTEXT ( ( #239, #184, #351 ) ) REPRESENTATION_CONTEXT ( 'NONE', 'WORKASPACE' ) );
#191 =( NAMED_UNIT ( * ) PLANE_ANGLE_UNIT ( ) SI_UNIT ( $, .RADIAN. ) );
#192 = ADVANCED_FACE ( 'NONE', ( #250 ), #252, .F. ) ;
#193 = CARTESIAN_POINT ( 'NONE',  ( -0.06249999999999996531, 0.06250000000000001388, 7.654042494670952923E-18 ) ) ;
#194 =( LENGTH_UNIT ( ) NAMED_UNIT ( * ) SI_UNIT ( $, .METRE. ) );
#195 = CARTESIAN_POINT ( 'NONE',  ( 0.000000000000000000, 0.3750000000000000555, 0.000000000000000000 ) ) ;
#196 =( GEOMETRIC_REPRESENTATION_CONTEXT ( 3 ) GLOBAL_UNCERTAINTY_ASSIGNED_CONTEXT ( ( #8 ) ) GLOBAL_UNIT_ASSIGNED_CONTEXT ( ( #29, #138, #369 ) ) REPRESENTATION_CONTEXT ( 'NONE', 'WORKASPACE' ) );
#197 = EDGE_LOOP ( 'NONE', ( #343, #117 ) ) ;
#198 = FILL_AREA_STYLE_COLOUR ( '', #13 ) ;
#199 = VERTEX_POINT ( 'NONE', #20 ) ;
#200 = AXIS2_PLACEMENT_3D ( 'NONE', #53, #308, #337 ) ;
#201 = PRESENTATION_LAYER_ASSIGNMENT (  '', '', ( #287 ) ) ;
#202 = ORIENTED_EDGE ( 'NONE', *, *, #226, .T. ) ;
#203 = DIRECTION ( 'NONE',  ( -0.000000000000000000, -1.000000000000000000, -0.000000000000000000 ) ) ;
#204 = DIMENSIONAL_EXPONENTS ( 1.000000000000000000, 0.000000000000000000, 0.000000000000000000, 0.000000000000000000, 0.000000000000000000, 0.000000000000000000, 0.000000000000000000 ) ;
#205 = PRESENTATION_STYLE_ASSIGNMENT (( #118 ) ) ;
#206 = AXIS2_PLACEMENT_3D ( 'NONE', #23, #279, #274 ) ;
#207 = CARTESIAN_POINT ( 'NONE',  ( -6.123233995736759873E-17, 2.000000000000000000, 0.000000000000000000 ) ) ;
#208 = DIRECTION ( 'NONE',  ( -0.000000000000000000, -1.000000000000000000, -0.000000000000000000 ) ) ;
#209 = DIRECTION ( 'NONE',  ( -0.000000000000000000, -1.000000000000000000, -0.000000000000000000 ) ) ;
#210 = CARTESIAN_POINT ( 'NONE',  ( 0.06249999999999985428, 2.000000000000000000, 7.654042494670946760E-18 ) ) ;
#211 = AXIS2_PLACEMENT_3D ( 'NONE', #207, #322, #295 ) ;
#212 = ORIENTED_EDGE ( 'NONE', *, *, #318, .F. ) ;
#213 = DIMENSIONAL_EXPONENTS ( 1.000000000000000000, 0.000000000000000000, 0.000000000000000000, 0.000000000000000000, 0.000000000000000000, 0.000000000000000000, 0.000000000000000000 ) ;
#214 = DIRECTION ( 'NONE',  ( 1.000000000000000000, 0.000000000000000000, 0.000000000000000000 ) ) ;
#215 = CARTESIAN_POINT ( 'NONE',  ( 0.000000000000000000, 0.06250000000000001388, 0.000000000000000000 ) ) ;
#216 = DIRECTION ( 'NONE',  ( -1.224646799147353207E-16, 1.000000000000000000, -0.000000000000000000 ) ) ;
#217 =( CONVERSION_BASED_UNIT ( 'INCH', #85 ) LENGTH_UNIT ( ) NAMED_UNIT ( #349 ) );
#218 =( GEOMETRIC_REPRESENTATION_CONTEXT ( 3 ) GLOBAL_UNCERTAINTY_ASSIGNED_CONTEXT ( ( #36 ) ) GLOBAL_UNIT_ASSIGNED_CONTEXT ( ( #35, #87, #230 ) ) REPRESENTATION_CONTEXT ( 'NONE', 'WORKASPACE' ) );
#219 =( LENGTH_UNIT ( ) NAMED_UNIT ( * ) SI_UNIT ( $, .METRE. ) );
#220 = COLOUR_RGB ( '',0.7921568627450980005, 0.8196078431372548767, 0.9333333333333333481 ) ;
#221 = CLOSED_SHELL ( 'NONE', ( #223, #192, #372, #188 ) ) ;
#222 = STYLED_ITEM ( 'NONE', ( #261 ), #292 ) ;
#223 = ADVANCED_FACE ( 'NONE', ( #365 ), #104, .T. ) ;
#224 = DIRECTION ( 'NONE',  ( 1.000000000000000000, 1.224646799147353207E-16, 0.000000000000000000 ) ) ;
#225 =( NAMED_UNIT ( * ) PLANE_ANGLE_UNIT ( ) SI_UNIT ( $, .RADIAN. ) );
#226 = EDGE_CURVE ( 'NONE', #227, #187, #18, .T. ) ;
#227 = VERTEX_POINT ( 'NONE', #193 ) ;
#228 = AXIS2_PLACEMENT_3D ( 'NONE', #215, #107, #49 ) ;
#229 = LINE ( 'NONE', #232, #128 ) ;
#230 =( NAMED_UNIT ( * ) SI_UNIT ( $, .STERADIAN. ) SOLID_ANGLE_UNIT ( ) );
#231 = EDGE_LOOP ( 'NONE', ( #258, #89, #254, #262 ) ) ;
#232 = CARTESIAN_POINT ( 'NONE',  ( 7.654042494670951382E-18, 0.000000000000000000, 0.06249999999999995143 ) ) ;
#233 = ADVANCED_FACE ( 'NONE', ( #311 ), #54, .T. ) ;
#234 = COLOUR_RGB ( '',1.000000000000000000, 0.000000000000000000, 0.000000000000000000 ) ;
#235 = EDGE_CURVE ( 'NONE', #283, #303, #69, .T. ) ;
#236 = CARTESIAN_POINT ( 'NONE',  ( 0.06249999999999995837, 0.3749999999999999445, 7.654042494670954463E-18 ) ) ;
#237 =( GEOMETRIC_REPRESENTATION_CONTEXT ( 3 ) GLOBAL_UNCERTAINTY_ASSIGNED_CONTEXT ( ( #320 ) ) GLOBAL_UNIT_ASSIGNED_CONTEXT ( ( #48, #225, #129 ) ) REPRESENTATION_CONTEXT ( 'NONE', 'WORKASPACE' ) );
#238 = DIRECTION ( 'NONE',  ( -0.000000000000000000, -1.000000000000000000, -0.000000000000000000 ) ) ;
#239 =( CONVERSION_BASED_UNIT ( 'INCH', #124 ) LENGTH_UNIT ( ) NAMED_UNIT ( #325 ) );
#240 = DIRECTION ( 'NONE',  ( -1.224646799147353207E-16, 1.000000000000000000, -0.000000000000000000 ) ) ;
#241 = DIMENSIONAL_EXPONENTS ( 1.000000000000000000, 0.000000000000000000, 0.000000000000000000, 0.000000000000000000, 0.000000000000000000, 0.000000000000000000, 0.000000000000000000 ) ;
#242 = COLOUR_RGB ( '',0.7921568627450980005, 0.8196078431372548767, 0.9333333333333333481 ) ;
#243 = CIRCLE ( 'NONE', #291, 0.06249999999999995143 ) ;
#244 = SURFACE_STYLE_USAGE ( .BOTH. , #247 ) ;
#245 = DIRECTION ( 'NONE',  ( -1.000000000000000000, 0.000000000000000000, 0.000000000000000000 ) ) ;
#246 = SURFACE_STYLE_USAGE ( .BOTH. , #141 ) ;
#247 = SURFACE_SIDE_STYLE ('',( #27 ) ) ;
#248 = PRODUCT_DEFINITION ( 'UNKNOWN', '', #157, #92 ) ;
#249 =( GEOMETRIC_REPRESENTATION_CONTEXT ( 3 ) GLOBAL_UNCERTAINTY_ASSIGNED_CONTEXT ( ( #294 ) ) GLOBAL_UNIT_ASSIGNED_CONTEXT ( ( #78, #191, #310 ) ) REPRESENTATION_CONTEXT ( 'NONE', 'WORKASPACE' ) );
#250 = FACE_OUTER_BOUND ( 'NONE', #197, .T. ) ;
#251 = CYLINDRICAL_SURFACE ( 'NONE', #330, 0.06249999999999991673 ) ;
#252 = PLANE ( 'NONE',  #55 ) ;
#253 = EDGE_CURVE ( 'NONE', #303, #319, #229, .T. ) ;
#254 = ORIENTED_EDGE ( 'NONE', *, *, #108, .T. ) ;
#255 = DIRECTION ( 'NONE',  ( 1.000000000000000000, 0.000000000000000000, 0.000000000000000000 ) ) ;
#256 = ORIENTED_EDGE ( 'NONE', *, *, #327, .F. ) ;
#257 = PRODUCT_CONTEXT ( 'NONE', #33, 'mechanical' ) ;
#258 = ORIENTED_EDGE ( 'NONE', *, *, #47, .F. ) ;
#259 = LENGTH_MEASURE_WITH_UNIT ( LENGTH_MEASURE( 0.02539999999999999897 ), #68 );
#260 = VERTEX_POINT ( 'NONE', #103 ) ;
#261 = PRESENTATION_STYLE_ASSIGNMENT (( #131 ) ) ;
#262 = ORIENTED_EDGE ( 'NONE', *, *, #115, .F. ) ;
#263 = MECHANICAL_DESIGN_GEOMETRIC_PRESENTATION_REPRESENTATION (  '', ( #156 ), #249 ) ;
#264 = CARTESIAN_POINT ( 'NONE',  ( -7.654042494670957545E-18, 0.06250000000000001388, 0.000000000000000000 ) ) ;
#265 = ORIENTED_EDGE ( 'NONE', *, *, #226, .F. ) ;
#266 = ADVANCED_BREP_SHAPE_REPRESENTATION ( '17030', ( #292, #296, #174 ), #237 ) ;
#267 = ORIENTED_EDGE ( 'NONE', *, *, #327, .T. ) ;
#268 = CARTESIAN_POINT ( 'NONE',  ( -7.654042494670957545E-18, 0.06250000000000001388, 0.000000000000000000 ) ) ;
#269 = CIRCLE ( 'NONE', #329, 0.06249999999999981265 ) ;
#270 = AXIS2_PLACEMENT_3D ( 'NONE', #264, #46, #272 ) ;
#271 = MECHANICAL_DESIGN_GEOMETRIC_PRESENTATION_REPRESENTATION (  '', ( #222 ), #61 ) ;
#272 = DIRECTION ( 'NONE',  ( 1.000000000000000000, 0.000000000000000000, -1.224646799147353454E-16 ) ) ;
#273 = PRESENTATION_STYLE_ASSIGNMENT (( #244 ) ) ;
#274 = DIRECTION ( 'NONE',  ( 0.000000000000000000, 0.000000000000000000, -1.000000000000000000 ) ) ;
#275 = DIRECTION ( 'NONE',  ( -1.000000000000000000, -1.224646799147353207E-16, 0.000000000000000000 ) ) ;
#276 = ADVANCED_FACE ( 'NONE', ( #289 ), #31, .T. ) ;
#277 = FILL_AREA_STYLE ('',( #344 ) ) ;
#278 = SPHERICAL_SURFACE ( 'NONE', #366, 0.06249999999999997918 ) ;
#279 = DIRECTION ( 'NONE',  ( -0.000000000000000000, -1.000000000000000000, -0.000000000000000000 ) ) ;
#280 =( LENGTH_UNIT ( ) NAMED_UNIT ( * ) SI_UNIT ( $, .METRE. ) );
#281 = FILL_AREA_STYLE ('',( #167 ) ) ;
#282 = AXIS2_PLACEMENT_3D ( 'NONE', #120, #98, #125 ) ;
#283 = VERTEX_POINT ( 'NONE', #309 ) ;
#284 = DIRECTION ( 'NONE',  ( 0.000000000000000000, 0.000000000000000000, 1.000000000000000000 ) ) ;
#285 = ORIENTED_EDGE ( 'NONE', *, *, #253, .F. ) ;
#286 =( LENGTH_UNIT ( ) NAMED_UNIT ( * ) SI_UNIT ( $, .METRE. ) );
#287 = STYLED_ITEM ( 'NONE', ( #205 ), #307 ) ;
#288 = SURFACE_STYLE_FILL_AREA ( #111 ) ;
#289 = FACE_OUTER_BOUND ( 'NONE', #3, .T. ) ;
#290 = ORIENTED_EDGE ( 'NONE', *, *, #38, .T. ) ;
#291 = AXIS2_PLACEMENT_3D ( 'NONE', #12, #238, #126 ) ;
#292 = MANIFOLD_SOLID_BREP ( 'Revolve - Cutting Edge', #63 ) ;
#293 = CARTESIAN_POINT ( 'NONE',  ( 1.377727649040773128E-16, 0.3749999999999999445, 0.000000000000000000 ) ) ;
#294 = UNCERTAINTY_MEASURE_WITH_UNIT (LENGTH_MEASURE( 1.000000000000000082E-05 ), #78, 'distance_accuracy_value', 'NONE');
#295 = DIRECTION ( 'NONE',  ( -1.000000000000000000, 0.000000000000000000, 0.000000000000000000 ) ) ;
#296 = MANIFOLD_SOLID_BREP ( 'Revolve - Tool Body (Straight Shanked)', #221 ) ;
#297 = FILL_AREA_STYLE ('',( #198 ) ) ;
#298 = SURFACE_SIDE_STYLE ('',( #183 ) ) ;
#299 = AXIS2_PLACEMENT_3D ( 'NONE', #100, #364, #224 ) ;
#300 = MECHANICAL_DESIGN_GEOMETRIC_PRESENTATION_REPRESENTATION (  '', ( #287 ), #80 ) ;
#301 = APPLICATION_CONTEXT ( 'automotive_design' ) ;
#302 = CIRCLE ( 'NONE', #211, 0.06250000000000001388 ) ;
#303 = VERTEX_POINT ( 'NONE', #39 ) ;
#304 = DIRECTION ( 'NONE',  ( -1.000000000000000000, 0.000000000000000000, 0.000000000000000000 ) ) ;
#305 = CARTESIAN_POINT ( 'NONE',  ( -7.654042494670957545E-18, 0.06250000000000001388, 0.000000000000000000 ) ) ;
#306 = FILL_AREA_STYLE ('',( #79 ) ) ;
#307 = ADVANCED_FACE ( 'NONE', ( #147 ), #52, .T. ) ;
#308 = DIRECTION ( 'NONE',  ( -1.224646799147353207E-16, 1.000000000000000000, -0.000000000000000000 ) ) ;
#309 = CARTESIAN_POINT ( 'NONE',  ( 0.000000000000000000, 0.3750000000000000555, -0.06249999999999995143 ) ) ;
#310 =( NAMED_UNIT ( * ) SI_UNIT ( $, .STERADIAN. ) SOLID_ANGLE_UNIT ( ) );
#311 = FACE_OUTER_BOUND ( 'NONE', #59, .T. ) ;
#312 = LENGTH_MEASURE_WITH_UNIT ( LENGTH_MEASURE( 0.02539999999999999897 ), #194 );
#313 = FILL_AREA_STYLE_COLOUR ( '', #220 ) ;
#314 = ORIENTED_EDGE ( 'NONE', *, *, #47, .T. ) ;
#315 = COLOUR_RGB ( '',1.000000000000000000, 0.000000000000000000, 0.000000000000000000 ) ;
#316 = EDGE_LOOP ( 'NONE', ( #170, #314, #6, #91 ) ) ;
#317 = PRESENTATION_STYLE_ASSIGNMENT (( #246 ) ) ;
#318 = EDGE_CURVE ( 'NONE', #339, #34, #32, .T. ) ;
#319 = VERTEX_POINT ( 'NONE', #102 ) ;
#320 = UNCERTAINTY_MEASURE_WITH_UNIT (LENGTH_MEASURE( 1.000000000000000082E-05 ), #48, 'distance_accuracy_value', 'NONE');
#321 = CARTESIAN_POINT ( 'NONE',  ( 0.000000000000000000, 0.000000000000000000, 0.000000000000000000 ) ) ;
#322 = DIRECTION ( 'NONE',  ( -1.224646799147353207E-16, 1.000000000000000000, -0.000000000000000000 ) ) ;
#323 = DIRECTION ( 'NONE',  ( 0.000000000000000000, 0.000000000000000000, -1.000000000000000000 ) ) ;
#324 = UNCERTAINTY_MEASURE_WITH_UNIT (LENGTH_MEASURE( 1.000000000000000082E-05 ), #239, 'distance_accuracy_value', 'NONE');
#325 = DIMENSIONAL_EXPONENTS ( 1.000000000000000000, 0.000000000000000000, 0.000000000000000000, 0.000000000000000000, 0.000000000000000000, 0.000000000000000000, 0.000000000000000000 ) ;
#326 = FILL_AREA_STYLE_COLOUR ( '', #84 ) ;
#327 = EDGE_CURVE ( 'NONE', #187, #339, #354, .T. ) ;
#328 =( CONVERSION_BASED_UNIT ( 'INCH', #158 ) LENGTH_UNIT ( ) NAMED_UNIT ( #204 ) );
#329 = AXIS2_PLACEMENT_3D ( 'NONE', #109, #127, #336 ) ;
#330 = AXIS2_PLACEMENT_3D ( 'NONE', #133, #216, #304 ) ;
#331 = MECHANICAL_DESIGN_GEOMETRIC_PRESENTATION_REPRESENTATION (  '', ( #88 ), #168 ) ;
#332 = SURFACE_STYLE_USAGE ( .BOTH. , #368 ) ;
#333 = APPLICATION_PROTOCOL_DEFINITION ( 'draft international standard', 'automotive_design', 1998, #33 ) ;
#334 = FACE_OUTER_BOUND ( 'NONE', #37, .T. ) ;
#335 = DIRECTION ( 'NONE',  ( -0.000000000000000000, -1.000000000000000000, -0.000000000000000000 ) ) ;
#336 = DIRECTION ( 'NONE',  ( -1.000000000000000000, 0.000000000000000000, 0.000000000000000000 ) ) ;
#337 = DIRECTION ( 'NONE',  ( -1.000000000000000000, 0.000000000000000000, 0.000000000000000000 ) ) ;
#338 = VECTOR ( 'NONE', #95, 39.37007874015748143 ) ;
#339 = VERTEX_POINT ( 'NONE', #166 ) ;
#340 = SURFACE_STYLE_FILL_AREA ( #277 ) ;
#341 = ORIENTED_EDGE ( 'NONE', *, *, #235, .F. ) ;
#342 =( NAMED_UNIT ( * ) SI_UNIT ( $, .STERADIAN. ) SOLID_ANGLE_UNIT ( ) );
#343 = ORIENTED_EDGE ( 'NONE', *, *, #119, .F. ) ;
#344 = FILL_AREA_STYLE_COLOUR ( '', #242 ) ;
#345 = AXIS2_PLACEMENT_3D ( 'NONE', #66, #371, #90 ) ;
#346 = DIRECTION ( 'NONE',  ( 0.000000000000000000, -0.000000000000000000, 1.000000000000000000 ) ) ;
#347 = MECHANICAL_DESIGN_GEOMETRIC_PRESENTATION_REPRESENTATION (  '', ( #135 ), #218 ) ;
#348 = EDGE_CURVE ( 'NONE', #339, #319, #185, .T. ) ;
#349 = DIMENSIONAL_EXPONENTS ( 1.000000000000000000, 0.000000000000000000, 0.000000000000000000, 0.000000000000000000, 0.000000000000000000, 0.000000000000000000, 0.000000000000000000 ) ;
#350 = CARTESIAN_POINT ( 'NONE',  ( -3.827021247335479543E-18, 3.414809992080329023E-17, 0.000000000000000000 ) ) ;
#351 =( NAMED_UNIT ( * ) SI_UNIT ( $, .STERADIAN. ) SOLID_ANGLE_UNIT ( ) );
#352 = UNCERTAINTY_MEASURE_WITH_UNIT (LENGTH_MEASURE( 1.000000000000000082E-05 ), #217, 'distance_accuracy_value', 'NONE');
#353 = SURFACE_STYLE_USAGE ( .BOTH. , #298 ) ;
#354 = CIRCLE ( 'NONE', #206, 0.06249999999999995143 ) ;
#355 =( NAMED_UNIT ( * ) SI_UNIT ( $, .STERADIAN. ) SOLID_ANGLE_UNIT ( ) );
#356 = CARTESIAN_POINT ( 'NONE',  ( 0.000000000000000000, 0.000000000000000000, -0.06249999999999995143 ) ) ;
#357 = SURFACE_STYLE_USAGE ( .BOTH. , #9 ) ;
#358 = PRESENTATION_STYLE_ASSIGNMENT (( #353 ) ) ;
#359 = PRODUCT_DEFINITION_SHAPE ( 'NONE', 'NONE',  #248 ) ;
#360 = ORIENTED_EDGE ( 'NONE', *, *, #57, .T. ) ;
#361 = PRESENTATION_LAYER_ASSIGNMENT (  '', '', ( #88 ) ) ;
#362 = AXIS2_PLACEMENT_3D ( 'NONE', #152, #208, #323 ) ;
#363 = CARTESIAN_POINT ( 'NONE',  ( 0.000000000000000000, 0.000000000000000000, 0.000000000000000000 ) ) ;
#364 = DIRECTION ( 'NONE',  ( 1.224646799147353207E-16, -1.000000000000000000, 0.000000000000000000 ) ) ;
#365 = FACE_OUTER_BOUND ( 'NONE', #316, .T. ) ;
#366 = AXIS2_PLACEMENT_3D ( 'NONE', #305, #134, #214 ) ;
#367 = CARTESIAN_POINT ( 'NONE',  ( 1.377727649040773128E-16, 0.3750000000000000555, 0.000000000000000000 ) ) ;
#368 = SURFACE_SIDE_STYLE ('',( #137 ) ) ;
#369 =( NAMED_UNIT ( * ) SI_UNIT ( $, .STERADIAN. ) SOLID_ANGLE_UNIT ( ) );
#370 = EDGE_LOOP ( 'NONE', ( #86, #123 ) ) ;
#371 = DIRECTION ( 'NONE',  ( -0.000000000000000000, -1.000000000000000000, -0.000000000000000000 ) ) ;
#372 = ADVANCED_FACE ( 'NONE', ( #25 ), #251, .T. ) ;
#373 = EDGE_LOOP ( 'NONE', ( #285, #360, #15, #265, #139 ) ) ;
ENDSEC;
END-ISO-10303-21;
