ISO-10303-21;
HEADER;
FILE_DESCRIPTION (( 'STEP AP214' ),
    '1' );
FILE_NAME ('59560.STEP',
    '2023-07-24T15:49:03',
    ( '' ),
    ( '' ),
    'SwSTEP 2.0',
    'SolidWorks 2023',
    '' );
FILE_SCHEMA (( 'AUTOMOTIVE_DESIGN' ));
ENDSEC;

DATA;
#1 = FACE_OUTER_BOUND ( 'NONE', #203, .T. ) ;
#2 = EDGE_CURVE ( 'NONE', #276, #138, #263, .T. ) ;
#3 = SURFACE_STYLE_FILL_AREA ( #123 ) ;
#4 = AXIS2_PLACEMENT_3D ( 'NONE', #79, #122, #211 ) ;
#5 = ORIENTED_EDGE ( 'NONE', *, *, #223, .T. ) ;
#6 = CARTESIAN_POINT ( 'NONE',  ( 1.925929944387235853E-31, 40.00000000000000000, 0.000000000000000000 ) ) ;
#7 = DIRECTION ( 'NONE',  ( -3.498990854706722745E-17, 1.000000000000000000, -0.000000000000000000 ) ) ;
#8 = AXIS2_PLACEMENT_3D ( 'NONE', #246, #280, #125 ) ;
#9 =( NAMED_UNIT ( * ) PLANE_ANGLE_UNIT ( ) SI_UNIT ( $, .RADIAN. ) );
#10 = VERTEX_POINT ( 'NONE', #141 ) ;
#11 = EDGE_LOOP ( 'NONE', ( #36, #114, #273, #153 ) ) ;
#12 = ADVANCED_FACE ( 'NONE', ( #120 ), #209, .T. ) ;
#13 = COLOUR_RGB ( '',1.000000000000000000, 0.000000000000000000, 0.000000000000000000 ) ;
#14 = PRESENTATION_LAYER_ASSIGNMENT (  '', '', ( #250 ) ) ;
#15 = ORIENTED_EDGE ( 'NONE', *, *, #135, .T. ) ;
#16 = FILL_AREA_STYLE_COLOUR ( '', #13 ) ;
#17 = FACE_OUTER_BOUND ( 'NONE', #11, .T. ) ;
#18 = UNCERTAINTY_MEASURE_WITH_UNIT (LENGTH_MEASURE( 1.000000000000000082E-05 ), #29, 'distance_accuracy_value', 'NONE');
#19 = LINE ( 'NONE', #218, #221 ) ;
#20 = VECTOR ( 'NONE', #128, 1000.000000000000000 ) ;
#21 = SURFACE_SIDE_STYLE ('',( #259 ) ) ;
#22 = DIRECTION ( 'NONE',  ( -0.000000000000000000, -1.000000000000000000, -0.000000000000000000 ) ) ;
#23 = APPLICATION_PROTOCOL_DEFINITION ( 'draft international standard', 'automotive_design', 1998, #228 ) ;
#24 = DIRECTION ( 'NONE',  ( 1.000000000000000000, 3.498990854706722745E-17, 0.000000000000000000 ) ) ;
#25 = LINE ( 'NONE', #281, #54 ) ;
#26 = AXIS2_PLACEMENT_3D ( 'NONE', #43, #22, #277 ) ;
#27 =( NAMED_UNIT ( * ) PLANE_ANGLE_UNIT ( ) SI_UNIT ( $, .RADIAN. ) );
#28 =( LENGTH_UNIT ( ) NAMED_UNIT ( * ) SI_UNIT ( .MILLI., .METRE. ) );
#29 =( LENGTH_UNIT ( ) NAMED_UNIT ( * ) SI_UNIT ( .MILLI., .METRE. ) );
#30 = PRODUCT_DEFINITION ( 'UNKNOWN', '', #187, #170 ) ;
#31 =( LENGTH_UNIT ( ) NAMED_UNIT ( * ) SI_UNIT ( .MILLI., .METRE. ) );
#32 = CARTESIAN_POINT ( 'NONE',  ( 0.000000000000000000, 0.000000000000000000, 0.000000000000000000 ) ) ;
#33 = MANIFOLD_SOLID_BREP ( 'Revolve - Cutting Edge', #225 ) ;
#34 = ORIENTED_EDGE ( 'NONE', *, *, #117, .T. ) ;
#35 = PRESENTATION_LAYER_ASSIGNMENT (  '', '', ( #214 ) ) ;
#36 = ORIENTED_EDGE ( 'NONE', *, *, #117, .F. ) ;
#37 = CARTESIAN_POINT ( 'NONE',  ( -8.000000000000000000, 40.00000000000000000, 0.000000000000000000 ) ) ;
#38 = DIRECTION ( 'NONE',  ( -0.000000000000000000, -1.000000000000000000, -0.000000000000000000 ) ) ;
#39 = UNCERTAINTY_MEASURE_WITH_UNIT (LENGTH_MEASURE( 1.000000000000000082E-05 ), #28, 'distance_accuracy_value', 'NONE');
#40 = SURFACE_SIDE_STYLE ('',( #84 ) ) ;
#41 = AXIS2_PLACEMENT_3D ( 'NONE', #6, #7, #184 ) ;
#42 = FILL_AREA_STYLE_COLOUR ( '', #207 ) ;
#43 = CARTESIAN_POINT ( 'NONE',  ( 0.000000000000000000, 0.000000000000000000, 0.000000000000000000 ) ) ;
#44 = DIRECTION ( 'NONE',  ( 1.000000000000000000, 0.000000000000000000, 0.000000000000000000 ) ) ;
#45 = STYLED_ITEM ( 'NONE', ( #224 ), #287 ) ;
#46 = SURFACE_STYLE_USAGE ( .BOTH. , #180 ) ;
#47 = ORIENTED_EDGE ( 'NONE', *, *, #223, .F. ) ;
#48 = DIRECTION ( 'NONE',  ( 0.000000000000000000, -1.000000000000000000, -0.000000000000000000 ) ) ;
#49 =( GEOMETRIC_REPRESENTATION_CONTEXT ( 3 ) GLOBAL_UNCERTAINTY_ASSIGNED_CONTEXT ( ( #215 ) ) GLOBAL_UNIT_ASSIGNED_CONTEXT ( ( #169, #27, #237 ) ) REPRESENTATION_CONTEXT ( 'NONE', 'WORKASPACE' ) );
#50 = EDGE_CURVE ( 'NONE', #268, #10, #137, .T. ) ;
#51 = ORIENTED_EDGE ( 'NONE', *, *, #139, .T. ) ;
#52 =( NAMED_UNIT ( * ) PLANE_ANGLE_UNIT ( ) SI_UNIT ( $, .RADIAN. ) );
#53 = EDGE_LOOP ( 'NONE', ( #72, #51, #98, #47 ) ) ;
#54 = VECTOR ( 'NONE', #194, 1000.000000000000000 ) ;
#55 = ORIENTED_EDGE ( 'NONE', *, *, #210, .F. ) ;
#56 = SURFACE_STYLE_FILL_AREA ( #95 ) ;
#57 = LINE ( 'NONE', #195, #90 ) ;
#58 = CARTESIAN_POINT ( 'NONE',  ( 4.897174800528513241E-33, 40.00000000000000000, 0.000000000000000000 ) ) ;
#59 = DIRECTION ( 'NONE',  ( 0.000000000000000000, 0.000000000000000000, -1.000000000000000000 ) ) ;
#60 = STYLED_ITEM ( 'NONE', ( #145 ), #80 ) ;
#61 = CYLINDRICAL_SURFACE ( 'NONE', #4, 8.000000000000000000 ) ;
#62 = DIRECTION ( 'NONE',  ( 0.000000000000000000, 0.000000000000000000, -1.000000000000000000 ) ) ;
#63 = SURFACE_STYLE_USAGE ( .BOTH. , #21 ) ;
#64 = PRESENTATION_LAYER_ASSIGNMENT (  '', '', ( #192 ) ) ;
#65 =( GEOMETRIC_REPRESENTATION_CONTEXT ( 3 ) GLOBAL_UNCERTAINTY_ASSIGNED_CONTEXT ( ( #282 ) ) GLOBAL_UNIT_ASSIGNED_CONTEXT ( ( #157, #52, #222 ) ) REPRESENTATION_CONTEXT ( 'NONE', 'WORKASPACE' ) );
#66 = SURFACE_STYLE_USAGE ( .BOTH. , #69 ) ;
#67 = PRODUCT_RELATED_PRODUCT_CATEGORY ( 'part', '', ( #81 ) ) ;
#68 = ORIENTED_EDGE ( 'NONE', *, *, #50, .T. ) ;
#69 = SURFACE_SIDE_STYLE ('',( #3 ) ) ;
#70 = DIRECTION ( 'NONE',  ( 0.000000000000000000, 1.000000000000000000, 0.000000000000000000 ) ) ;
#71 = CIRCLE ( 'NONE', #154, 8.000000000000000000 ) ;
#72 = ORIENTED_EDGE ( 'NONE', *, *, #272, .T. ) ;
#73 = FILL_AREA_STYLE ('',( #269 ) ) ;
#74 = EDGE_LOOP ( 'NONE', ( #77, #204 ) ) ;
#75 = AXIS2_PLACEMENT_3D ( 'NONE', #231, #275, #270 ) ;
#76 = EDGE_LOOP ( 'NONE', ( #162, #34, #255, #233 ) ) ;
#77 = ORIENTED_EDGE ( 'NONE', *, *, #2, .T. ) ;
#78 = ADVANCED_FACE ( 'NONE', ( #168 ), #61, .T. ) ;
#79 = CARTESIAN_POINT ( 'NONE',  ( -1.714505518806293849E-15, 89.00000000000000000, 0.000000000000000000 ) ) ;
#80 = ADVANCED_FACE ( 'NONE', ( #17 ), #166, .T. ) ;
#81 = PRODUCT ( '59560', '59560', '', ( #149 ) ) ;
#82 = PRESENTATION_LAYER_ASSIGNMENT (  '', '', ( #164 ) ) ;
#83 = AXIS2_PLACEMENT_3D ( 'NONE', #163, #241, #171 ) ;
#84 = SURFACE_STYLE_FILL_AREA ( #285 ) ;
#85 = DIRECTION ( 'NONE',  ( -0.000000000000000000, -1.000000000000000000, -0.000000000000000000 ) ) ;
#86 = SURFACE_STYLE_USAGE ( .BOTH. , #40 ) ;
#87 = CARTESIAN_POINT ( 'NONE',  ( 0.000000000000000000, 40.00000000000000000, -8.000000000000000000 ) ) ;
#88 = CYLINDRICAL_SURFACE ( 'NONE', #83, 8.000000000000000000 ) ;
#89 = CARTESIAN_POINT ( 'NONE',  ( 0.000000000000000000, 0.000000000000000000, 0.000000000000000000 ) ) ;
#90 = VECTOR ( 'NONE', #104, 1000.000000000000000 ) ;
#91 = AXIS2_PLACEMENT_3D ( 'NONE', #229, #102, #44 ) ;
#92 = CIRCLE ( 'NONE', #41, 8.000000000000000000 ) ;
#93 = PRODUCT_DEFINITION_SHAPE ( 'NONE', 'NONE',  #30 ) ;
#94 =( NAMED_UNIT ( * ) SI_UNIT ( $, .STERADIAN. ) SOLID_ANGLE_UNIT ( ) );
#95 = FILL_AREA_STYLE ('',( #116 ) ) ;
#96 = VERTEX_POINT ( 'NONE', #37 ) ;
#97 = AXIS2_PLACEMENT_3D ( 'NONE', #176, #242, #103 ) ;
#98 = ORIENTED_EDGE ( 'NONE', *, *, #2, .F. ) ;
#99 =( NAMED_UNIT ( * ) SI_UNIT ( $, .STERADIAN. ) SOLID_ANGLE_UNIT ( ) );
#100 = DIRECTION ( 'NONE',  ( 3.498990854706722745E-17, -1.000000000000000000, 0.000000000000000000 ) ) ;
#101 = MECHANICAL_DESIGN_GEOMETRIC_PRESENTATION_REPRESENTATION (  '', ( #192 ), #212 ) ;
#102 = DIRECTION ( 'NONE',  ( 0.000000000000000000, 0.000000000000000000, 1.000000000000000000 ) ) ;
#103 = DIRECTION ( 'NONE',  ( -1.000000000000000000, 0.000000000000000000, 0.000000000000000000 ) ) ;
#104 = DIRECTION ( 'NONE',  ( -0.000000000000000000, -1.000000000000000000, -0.000000000000000000 ) ) ;
#105 = CARTESIAN_POINT ( 'NONE',  ( 8.000000000000000000, 89.00000000000000000, 9.797174393178825657E-16 ) ) ;
#106 = SURFACE_STYLE_USAGE ( .BOTH. , #124 ) ;
#107 = CARTESIAN_POINT ( 'NONE',  ( 0.000000000000000000, 40.00000000000000000, 0.000000000000000000 ) ) ;
#108 = MECHANICAL_DESIGN_GEOMETRIC_PRESENTATION_REPRESENTATION (  '', ( #214 ), #182 ) ;
#109 = CARTESIAN_POINT ( 'NONE',  ( 9.797174393178825657E-16, 40.00000000000000000, 8.000000000000000000 ) ) ;
#110 = CARTESIAN_POINT ( 'NONE',  ( -8.000000000000003553, 89.00000000000000000, 0.000000000000000000 ) ) ;
#111 =( NAMED_UNIT ( * ) PLANE_ANGLE_UNIT ( ) SI_UNIT ( $, .RADIAN. ) );
#112 = ADVANCED_FACE ( 'NONE', ( #148 ), #191, .F. ) ;
#113 = AXIS2_PLACEMENT_3D ( 'NONE', #32, #38, #121 ) ;
#114 = ORIENTED_EDGE ( 'NONE', *, *, #234, .T. ) ;
#115 = MECHANICAL_DESIGN_GEOMETRIC_PRESENTATION_REPRESENTATION (  '', ( #250 ), #49 ) ;
#116 = FILL_AREA_STYLE_COLOUR ( '', #278 ) ;
#117 = EDGE_CURVE ( 'NONE', #159, #10, #57, .T. ) ;
#118 = VERTEX_POINT ( 'NONE', #126 ) ;
#119 = ORIENTED_EDGE ( 'NONE', *, *, #272, .F. ) ;
#120 = FACE_OUTER_BOUND ( 'NONE', #76, .T. ) ;
#121 = DIRECTION ( 'NONE',  ( 0.000000000000000000, 0.000000000000000000, -1.000000000000000000 ) ) ;
#122 = DIRECTION ( 'NONE',  ( -3.498990854706722745E-17, 1.000000000000000000, -0.000000000000000000 ) ) ;
#123 = FILL_AREA_STYLE ('',( #42 ) ) ;
#124 = SURFACE_SIDE_STYLE ('',( #56 ) ) ;
#125 = DIRECTION ( 'NONE',  ( -1.000000000000000000, 0.000000000000000000, 0.000000000000000000 ) ) ;
#126 = CARTESIAN_POINT ( 'NONE',  ( 8.000000000000000000, 40.00000000000000000, 9.797174393178825657E-16 ) ) ;
#127 = ADVANCED_FACE ( 'NONE', ( #189 ), #88, .T. ) ;
#128 = DIRECTION ( 'NONE',  ( -3.498990854706722745E-17, 1.000000000000000000, -0.000000000000000000 ) ) ;
#129 = EDGE_CURVE ( 'NONE', #185, #268, #19, .T. ) ;
#130 = FACE_OUTER_BOUND ( 'NONE', #74, .T. ) ;
#131 = UNCERTAINTY_MEASURE_WITH_UNIT (LENGTH_MEASURE( 1.000000000000000082E-05 ), #31, 'distance_accuracy_value', 'NONE');
#132 = CARTESIAN_POINT ( 'NONE',  ( 0.000000000000000000, 0.000000000000000000, 0.000000000000000000 ) ) ;
#133 = AXIS2_PLACEMENT_3D ( 'NONE', #89, #288, #266 ) ;
#134 = CARTESIAN_POINT ( 'NONE',  ( 0.000000000000000000, 0.000000000000000000, -8.000000000000000000 ) ) ;
#135 = EDGE_CURVE ( 'NONE', #118, #96, #208, .T. ) ;
#136 = DIRECTION ( 'NONE',  ( 0.000000000000000000, 0.000000000000000000, -1.000000000000000000 ) ) ;
#137 = CIRCLE ( 'NONE', #113, 8.000000000000000000 ) ;
#138 = VERTEX_POINT ( 'NONE', #105 ) ;
#139 = EDGE_CURVE ( 'NONE', #118, #138, #243, .T. ) ;
#140 = ORIENTED_EDGE ( 'NONE', *, *, #234, .F. ) ;
#141 = CARTESIAN_POINT ( 'NONE',  ( 9.797174393178825657E-16, 0.000000000000000000, 8.000000000000000000 ) ) ;
#142 =( NAMED_UNIT ( * ) PLANE_ANGLE_UNIT ( ) SI_UNIT ( $, .RADIAN. ) );
#143 = CARTESIAN_POINT ( 'NONE',  ( 0.000000000000000000, 40.00000000000000000, 0.000000000000000000 ) ) ;
#144 = UNCERTAINTY_MEASURE_WITH_UNIT (LENGTH_MEASURE( 1.000000000000000082E-05 ), #265, 'distance_accuracy_value', 'NONE');
#145 = PRESENTATION_STYLE_ASSIGNMENT (( #86 ) ) ;
#146 = FACE_OUTER_BOUND ( 'NONE', #232, .T. ) ;
#147 = COLOUR_RGB ( '',1.000000000000000000, 0.000000000000000000, 0.000000000000000000 ) ;
#148 = FACE_OUTER_BOUND ( 'NONE', #249, .T. ) ;
#149 = PRODUCT_CONTEXT ( 'NONE', #228, 'mechanical' ) ;
#150 = PRESENTATION_STYLE_ASSIGNMENT (( #63 ) ) ;
#151 = AXIS2_PLACEMENT_3D ( 'NONE', #158, #252, #136 ) ;
#152 = DIRECTION ( 'NONE',  ( 0.000000000000000000, 0.000000000000000000, -1.000000000000000000 ) ) ;
#153 = ORIENTED_EDGE ( 'NONE', *, *, #196, .F. ) ;
#154 = AXIS2_PLACEMENT_3D ( 'NONE', #143, #261, #59 ) ;
#155 = PRESENTATION_STYLE_ASSIGNMENT (( #66 ) ) ;
#156 = FILL_AREA_STYLE ('',( #16 ) ) ;
#157 =( LENGTH_UNIT ( ) NAMED_UNIT ( * ) SI_UNIT ( .MILLI., .METRE. ) );
#158 = CARTESIAN_POINT ( 'NONE',  ( 0.000000000000000000, 0.000000000000000000, 0.000000000000000000 ) ) ;
#159 = VERTEX_POINT ( 'NONE', #109 ) ;
#160 = AXIS2_PLACEMENT_3D ( 'NONE', #132, #48, #152 ) ;
#161 = SURFACE_SIDE_STYLE ('',( #253 ) ) ;
#162 = ORIENTED_EDGE ( 'NONE', *, *, #210, .T. ) ;
#163 = CARTESIAN_POINT ( 'NONE',  ( -1.714505518806293849E-15, 89.00000000000000000, 0.000000000000000000 ) ) ;
#164 = STYLED_ITEM ( 'NONE', ( #254 ), #12 ) ;
#165 = AXIS2_PLACEMENT_3D ( 'NONE', #58, #258, #217 ) ;
#166 = CYLINDRICAL_SURFACE ( 'NONE', #26, 8.000000000000000000 ) ;
#167 = ADVANCED_FACE ( 'NONE', ( #130 ), #213, .F. ) ;
#168 = FACE_OUTER_BOUND ( 'NONE', #53, .T. ) ;
#169 =( LENGTH_UNIT ( ) NAMED_UNIT ( * ) SI_UNIT ( .MILLI., .METRE. ) );
#170 = PRODUCT_DEFINITION_CONTEXT ( 'detailed design', #244, 'design' ) ;
#171 = DIRECTION ( 'NONE',  ( -1.000000000000000000, 0.000000000000000000, 0.000000000000000000 ) ) ;
#172 = FILL_AREA_STYLE_COLOUR ( '', #235 ) ;
#173 = MECHANICAL_DESIGN_GEOMETRIC_PRESENTATION_REPRESENTATION (  '', ( #164 ), #181 ) ;
#174 = MECHANICAL_DESIGN_GEOMETRIC_PRESENTATION_REPRESENTATION (  '', ( #60 ), #226 ) ;
#175 = FILL_AREA_STYLE_COLOUR ( '', #147 ) ;
#176 = CARTESIAN_POINT ( 'NONE',  ( 1.925929944387235853E-31, 40.00000000000000000, 0.000000000000000000 ) ) ;
#177 =( NAMED_UNIT ( * ) SI_UNIT ( $, .STERADIAN. ) SOLID_ANGLE_UNIT ( ) );
#178 =( NAMED_UNIT ( * ) SI_UNIT ( $, .STERADIAN. ) SOLID_ANGLE_UNIT ( ) );
#179 = ORIENTED_EDGE ( 'NONE', *, *, #139, .F. ) ;
#180 = SURFACE_SIDE_STYLE ('',( #227 ) ) ;
#181 =( GEOMETRIC_REPRESENTATION_CONTEXT ( 3 ) GLOBAL_UNCERTAINTY_ASSIGNED_CONTEXT ( ( #131 ) ) GLOBAL_UNIT_ASSIGNED_CONTEXT ( ( #31, #9, #94 ) ) REPRESENTATION_CONTEXT ( 'NONE', 'WORKASPACE' ) );
#182 =( GEOMETRIC_REPRESENTATION_CONTEXT ( 3 ) GLOBAL_UNCERTAINTY_ASSIGNED_CONTEXT ( ( #18 ) ) GLOBAL_UNIT_ASSIGNED_CONTEXT ( ( #29, #248, #177 ) ) REPRESENTATION_CONTEXT ( 'NONE', 'WORKASPACE' ) );
#183 = EDGE_LOOP ( 'NONE', ( #179, #15, #5, #205 ) ) ;
#184 = DIRECTION ( 'NONE',  ( -1.000000000000000000, 0.000000000000000000, 0.000000000000000000 ) ) ;
#185 = VERTEX_POINT ( 'NONE', #87 ) ;
#186 = CLOSED_SHELL ( 'NONE', ( #78, #112, #127, #167 ) ) ;
#187 = PRODUCT_DEFINITION_FORMATION_WITH_SPECIFIED_SOURCE ( 'ANY', '', #81, .NOT_KNOWN. ) ;
#188 = ORIENTED_EDGE ( 'NONE', *, *, #196, .T. ) ;
#189 = FACE_OUTER_BOUND ( 'NONE', #183, .T. ) ;
#190 = EDGE_CURVE ( 'NONE', #138, #276, #240, .T. ) ;
#191 = PLANE ( 'NONE',  #165 ) ;
#192 = STYLED_ITEM ( 'NONE', ( #236 ), #33 ) ;
#193 = SHAPE_DEFINITION_REPRESENTATION ( #93, #199 ) ;
#194 = DIRECTION ( 'NONE',  ( -3.498990854706722745E-17, 1.000000000000000000, -0.000000000000000000 ) ) ;
#195 = CARTESIAN_POINT ( 'NONE',  ( 9.797174393178825657E-16, 0.000000000000000000, 8.000000000000000000 ) ) ;
#196 = EDGE_CURVE ( 'NONE', #10, #268, #264, .T. ) ;
#197 = AXIS2_PLACEMENT_3D ( 'NONE', #107, #85, #62 ) ;
#198 = CARTESIAN_POINT ( 'NONE',  ( 8.000000000000000000, 89.00000000000000000, 0.000000000000000000 ) ) ;
#199 = ADVANCED_BREP_SHAPE_REPRESENTATION ( '59560', ( #33, #216, #91 ), #200 ) ;
#200 =( GEOMETRIC_REPRESENTATION_CONTEXT ( 3 ) GLOBAL_UNCERTAINTY_ASSIGNED_CONTEXT ( ( #39 ) ) GLOBAL_UNIT_ASSIGNED_CONTEXT ( ( #28, #111, #178 ) ) REPRESENTATION_CONTEXT ( 'NONE', 'WORKASPACE' ) );
#201 = CARTESIAN_POINT ( 'NONE',  ( 0.000000000000000000, 40.00000000000000000, 0.000000000000000000 ) ) ;
#202 = PRESENTATION_LAYER_ASSIGNMENT (  '', '', ( #45 ) ) ;
#203 = EDGE_LOOP ( 'NONE', ( #55, #140 ) ) ;
#204 = ORIENTED_EDGE ( 'NONE', *, *, #190, .T. ) ;
#205 = ORIENTED_EDGE ( 'NONE', *, *, #190, .F. ) ;
#206 = ORIENTED_EDGE ( 'NONE', *, *, #135, .F. ) ;
#207 = COLOUR_RGB ( '',1.000000000000000000, 0.000000000000000000, 0.000000000000000000 ) ;
#208 = CIRCLE ( 'NONE', #97, 8.000000000000000000 ) ;
#209 = CYLINDRICAL_SURFACE ( 'NONE', #151, 8.000000000000000000 ) ;
#210 = EDGE_CURVE ( 'NONE', #185, #159, #279, .T. ) ;
#211 = DIRECTION ( 'NONE',  ( -1.000000000000000000, 0.000000000000000000, 0.000000000000000000 ) ) ;
#212 =( GEOMETRIC_REPRESENTATION_CONTEXT ( 3 ) GLOBAL_UNCERTAINTY_ASSIGNED_CONTEXT ( ( #260 ) ) GLOBAL_UNIT_ASSIGNED_CONTEXT ( ( #262, #142, #220 ) ) REPRESENTATION_CONTEXT ( 'NONE', 'WORKASPACE' ) );
#213 = PLANE ( 'NONE',  #286 ) ;
#214 = STYLED_ITEM ( 'NONE', ( #155 ), #245 ) ;
#215 = UNCERTAINTY_MEASURE_WITH_UNIT (LENGTH_MEASURE( 1.000000000000000082E-05 ), #169, 'distance_accuracy_value', 'NONE');
#216 = MANIFOLD_SOLID_BREP ( 'Revolve - Tool Body (Straight Shanked)', #186 ) ;
#217 = DIRECTION ( 'NONE',  ( -1.000000000000000000, -3.498990854706722745E-17, 0.000000000000000000 ) ) ;
#218 = CARTESIAN_POINT ( 'NONE',  ( 0.000000000000000000, 0.000000000000000000, -8.000000000000000000 ) ) ;
#219 = FILL_AREA_STYLE ('',( #172 ) ) ;
#220 =( NAMED_UNIT ( * ) SI_UNIT ( $, .STERADIAN. ) SOLID_ANGLE_UNIT ( ) );
#221 = VECTOR ( 'NONE', #256, 1000.000000000000000 ) ;
#222 =( NAMED_UNIT ( * ) SI_UNIT ( $, .STERADIAN. ) SOLID_ANGLE_UNIT ( ) );
#223 = EDGE_CURVE ( 'NONE', #96, #276, #25, .T. ) ;
#224 = PRESENTATION_STYLE_ASSIGNMENT (( #46 ) ) ;
#225 = CLOSED_SHELL ( 'NONE', ( #12, #287, #80, #245 ) ) ;
#226 =( GEOMETRIC_REPRESENTATION_CONTEXT ( 3 ) GLOBAL_UNCERTAINTY_ASSIGNED_CONTEXT ( ( #144 ) ) GLOBAL_UNIT_ASSIGNED_CONTEXT ( ( #265, #283, #99 ) ) REPRESENTATION_CONTEXT ( 'NONE', 'WORKASPACE' ) );
#227 = SURFACE_STYLE_FILL_AREA ( #73 ) ;
#228 = APPLICATION_CONTEXT ( 'automotive_design' ) ;
#229 = CARTESIAN_POINT ( 'NONE',  ( 0.000000000000000000, 0.000000000000000000, 0.000000000000000000 ) ) ;
#230 = AXIS2_PLACEMENT_3D ( 'NONE', #201, #70, #271 ) ;
#231 = CARTESIAN_POINT ( 'NONE',  ( -1.714505518806293849E-15, 89.00000000000000000, 0.000000000000000000 ) ) ;
#232 = EDGE_LOOP ( 'NONE', ( #68, #188 ) ) ;
#233 = ORIENTED_EDGE ( 'NONE', *, *, #129, .F. ) ;
#234 = EDGE_CURVE ( 'NONE', #159, #185, #71, .T. ) ;
#235 = COLOUR_RGB ( '',0.7921568627450980005, 0.8196078431372548767, 0.9333333333333333481 ) ;
#236 = PRESENTATION_STYLE_ASSIGNMENT (( #106 ) ) ;
#237 =( NAMED_UNIT ( * ) SI_UNIT ( $, .STERADIAN. ) SOLID_ANGLE_UNIT ( ) );
#238 = APPLICATION_PROTOCOL_DEFINITION ( 'draft international standard', 'automotive_design', 1998, #244 ) ;
#239 = PLANE ( 'NONE',  #160 ) ;
#240 = CIRCLE ( 'NONE', #8, 8.000000000000001776 ) ;
#241 = DIRECTION ( 'NONE',  ( -3.498990854706722745E-17, 1.000000000000000000, -0.000000000000000000 ) ) ;
#242 = DIRECTION ( 'NONE',  ( -3.498990854706722745E-17, 1.000000000000000000, -0.000000000000000000 ) ) ;
#243 = LINE ( 'NONE', #284, #20 ) ;
#244 = APPLICATION_CONTEXT ( 'automotive_design' ) ;
#245 = ADVANCED_FACE ( 'NONE', ( #146 ), #239, .T. ) ;
#246 = CARTESIAN_POINT ( 'NONE',  ( -1.714505518806293849E-15, 89.00000000000000000, 0.000000000000000000 ) ) ;
#247 = MECHANICAL_DESIGN_GEOMETRIC_PRESENTATION_REPRESENTATION (  '', ( #45 ), #65 ) ;
#248 =( NAMED_UNIT ( * ) PLANE_ANGLE_UNIT ( ) SI_UNIT ( $, .RADIAN. ) );
#249 = EDGE_LOOP ( 'NONE', ( #119, #206 ) ) ;
#250 = STYLED_ITEM ( 'NONE', ( #150 ), #216 ) ;
#251 = SURFACE_STYLE_USAGE ( .BOTH. , #161 ) ;
#252 = DIRECTION ( 'NONE',  ( -0.000000000000000000, -1.000000000000000000, -0.000000000000000000 ) ) ;
#253 = SURFACE_STYLE_FILL_AREA ( #156 ) ;
#254 = PRESENTATION_STYLE_ASSIGNMENT (( #251 ) ) ;
#255 = ORIENTED_EDGE ( 'NONE', *, *, #50, .F. ) ;
#256 = DIRECTION ( 'NONE',  ( -0.000000000000000000, -1.000000000000000000, -0.000000000000000000 ) ) ;
#257 = COLOUR_RGB ( '',1.000000000000000000, 0.000000000000000000, 0.000000000000000000 ) ;
#258 = DIRECTION ( 'NONE',  ( -3.498990854706722745E-17, 1.000000000000000000, 0.000000000000000000 ) ) ;
#259 = SURFACE_STYLE_FILL_AREA ( #219 ) ;
#260 = UNCERTAINTY_MEASURE_WITH_UNIT (LENGTH_MEASURE( 1.000000000000000082E-05 ), #262, 'distance_accuracy_value', 'NONE');
#261 = DIRECTION ( 'NONE',  ( -0.000000000000000000, -1.000000000000000000, -0.000000000000000000 ) ) ;
#262 =( LENGTH_UNIT ( ) NAMED_UNIT ( * ) SI_UNIT ( .MILLI., .METRE. ) );
#263 = CIRCLE ( 'NONE', #75, 8.000000000000001776 ) ;
#264 = CIRCLE ( 'NONE', #133, 8.000000000000000000 ) ;
#265 =( LENGTH_UNIT ( ) NAMED_UNIT ( * ) SI_UNIT ( .MILLI., .METRE. ) );
#266 = DIRECTION ( 'NONE',  ( 0.000000000000000000, 0.000000000000000000, -1.000000000000000000 ) ) ;
#267 = PLANE ( 'NONE',  #230 ) ;
#268 = VERTEX_POINT ( 'NONE', #134 ) ;
#269 = FILL_AREA_STYLE_COLOUR ( '', #257 ) ;
#270 = DIRECTION ( 'NONE',  ( -1.000000000000000000, 0.000000000000000000, 0.000000000000000000 ) ) ;
#271 = DIRECTION ( 'NONE',  ( 0.000000000000000000, -0.000000000000000000, 1.000000000000000000 ) ) ;
#272 = EDGE_CURVE ( 'NONE', #96, #118, #92, .T. ) ;
#273 = ORIENTED_EDGE ( 'NONE', *, *, #129, .T. ) ;
#274 = PRESENTATION_LAYER_ASSIGNMENT (  '', '', ( #60 ) ) ;
#275 = DIRECTION ( 'NONE',  ( -3.498990854706722745E-17, 1.000000000000000000, -0.000000000000000000 ) ) ;
#276 = VERTEX_POINT ( 'NONE', #110 ) ;
#277 = DIRECTION ( 'NONE',  ( 0.000000000000000000, 0.000000000000000000, -1.000000000000000000 ) ) ;
#278 = COLOUR_RGB ( '',0.7921568627450980005, 0.8196078431372548767, 0.9333333333333333481 ) ;
#279 = CIRCLE ( 'NONE', #197, 8.000000000000000000 ) ;
#280 = DIRECTION ( 'NONE',  ( -3.498990854706722745E-17, 1.000000000000000000, -0.000000000000000000 ) ) ;
#281 = CARTESIAN_POINT ( 'NONE',  ( -8.000000000000001776, 89.00000000000000000, 0.000000000000000000 ) ) ;
#282 = UNCERTAINTY_MEASURE_WITH_UNIT (LENGTH_MEASURE( 1.000000000000000082E-05 ), #157, 'distance_accuracy_value', 'NONE');
#283 =( NAMED_UNIT ( * ) PLANE_ANGLE_UNIT ( ) SI_UNIT ( $, .RADIAN. ) );
#284 = CARTESIAN_POINT ( 'NONE',  ( 7.999999999999998224, 89.00000000000000000, 9.797174393178825657E-16 ) ) ;
#285 = FILL_AREA_STYLE ('',( #175 ) ) ;
#286 = AXIS2_PLACEMENT_3D ( 'NONE', #198, #100, #24 ) ;
#287 = ADVANCED_FACE ( 'NONE', ( #1 ), #267, .T. ) ;
#288 = DIRECTION ( 'NONE',  ( -0.000000000000000000, -1.000000000000000000, -0.000000000000000000 ) ) ;
ENDSEC;
END-ISO-10303-21;
