ISO-10303-21;
HEADER;
FILE_DESCRIPTION (( 'STEP AP214' ),
    '1' );
FILE_NAME ('Micro_SBM-625-2.STEP',
    '2021-09-02T17:03:06',
    ( '' ),
    ( '' ),
    'SwSTEP 2.0',
    'SolidWorks 2020',
    '' );
FILE_SCHEMA (( 'AUTOMOTIVE_DESIGN' ));
ENDSEC;

DATA;
#1 = DIRECTION ( 'NONE',  ( -1.000000000000000000, 0.0000000000000000000, 0.0000000000000000000 ) ) ;
#2 = CYLINDRICAL_SURFACE ( 'NONE', #65, 0.2499999999999998890 ) ;
#3 = AXIS2_PLACEMENT_3D ( 'NONE', #209, #178, #283 ) ;
#4 = AXIS2_PLACEMENT_3D ( 'NONE', #237, #94, #337 ) ;
#5 = DIRECTION ( 'NONE',  ( 0.0000000000000000000, 0.0000000000000000000, 1.000000000000000000 ) ) ;
#6 = DIRECTION ( 'NONE',  ( -1.000000000000000000, 0.0000000000000000000, 0.0000000000000000000 ) ) ;
#7 = DIRECTION ( 'NONE',  ( 0.0000000000000000000, 0.0000000000000000000, 1.000000000000000000 ) ) ;
#8 = AXIS2_PLACEMENT_3D ( 'NONE', #61, #278, #29 ) ;
#9 = DIRECTION ( 'NONE',  ( 1.000000000000000000, 0.0000000000000000000, 0.0000000000000000000 ) ) ;
#10 =( CONVERSION_BASED_UNIT ( 'INCH', #130 ) LENGTH_UNIT ( ) NAMED_UNIT ( #99 ) );
#11 = DIRECTION ( 'NONE',  ( -1.000000000000000000, 0.0000000000000000000, 0.0000000000000000000 ) ) ;
#12 =( LENGTH_UNIT ( ) NAMED_UNIT ( * ) SI_UNIT ( $, .METRE. ) );
#13 = PRESENTATION_LAYER_ASSIGNMENT (  '', '', ( #243 ) ) ;
#14 = PRODUCT_DEFINITION_FORMATION_WITH_SPECIFIED_SOURCE ( 'ANY', '', #40, .NOT_KNOWN. ) ;
#15 = LENGTH_MEASURE_WITH_UNIT ( LENGTH_MEASURE( 0.02539999999999999897 ), #141 );
#16 = EDGE_LOOP ( 'NONE', ( #113, #18, #186, #307 ) ) ;
#17 = ADVANCED_FACE ( 'NONE', ( #84 ), #298, .T. ) ;
#18 = ORIENTED_EDGE ( 'NONE', *, *, #140, .T. ) ;
#19 = FILL_AREA_STYLE_COLOUR ( '', #87 ) ;
#20 = ORIENTED_EDGE ( 'NONE', *, *, #108, .T. ) ;
#21 = CIRCLE ( 'NONE', #290, 0.2499999999999998890 ) ;
#22 = FILL_AREA_STYLE ('',( #19 ) ) ;
#23 = ORIENTED_EDGE ( 'NONE', *, *, #203, .F. ) ;
#24 = EDGE_CURVE ( 'NONE', #311, #238, #190, .T. ) ;
#25 = ORIENTED_EDGE ( 'NONE', *, *, #116, .F. ) ;
#26 = CLOSED_SHELL ( 'NONE', ( #232, #323, #56, #256, #275, #17, #250, #59, #114, #71, #68 ) ) ;
#27 = DIRECTION ( 'NONE',  ( -1.224646799147353207E-16, 1.000000000000000000, 0.0000000000000000000 ) ) ;
#28 = DIRECTION ( 'NONE',  ( -0.0000000000000000000, -0.0000000000000000000, -1.000000000000000000 ) ) ;
#29 = DIRECTION ( 'NONE',  ( 1.000000000000000000, 0.0000000000000000000, 0.0000000000000000000 ) ) ;
#30 = DIRECTION ( 'NONE',  ( 0.0000000000000000000, 0.0000000000000000000, -1.000000000000000000 ) ) ;
#31 = AXIS2_PLACEMENT_3D ( 'NONE', #128, #157, #11 ) ;
#32 = CONICAL_SURFACE ( 'NONE', #93, 0.3437499999999997224, 0.08904958263449799793 ) ;
#33 = UNCERTAINTY_MEASURE_WITH_UNIT (LENGTH_MEASURE( 1.000000000000000082E-05 ), #247, 'distance_accuracy_value', 'NONE');
#34 = DIRECTION ( 'NONE',  ( -0.0000000000000000000, -0.0000000000000000000, -1.000000000000000000 ) ) ;
#35 = EDGE_CURVE ( 'NONE', #248, #322, #129, .T. ) ;
#36 = CIRCLE ( 'NONE', #173, 0.3125000000000000000 ) ;
#37 = CARTESIAN_POINT ( 'NONE',  ( 0.3125000000000000000, 0.0000000000000000000, 1.699999999999999956 ) ) ;
#38 = AXIS2_PLACEMENT_3D ( 'NONE', #115, #251, #324 ) ;
#39 = DIRECTION ( 'NONE',  ( -0.0000000000000000000, -0.0000000000000000000, -1.000000000000000000 ) ) ;
#40 = PRODUCT ( 'Micro_SBM-625-2', 'Micro_SBM-625-2', '', ( #148 ) ) ;
#41 = APPLICATION_CONTEXT ( 'automotive_design' ) ;
#42 = CARTESIAN_POINT ( 'NONE',  ( 0.0000000000000000000, 0.0000000000000000000, 3.984999999999999876 ) ) ;
#43 = PRESENTATION_STYLE_ASSIGNMENT (( #163 ) ) ;
#44 = AXIS2_PLACEMENT_3D ( 'NONE', #179, #205, #234 ) ;
#45 = EDGE_CURVE ( 'NONE', #238, #317, #36, .T. ) ;
#46 = DIMENSIONAL_EXPONENTS ( 1.000000000000000000, 0.0000000000000000000, 0.0000000000000000000, 0.0000000000000000000, 0.0000000000000000000, 0.0000000000000000000, 0.0000000000000000000 ) ;
#47 = ORIENTED_EDGE ( 'NONE', *, *, #223, .F. ) ;
#48 = DIRECTION ( 'NONE',  ( -1.000000000000000000, 0.0000000000000000000, 0.0000000000000000000 ) ) ;
#49 = CARTESIAN_POINT ( 'NONE',  ( 0.0000000000000000000, 0.0000000000000000000, 1.000000000000000000 ) ) ;
#50 = AXIS2_PLACEMENT_3D ( 'NONE', #196, #77, #293 ) ;
#51 = DIRECTION ( 'NONE',  ( 1.000000000000000000, 0.0000000000000000000, 0.0000000000000000000 ) ) ;
#52 = ORIENTED_EDGE ( 'NONE', *, *, #223, .T. ) ;
#53 = CIRCLE ( 'NONE', #8, 0.3125000000000000000 ) ;
#54 = VECTOR ( 'NONE', #318, 39.37007874015748143 ) ;
#55 = ORIENTED_EDGE ( 'NONE', *, *, #103, .T. ) ;
#56 = ADVANCED_FACE ( 'NONE', ( #154 ), #2, .T. ) ;
#57 = DIRECTION ( 'NONE',  ( -0.0000000000000000000, -0.0000000000000000000, -1.000000000000000000 ) ) ;
#58 = DIRECTION ( 'NONE',  ( -1.000000000000000000, 0.0000000000000000000, 0.0000000000000000000 ) ) ;
#59 = ADVANCED_FACE ( 'NONE', ( #150 ), #200, .T. ) ;
#60 = AXIS2_PLACEMENT_3D ( 'NONE', #327, #169, #249 ) ;
#61 = CARTESIAN_POINT ( 'NONE',  ( 0.0000000000000000000, 0.0000000000000000000, 3.984999999999999876 ) ) ;
#62 = CARTESIAN_POINT ( 'NONE',  ( 0.0000000000000000000, 0.0000000000000000000, 0.0000000000000000000 ) ) ;
#63 = AXIS2_PLACEMENT_3D ( 'NONE', #49, #28, #171 ) ;
#64 = CARTESIAN_POINT ( 'NONE',  ( 0.0000000000000000000, 0.0000000000000000000, 4.000000000000000000 ) ) ;
#65 = AXIS2_PLACEMENT_3D ( 'NONE', #62, #279, #119 ) ;
#66 = VECTOR ( 'NONE', #124, 39.37007874015748854 ) ;
#67 = EDGE_CURVE ( 'NONE', #238, #195, #242, .T. ) ;
#68 = ADVANCED_FACE ( 'NONE', ( #274 ), #156, .T. ) ;
#69 = VECTOR ( 'NONE', #70, 39.37007874015748143 ) ;
#70 = DIRECTION ( 'NONE',  ( -0.7071067811865475727, 0.0000000000000000000, -0.7071067811865474617 ) ) ;
#71 = ADVANCED_FACE ( 'NONE', ( #117 ), #91, .T. ) ;
#72 = SURFACE_STYLE_USAGE ( .BOTH. , #330 ) ;
#73 = LINE ( 'NONE', #80, #170 ) ;
#74 = AXIS2_PLACEMENT_3D ( 'NONE', #230, #229, #332 ) ;
#75 = VERTEX_POINT ( 'NONE', #254 ) ;
#76 = APPLICATION_PROTOCOL_DEFINITION ( 'draft international standard', 'automotive_design', 1998, #41 ) ;
#77 = DIRECTION ( 'NONE',  ( -0.0000000000000000000, -0.0000000000000000000, -1.000000000000000000 ) ) ;
#78 = ORIENTED_EDGE ( 'NONE', *, *, #266, .T. ) ;
#79 = EDGE_CURVE ( 'NONE', #162, #291, #120, .T. ) ;
#80 = CARTESIAN_POINT ( 'NONE',  ( -0.3125000000000000000, 0.0000000000000000000, 4.000000000000000000 ) ) ;
#81 = ORIENTED_EDGE ( 'NONE', *, *, #218, .F. ) ;
#82 = CIRCLE ( 'NONE', #74, 0.3125000000000000000 ) ;
#83 = ADVANCED_BREP_SHAPE_REPRESENTATION ( 'Micro_SBM-625-2', ( #183, #176 ), #321 ) ;
#84 = FACE_OUTER_BOUND ( 'NONE', #313, .T. ) ;
#85 = CARTESIAN_POINT ( 'NONE',  ( 0.2499999999999998890, 3.061616997868381785E-17, 0.0000000000000000000 ) ) ;
#86 = LINE ( 'NONE', #255, #66 ) ;
#87 = COLOUR_RGB ( '',0.7921568627450980005, 0.8196078431372548767, 0.9333333333333333481 ) ;
#88 = DIRECTION ( 'NONE',  ( -0.0000000000000000000, -0.0000000000000000000, -1.000000000000000000 ) ) ;
#89 = DIRECTION ( 'NONE',  ( 1.000000000000000000, 1.224646799147353207E-16, -0.0000000000000000000 ) ) ;
#90 = EDGE_CURVE ( 'NONE', #195, #146, #329, .T. ) ;
#91 = PLANE ( 'NONE',  #276 ) ;
#92 = CIRCLE ( 'NONE', #335, 0.2499999999999998890 ) ;
#93 = AXIS2_PLACEMENT_3D ( 'NONE', #127, #97, #125 ) ;
#94 = DIRECTION ( 'NONE',  ( 1.000000000000000000, 0.0000000000000000000, 0.0000000000000000000 ) ) ;
#95 = CARTESIAN_POINT ( 'NONE',  ( -0.2499999999999998890, 0.0000000000000000000, 0.0000000000000000000 ) ) ;
#96 = EDGE_CURVE ( 'NONE', #322, #248, #92, .T. ) ;
#97 = DIRECTION ( 'NONE',  ( 0.0000000000000000000, 0.0000000000000000000, 1.000000000000000000 ) ) ;
#98 = EDGE_LOOP ( 'NONE', ( #295, #191, #188, #338 ) ) ;
#99 = DIMENSIONAL_EXPONENTS ( 1.000000000000000000, 0.0000000000000000000, 0.0000000000000000000, 0.0000000000000000000, 0.0000000000000000000, 0.0000000000000000000, 0.0000000000000000000 ) ;
#100 = PRESENTATION_STYLE_ASSIGNMENT (( #72 ) ) ;
#101 = ORIENTED_EDGE ( 'NONE', *, *, #103, .F. ) ;
#102 = CARTESIAN_POINT ( 'NONE',  ( 0.2499999999999998890, 0.0000000000000000000, 1.000000000000000000 ) ) ;
#103 = EDGE_CURVE ( 'NONE', #146, #317, #126, .T. ) ;
#104 = CARTESIAN_POINT ( 'NONE',  ( 0.0000000000000000000, 0.0000000000000000000, 4.000000000000000000 ) ) ;
#105 = CARTESIAN_POINT ( 'NONE',  ( 0.0000000000000000000, 0.0000000000000000000, 0.3125000000000000000 ) ) ;
#106 = ORIENTED_EDGE ( 'NONE', *, *, #218, .T. ) ;
#107 =( CONVERSION_BASED_UNIT ( 'INCH', #289 ) LENGTH_UNIT ( ) NAMED_UNIT ( #177 ) );
#108 = EDGE_CURVE ( 'NONE', #181, #244, #300, .T. ) ;
#109 = VERTEX_POINT ( 'NONE', #227 ) ;
#110 = SURFACE_STYLE_FILL_AREA ( #22 ) ;
#111 = ORIENTED_EDGE ( 'NONE', *, *, #24, .T. ) ;
#112 = APPLICATION_PROTOCOL_DEFINITION ( 'draft international standard', 'automotive_design', 1998, #225 ) ;
#113 = ORIENTED_EDGE ( 'NONE', *, *, #96, .F. ) ;
#114 = ADVANCED_FACE ( 'NONE', ( #301 ), #172, .T. ) ;
#115 = CARTESIAN_POINT ( 'NONE',  ( 0.0000000000000000000, 0.0000000000000000000, 0.3125000000000000000 ) ) ;
#116 = EDGE_CURVE ( 'NONE', #248, #311, #202, .T. ) ;
#117 = FACE_OUTER_BOUND ( 'NONE', #309, .T. ) ;
#118 = UNCERTAINTY_MEASURE_WITH_UNIT (LENGTH_MEASURE( 1.000000000000000082E-05 ), #107, 'distance_accuracy_value', 'NONE');
#119 = DIRECTION ( 'NONE',  ( -1.000000000000000000, 0.0000000000000000000, 0.0000000000000000000 ) ) ;
#120 = CIRCLE ( 'NONE', #296, 0.2974999999999997646 ) ;
#121 = MECHANICAL_DESIGN_GEOMETRIC_PRESENTATION_REPRESENTATION (  '', ( #133 ), #194 ) ;
#122 = DIRECTION ( 'NONE',  ( -1.000000000000000000, 0.0000000000000000000, 0.0000000000000000000 ) ) ;
#123 = EDGE_CURVE ( 'NONE', #248, #244, #86, .T. ) ;
#124 = DIRECTION ( 'NONE',  ( 0.08893193797450570093, 0.0000000000000000000, 0.9960377053144617854 ) ) ;
#125 = DIRECTION ( 'NONE',  ( 1.000000000000000000, 0.0000000000000000000, 0.0000000000000000000 ) ) ;
#126 = CIRCLE ( 'NONE', #38, 0.3125000000000000000 ) ;
#127 = CARTESIAN_POINT ( 'NONE',  ( 0.0000000000000000000, 0.0000000000000000000, 2.049999999999995826 ) ) ;
#128 = CARTESIAN_POINT ( 'NONE',  ( 0.0000000000000000000, 0.0000000000000000000, 4.000000000000000000 ) ) ;
#129 = CIRCLE ( 'NONE', #63, 0.2499999999999998890 ) ;
#130 = LENGTH_MEASURE_WITH_UNIT ( LENGTH_MEASURE( 0.02539999999999999897 ), #12 );
#131 = AXIS2_PLACEMENT_3D ( 'NONE', #222, #88, #58 ) ;
#132 = VECTOR ( 'NONE', #325, 39.37007874015748143 ) ;
#133 = STYLED_ITEM ( 'NONE', ( #43 ), #83 ) ;
#134 = SPHERICAL_SURFACE ( 'NONE', #4, 0.3125000000000000000 ) ;
#135 = DIRECTION ( 'NONE',  ( -0.0000000000000000000, -0.0000000000000000000, -1.000000000000000000 ) ) ;
#136 = ORIENTED_EDGE ( 'NONE', *, *, #140, .F. ) ;
#137 = PRODUCT_DEFINITION ( 'UNKNOWN', '', #14, #302 ) ;
#138 = DIRECTION ( 'NONE',  ( 0.0000000000000000000, 0.0000000000000000000, 1.000000000000000000 ) ) ;
#139 = ORIENTED_EDGE ( 'NONE', *, *, #203, .T. ) ;
#140 = EDGE_CURVE ( 'NONE', #322, #109, #198, .T. ) ;
#141 =( LENGTH_UNIT ( ) NAMED_UNIT ( * ) SI_UNIT ( $, .METRE. ) );
#142 = AXIS2_PLACEMENT_3D ( 'NONE', #328, #34, #168 ) ;
#143 = ORIENTED_EDGE ( 'NONE', *, *, #159, .T. ) ;
#144 = UNCERTAINTY_MEASURE_WITH_UNIT (LENGTH_MEASURE( 1.000000000000000082E-05 ), #10, 'distance_accuracy_value', 'NONE');
#145 = LINE ( 'NONE', #212, #54 ) ;
#146 = VERTEX_POINT ( 'NONE', #299 ) ;
#147 = EDGE_LOOP ( 'NONE', ( #287, #340, #235, #262, #217 ) ) ;
#148 = PRODUCT_CONTEXT ( 'NONE', #41, 'mechanical' ) ;
#149 = DIRECTION ( 'NONE',  ( 0.0000000000000000000, 0.0000000000000000000, 1.000000000000000000 ) ) ;
#150 = FACE_OUTER_BOUND ( 'NONE', #215, .T. ) ;
#151 = CARTESIAN_POINT ( 'NONE',  ( 0.2974999999999997646, 3.735172737399425174E-17, 4.000000000000000000 ) ) ;
#152 = DIRECTION ( 'NONE',  ( 1.000000000000000000, 0.0000000000000000000, -0.0000000000000000000 ) ) ;
#153 = AXIS2_PLACEMENT_3D ( 'NONE', #104, #271, #240 ) ;
#154 = FACE_OUTER_BOUND ( 'NONE', #147, .T. ) ;
#155 = SURFACE_STYLE_FILL_AREA ( #258 ) ;
#156 = CONICAL_SURFACE ( 'NONE', #304, 0.2974999999999997646, 0.7853981633974482790 ) ;
#157 = DIRECTION ( 'NONE',  ( 0.0000000000000000000, 0.0000000000000000000, -1.000000000000000000 ) ) ;
#158 = FILL_AREA_STYLE_COLOUR ( '', #211 ) ;
#159 = EDGE_CURVE ( 'NONE', #75, #181, #53, .T. ) ;
#160 = CIRCLE ( 'NONE', #253, 0.3125000000000000000 ) ;
#161 = EDGE_LOOP ( 'NONE', ( #297, #106, #207, #52 ) ) ;
#162 = VERTEX_POINT ( 'NONE', #151 ) ;
#163 = SURFACE_STYLE_USAGE ( .BOTH. , #292 ) ;
#164 = ORIENTED_EDGE ( 'NONE', *, *, #123, .T. ) ;
#165 = CARTESIAN_POINT ( 'NONE',  ( 0.2499999999999998890, 3.061616997868381785E-17, 0.5000000000000001110 ) ) ;
#166 = ORIENTED_EDGE ( 'NONE', *, *, #67, .F. ) ;
#167 = EDGE_LOOP ( 'NONE', ( #210, #111, #221, #101 ) ) ;
#168 = DIRECTION ( 'NONE',  ( -1.000000000000000000, 0.0000000000000000000, 0.0000000000000000000 ) ) ;
#169 = DIRECTION ( 'NONE',  ( -0.0000000000000000000, -0.0000000000000000000, -1.000000000000000000 ) ) ;
#170 = VECTOR ( 'NONE', #135, 39.37007874015748143 ) ;
#171 = DIRECTION ( 'NONE',  ( -1.000000000000000000, 0.0000000000000000000, 0.0000000000000000000 ) ) ;
#172 = CYLINDRICAL_SURFACE ( 'NONE', #185, 0.3125000000000000000 ) ;
#173 = AXIS2_PLACEMENT_3D ( 'NONE', #226, #89, #27 ) ;
#174 = DIRECTION ( 'NONE',  ( -0.0000000000000000000, -0.0000000000000000000, -1.000000000000000000 ) ) ;
#175 =( GEOMETRIC_REPRESENTATION_CONTEXT ( 3 ) GLOBAL_UNCERTAINTY_ASSIGNED_CONTEXT ( ( #144 ) ) GLOBAL_UNIT_ASSIGNED_CONTEXT ( ( #10, #180, #305 ) ) REPRESENTATION_CONTEXT ( 'NONE', 'WORKASPACE' ) );
#176 = AXIS2_PLACEMENT_3D ( 'NONE', #214, #138, #51 ) ;
#177 = DIMENSIONAL_EXPONENTS ( 1.000000000000000000, 0.0000000000000000000, 0.0000000000000000000, 0.0000000000000000000, 0.0000000000000000000, 0.0000000000000000000, 0.0000000000000000000 ) ;
#178 = DIRECTION ( 'NONE',  ( 0.0000000000000000000, 0.0000000000000000000, 1.000000000000000000 ) ) ;
#179 = CARTESIAN_POINT ( 'NONE',  ( 0.0000000000000000000, 0.0000000000000000000, 1.699999999999999956 ) ) ;
#180 =( NAMED_UNIT ( * ) PLANE_ANGLE_UNIT ( ) SI_UNIT ( $, .RADIAN. ) );
#181 = VERTEX_POINT ( 'NONE', #252 ) ;
#182 = CARTESIAN_POINT ( 'NONE',  ( 3.061616997868381785E-17, -0.2499999999999999167, 0.5000000000000001110 ) ) ;
#183 = MANIFOLD_SOLID_BREP ( 'Cut-Revolve3', #26 ) ;
#184 = CARTESIAN_POINT ( 'NONE',  ( -0.2974999999999997646, 0.0000000000000000000, 4.000000000000000000 ) ) ;
#185 = AXIS2_PLACEMENT_3D ( 'NONE', #64, #174, #1 ) ;
#186 = ORIENTED_EDGE ( 'NONE', *, *, #270, .F. ) ;
#187 = FACE_OUTER_BOUND ( 'NONE', #213, .T. ) ;
#188 = ORIENTED_EDGE ( 'NONE', *, *, #159, .F. ) ;
#189 =( NAMED_UNIT ( * ) SI_UNIT ( $, .STERADIAN. ) SOLID_ANGLE_UNIT ( ) );
#190 = CIRCLE ( 'NONE', #50, 0.2499999999999998890 ) ;
#191 = ORIENTED_EDGE ( 'NONE', *, *, #310, .T. ) ;
#192 = CYLINDRICAL_SURFACE ( 'NONE', #153, 0.3125000000000000000 ) ;
#193 = CONICAL_SURFACE ( 'NONE', #31, 0.2974999999999997646, 0.7853981633974482790 ) ;
#194 =( GEOMETRIC_REPRESENTATION_CONTEXT ( 3 ) GLOBAL_UNCERTAINTY_ASSIGNED_CONTEXT ( ( #33 ) ) GLOBAL_UNIT_ASSIGNED_CONTEXT ( ( #247, #312, #189 ) ) REPRESENTATION_CONTEXT ( 'NONE', 'WORKASPACE' ) );
#195 = VERTEX_POINT ( 'NONE', #257 ) ;
#196 = CARTESIAN_POINT ( 'NONE',  ( 0.0000000000000000000, 0.0000000000000000000, 0.5000000000000001110 ) ) ;
#197 = DIRECTION ( 'NONE',  ( -0.08893193797450570093, 1.089102131824493708E-17, 0.9960377053144617854 ) ) ;
#198 = LINE ( 'NONE', #228, #320 ) ;
#199 = EDGE_CURVE ( 'NONE', #291, #75, #259, .T. ) ;
#200 = CYLINDRICAL_SURFACE ( 'NONE', #142, 0.2499999999999998890 ) ;
#201 = CARTESIAN_POINT ( 'NONE',  ( 0.0000000000000000000, 0.0000000000000000000, 1.000000000000000000 ) ) ;
#202 = LINE ( 'NONE', #85, #132 ) ;
#203 = EDGE_CURVE ( 'NONE', #291, #162, #263, .T. ) ;
#204 = DIRECTION ( 'NONE',  ( -0.0000000000000000000, -0.0000000000000000000, -1.000000000000000000 ) ) ;
#205 = DIRECTION ( 'NONE',  ( 0.0000000000000000000, 0.0000000000000000000, 1.000000000000000000 ) ) ;
#206 = FACE_OUTER_BOUND ( 'NONE', #167, .T. ) ;
#207 = ORIENTED_EDGE ( 'NONE', *, *, #315, .T. ) ;
#208 = CONICAL_SURFACE ( 'NONE', #314, 0.3437499999999997224, 0.08904958263449799793 ) ;
#209 = CARTESIAN_POINT ( 'NONE',  ( 0.0000000000000000000, 0.0000000000000000000, 4.000000000000000000 ) ) ;
#210 = ORIENTED_EDGE ( 'NONE', *, *, #280, .T. ) ;
#211 = COLOUR_RGB ( '',0.7921568627450980005, 0.8196078431372548767, 0.9333333333333333481 ) ;
#212 = CARTESIAN_POINT ( 'NONE',  ( 0.2974999999999997646, 3.643324227463372038E-17, 4.000000000000000000 ) ) ;
#213 = EDGE_LOOP ( 'NONE', ( #143, #20, #272, #319 ) ) ;
#214 = CARTESIAN_POINT ( 'NONE',  ( 0.0000000000000000000, 0.0000000000000000000, 0.0000000000000000000 ) ) ;
#215 = EDGE_LOOP ( 'NONE', ( #25, #343, #78, #166, #233 ) ) ;
#216 = CARTESIAN_POINT ( 'NONE',  ( -0.2499999999999998890, 3.444319122601930356E-17, 1.000000000000000000 ) ) ;
#217 = ORIENTED_EDGE ( 'NONE', *, *, #266, .F. ) ;
#218 = EDGE_CURVE ( 'NONE', #181, #75, #160, .T. ) ;
#219 = MECHANICAL_DESIGN_GEOMETRIC_PRESENTATION_REPRESENTATION (  '', ( #243 ), #175 ) ;
#220 = SHAPE_DEFINITION_REPRESENTATION ( #333, #83 ) ;
#221 = ORIENTED_EDGE ( 'NONE', *, *, #45, .T. ) ;
#222 = CARTESIAN_POINT ( 'NONE',  ( 0.0000000000000000000, 0.0000000000000000000, 0.5000000000000001110 ) ) ;
#223 = EDGE_CURVE ( 'NONE', #109, #244, #344, .T. ) ;
#224 = CARTESIAN_POINT ( 'NONE',  ( 0.0000000000000000000, 0.0000000000000000000, 4.000000000000000000 ) ) ;
#225 = APPLICATION_CONTEXT ( 'automotive_design' ) ;
#226 = CARTESIAN_POINT ( 'NONE',  ( 0.0000000000000000000, 0.0000000000000000000, 0.3125000000000000000 ) ) ;
#227 = CARTESIAN_POINT ( 'NONE',  ( -0.3125000000000000000, 3.827021247335478926E-17, 1.699999999999999956 ) ) ;
#228 = CARTESIAN_POINT ( 'NONE',  ( -0.3437499999999997224, 4.209723372069023183E-17, 2.049999999999995826 ) ) ;
#229 = DIRECTION ( 'NONE',  ( 0.0000000000000000000, 0.0000000000000000000, 1.000000000000000000 ) ) ;
#230 = CARTESIAN_POINT ( 'NONE',  ( 0.0000000000000000000, 0.0000000000000000000, 1.699999999999999956 ) ) ;
#231 = FACE_OUTER_BOUND ( 'NONE', #16, .T. ) ;
#232 = ADVANCED_FACE ( 'NONE', ( #284 ), #193, .T. ) ;
#233 = ORIENTED_EDGE ( 'NONE', *, *, #24, .F. ) ;
#234 = DIRECTION ( 'NONE',  ( 1.000000000000000000, 0.0000000000000000000, 0.0000000000000000000 ) ) ;
#235 = ORIENTED_EDGE ( 'NONE', *, *, #280, .F. ) ;
#236 = VECTOR ( 'NONE', #39, 39.37007874015748143 ) ;
#237 = CARTESIAN_POINT ( 'NONE',  ( 0.0000000000000000000, 0.0000000000000000000, 0.3125000000000000000 ) ) ;
#238 = VERTEX_POINT ( 'NONE', #182 ) ;
#239 = AXIS2_PLACEMENT_3D ( 'NONE', #105, #339, #316 ) ;
#240 = DIRECTION ( 'NONE',  ( -1.000000000000000000, 0.0000000000000000000, 0.0000000000000000000 ) ) ;
#241 = EDGE_LOOP ( 'NONE', ( #273, #23, #265, #81 ) ) ;
#242 = CIRCLE ( 'NONE', #131, 0.2499999999999998890 ) ;
#243 = STYLED_ITEM ( 'NONE', ( #100 ), #183 ) ;
#244 = VERTEX_POINT ( 'NONE', #37 ) ;
#245 = CARTESIAN_POINT ( 'NONE',  ( 0.0000000000000000000, 1.913510623667739463E-17, 0.0000000000000000000 ) ) ;
#246 = EDGE_LOOP ( 'NONE', ( #136, #260, #164, #47 ) ) ;
#247 =( CONVERSION_BASED_UNIT ( 'INCH', #15 ) LENGTH_UNIT ( ) NAMED_UNIT ( #46 ) );
#248 = VERTEX_POINT ( 'NONE', #102 ) ;
#249 = DIRECTION ( 'NONE',  ( -1.000000000000000000, 0.0000000000000000000, 0.0000000000000000000 ) ) ;
#250 = ADVANCED_FACE ( 'NONE', ( #334 ), #208, .T. ) ;
#251 = DIRECTION ( 'NONE',  ( -1.000000000000000000, 0.0000000000000000000, 0.0000000000000000000 ) ) ;
#252 = CARTESIAN_POINT ( 'NONE',  ( 0.3125000000000000000, 3.827021247335478926E-17, 3.984999999999999876 ) ) ;
#253 = AXIS2_PLACEMENT_3D ( 'NONE', #42, #282, #331 ) ;
#254 = CARTESIAN_POINT ( 'NONE',  ( -0.3125000000000000000, 0.0000000000000000000, 3.984999999999999876 ) ) ;
#255 = CARTESIAN_POINT ( 'NONE',  ( 0.3437499999999997224, 0.0000000000000000000, 2.049999999999995826 ) ) ;
#256 = ADVANCED_FACE ( 'NONE', ( #231 ), #32, .T. ) ;
#257 = CARTESIAN_POINT ( 'NONE',  ( -0.2499999999999998890, 0.0000000000000000000, 0.5000000000000001110 ) ) ;
#258 = FILL_AREA_STYLE ('',( #158 ) ) ;
#259 = LINE ( 'NONE', #184, #69 ) ;
#260 = ORIENTED_EDGE ( 'NONE', *, *, #35, .F. ) ;
#261 = CARTESIAN_POINT ( 'NONE',  ( 0.0000000000000000000, 0.0000000000000000000, 0.5000000000000001110 ) ) ;
#262 = ORIENTED_EDGE ( 'NONE', *, *, #90, .F. ) ;
#263 = CIRCLE ( 'NONE', #3, 0.2974999999999997646 ) ;
#264 =( NAMED_UNIT ( * ) SI_UNIT ( $, .STERADIAN. ) SOLID_ANGLE_UNIT ( ) );
#265 = ORIENTED_EDGE ( 'NONE', *, *, #199, .T. ) ;
#266 = EDGE_CURVE ( 'NONE', #322, #195, #308, .T. ) ;
#267 = PRODUCT_RELATED_PRODUCT_CATEGORY ( 'part', '', ( #40 ) ) ;
#268 = CARTESIAN_POINT ( 'NONE',  ( -0.2974999999999997646, 0.0000000000000000000, 4.000000000000000000 ) ) ;
#269 = ORIENTED_EDGE ( 'NONE', *, *, #79, .T. ) ;
#270 = EDGE_CURVE ( 'NONE', #244, #109, #82, .T. ) ;
#271 = DIRECTION ( 'NONE',  ( -0.0000000000000000000, -0.0000000000000000000, -1.000000000000000000 ) ) ;
#272 = ORIENTED_EDGE ( 'NONE', *, *, #270, .T. ) ;
#273 = ORIENTED_EDGE ( 'NONE', *, *, #310, .F. ) ;
#274 = FACE_OUTER_BOUND ( 'NONE', #241, .T. ) ;
#275 = ADVANCED_FACE ( 'NONE', ( #206 ), #134, .T. ) ;
#276 = AXIS2_PLACEMENT_3D ( 'NONE', #345, #5, #152 ) ;
#277 = DIRECTION ( 'NONE',  ( -0.0000000000000000000, -0.0000000000000000000, -1.000000000000000000 ) ) ;
#278 = DIRECTION ( 'NONE',  ( 0.0000000000000000000, 0.0000000000000000000, -1.000000000000000000 ) ) ;
#279 = DIRECTION ( 'NONE',  ( -0.0000000000000000000, -0.0000000000000000000, -1.000000000000000000 ) ) ;
#280 = EDGE_CURVE ( 'NONE', #146, #311, #21, .T. ) ;
#281 = CARTESIAN_POINT ( 'NONE',  ( 0.3125000000000000000, 3.827021247335478926E-17, 4.000000000000000000 ) ) ;
#282 = DIRECTION ( 'NONE',  ( 0.0000000000000000000, 0.0000000000000000000, -1.000000000000000000 ) ) ;
#283 = DIRECTION ( 'NONE',  ( 1.000000000000000000, 0.0000000000000000000, 0.0000000000000000000 ) ) ;
#284 = FACE_OUTER_BOUND ( 'NONE', #98, .T. ) ;
#285 = PRESENTATION_LAYER_ASSIGNMENT (  '', '', ( #133 ) ) ;
#286 = CARTESIAN_POINT ( 'NONE',  ( 0.0000000000000000000, 0.0000000000000000000, 2.049999999999995826 ) ) ;
#287 = ORIENTED_EDGE ( 'NONE', *, *, #96, .T. ) ;
#288 = ORIENTED_EDGE ( 'NONE', *, *, #90, .T. ) ;
#289 = LENGTH_MEASURE_WITH_UNIT ( LENGTH_MEASURE( 0.02539999999999999897 ), #342 );
#290 = AXIS2_PLACEMENT_3D ( 'NONE', #261, #204, #48 ) ;
#291 = VERTEX_POINT ( 'NONE', #268 ) ;
#292 = SURFACE_SIDE_STYLE ('',( #110 ) ) ;
#293 = DIRECTION ( 'NONE',  ( -1.000000000000000000, 0.0000000000000000000, 0.0000000000000000000 ) ) ;
#294 =( NAMED_UNIT ( * ) PLANE_ANGLE_UNIT ( ) SI_UNIT ( $, .RADIAN. ) );
#295 = ORIENTED_EDGE ( 'NONE', *, *, #79, .F. ) ;
#296 = AXIS2_PLACEMENT_3D ( 'NONE', #224, #149, #303 ) ;
#297 = ORIENTED_EDGE ( 'NONE', *, *, #108, .F. ) ;
#298 = SPHERICAL_SURFACE ( 'NONE', #239, 0.3125000000000000000 ) ;
#299 = CARTESIAN_POINT ( 'NONE',  ( 0.0000000000000000000, 0.2499999999999999167, 0.5000000000000001110 ) ) ;
#300 = LINE ( 'NONE', #281, #306 ) ;
#301 = FACE_OUTER_BOUND ( 'NONE', #161, .T. ) ;
#302 = PRODUCT_DEFINITION_CONTEXT ( 'detailed design', #225, 'design' ) ;
#303 = DIRECTION ( 'NONE',  ( 1.000000000000000000, 0.0000000000000000000, 0.0000000000000000000 ) ) ;
#304 = AXIS2_PLACEMENT_3D ( 'NONE', #326, #30, #6 ) ;
#305 =( NAMED_UNIT ( * ) SI_UNIT ( $, .STERADIAN. ) SOLID_ANGLE_UNIT ( ) );
#306 = VECTOR ( 'NONE', #277, 39.37007874015748143 ) ;
#307 = ORIENTED_EDGE ( 'NONE', *, *, #123, .F. ) ;
#308 = LINE ( 'NONE', #95, #236 ) ;
#309 = EDGE_LOOP ( 'NONE', ( #139, #269 ) ) ;
#310 = EDGE_CURVE ( 'NONE', #162, #181, #145, .T. ) ;
#311 = VERTEX_POINT ( 'NONE', #165 ) ;
#312 =( NAMED_UNIT ( * ) PLANE_ANGLE_UNIT ( ) SI_UNIT ( $, .RADIAN. ) );
#313 = EDGE_LOOP ( 'NONE', ( #336, #341, #288, #55 ) ) ;
#314 = AXIS2_PLACEMENT_3D ( 'NONE', #286, #7, #9 ) ;
#315 = EDGE_CURVE ( 'NONE', #75, #109, #73, .T. ) ;
#316 = DIRECTION ( 'NONE',  ( 0.0000000000000000000, 1.000000000000000000, 0.0000000000000000000 ) ) ;
#317 = VERTEX_POINT ( 'NONE', #245 ) ;
#318 = DIRECTION ( 'NONE',  ( 0.7071067811865475727, 8.659560562354932858E-17, -0.7071067811865474617 ) ) ;
#319 = ORIENTED_EDGE ( 'NONE', *, *, #315, .F. ) ;
#320 = VECTOR ( 'NONE', #197, 39.37007874015748854 ) ;
#321 =( GEOMETRIC_REPRESENTATION_CONTEXT ( 3 ) GLOBAL_UNCERTAINTY_ASSIGNED_CONTEXT ( ( #118 ) ) GLOBAL_UNIT_ASSIGNED_CONTEXT ( ( #107, #294, #264 ) ) REPRESENTATION_CONTEXT ( 'NONE', 'WORKASPACE' ) );
#322 = VERTEX_POINT ( 'NONE', #216 ) ;
#323 = ADVANCED_FACE ( 'NONE', ( #187 ), #192, .T. ) ;
#324 = DIRECTION ( 'NONE',  ( 0.0000000000000000000, 0.0000000000000000000, 1.000000000000000000 ) ) ;
#325 = DIRECTION ( 'NONE',  ( -0.0000000000000000000, -0.0000000000000000000, -1.000000000000000000 ) ) ;
#326 = CARTESIAN_POINT ( 'NONE',  ( 0.0000000000000000000, 0.0000000000000000000, 4.000000000000000000 ) ) ;
#327 = CARTESIAN_POINT ( 'NONE',  ( 0.0000000000000000000, 0.0000000000000000000, 0.5000000000000001110 ) ) ;
#328 = CARTESIAN_POINT ( 'NONE',  ( 0.0000000000000000000, 0.0000000000000000000, 0.0000000000000000000 ) ) ;
#329 = CIRCLE ( 'NONE', #60, 0.2499999999999998890 ) ;
#330 = SURFACE_SIDE_STYLE ('',( #155 ) ) ;
#331 = DIRECTION ( 'NONE',  ( 1.000000000000000000, 0.0000000000000000000, 0.0000000000000000000 ) ) ;
#332 = DIRECTION ( 'NONE',  ( 1.000000000000000000, 0.0000000000000000000, 0.0000000000000000000 ) ) ;
#333 = PRODUCT_DEFINITION_SHAPE ( 'NONE', 'NONE',  #137 ) ;
#334 = FACE_OUTER_BOUND ( 'NONE', #246, .T. ) ;
#335 = AXIS2_PLACEMENT_3D ( 'NONE', #201, #57, #122 ) ;
#336 = ORIENTED_EDGE ( 'NONE', *, *, #45, .F. ) ;
#337 = DIRECTION ( 'NONE',  ( 0.0000000000000000000, 1.000000000000000000, 0.0000000000000000000 ) ) ;
#338 = ORIENTED_EDGE ( 'NONE', *, *, #199, .F. ) ;
#339 = DIRECTION ( 'NONE',  ( 1.000000000000000000, 0.0000000000000000000, 0.0000000000000000000 ) ) ;
#340 = ORIENTED_EDGE ( 'NONE', *, *, #116, .T. ) ;
#341 = ORIENTED_EDGE ( 'NONE', *, *, #67, .T. ) ;
#342 =( LENGTH_UNIT ( ) NAMED_UNIT ( * ) SI_UNIT ( $, .METRE. ) );
#343 = ORIENTED_EDGE ( 'NONE', *, *, #35, .T. ) ;
#344 = CIRCLE ( 'NONE', #44, 0.3125000000000000000 ) ;
#345 = CARTESIAN_POINT ( 'NONE',  ( 0.0000000000000000000, 0.0000000000000000000, 4.000000000000000000 ) ) ;
ENDSEC;
END-ISO-10303-21;
