ISO-10303-21;
HEADER;
FILE_DESCRIPTION (( 'STEP AP214' ),
    '1' );
FILE_NAME ('Micro_RTC-250-260.STEP',
    '2021-09-03T18:13:21',
    ( '' ),
    ( '' ),
    'SwSTEP 2.0',
    'SolidWorks 2020',
    '' );
FILE_SCHEMA (( 'AUTOMOTIVE_DESIGN' ));
ENDSEC;

DATA;
#1 = DIRECTION ( 'NONE',  ( 0.0000000000000000000, 0.0000000000000000000, -1.000000000000000000 ) ) ;
#2 = DIRECTION ( 'NONE',  ( 1.000000000000000000, 0.0000000000000000000, -0.0000000000000000000 ) ) ;
#3 = UNCERTAINTY_MEASURE_WITH_UNIT (LENGTH_MEASURE( 1.000000000000000082E-05 ), #105, 'distance_accuracy_value', 'NONE');
#4 = DIRECTION ( 'NONE',  ( 0.0000000000000000000, 0.0000000000000000000, -1.000000000000000000 ) ) ;
#5 = CARTESIAN_POINT ( 'NONE',  ( -0.02999999999999999889, -9.491012693391986370E-18, 2.500000000000000000 ) ) ;
#6 = ADVANCED_FACE ( 'NONE', ( #73 ), #93, .F. ) ;
#7 = LENGTH_MEASURE_WITH_UNIT ( LENGTH_MEASURE( 0.02539999999999999897 ), #27 );
#8 = ORIENTED_EDGE ( 'NONE', *, *, #129, .T. ) ;
#9 = CARTESIAN_POINT ( 'NONE',  ( -0.02999999999999999889, 3.673940397442059190E-18, 0.0000000000000000000 ) ) ;
#10 = FILL_AREA_STYLE ('',( #33 ) ) ;
#11 = AXIS2_PLACEMENT_3D ( 'NONE', #137, #60, #2 ) ;
#12 =( LENGTH_UNIT ( ) NAMED_UNIT ( * ) SI_UNIT ( $, .METRE. ) );
#13 = DIMENSIONAL_EXPONENTS ( 1.000000000000000000, 0.0000000000000000000, 0.0000000000000000000, 0.0000000000000000000, 0.0000000000000000000, 0.0000000000000000000, 0.0000000000000000000 ) ;
#14 = AXIS2_PLACEMENT_3D ( 'NONE', #112, #114, #152 ) ;
#15 = DIRECTION ( 'NONE',  ( -1.000000000000000000, 0.0000000000000000000, 0.0000000000000000000 ) ) ;
#16 = ORIENTED_EDGE ( 'NONE', *, *, #208, .F. ) ;
#17 = ADVANCED_FACE ( 'NONE', ( #59 ), #228, .T. ) ;
#18 = ORIENTED_EDGE ( 'NONE', *, *, #163, .T. ) ;
#19 = CARTESIAN_POINT ( 'NONE',  ( 0.0000000000000000000, 0.0000000000000000000, 2.500000000000000000 ) ) ;
#20 = CARTESIAN_POINT ( 'NONE',  ( 0.0000000000000000000, 0.0000000000000000000, 2.145455173280958139 ) ) ;
#21 = STYLED_ITEM ( 'NONE', ( #139 ), #179 ) ;
#22 = ORIENTED_EDGE ( 'NONE', *, *, #57, .T. ) ;
#23 = ORIENTED_EDGE ( 'NONE', *, *, #189, .T. ) ;
#24 = FACE_OUTER_BOUND ( 'NONE', #36, .T. ) ;
#25 = CARTESIAN_POINT ( 'NONE',  ( 0.02999999999999999889, 0.0000000000000000000, 2.500000000000000000 ) ) ;
#26 = CARTESIAN_POINT ( 'NONE',  ( 0.02999999999999999889, 0.0000000000000000000, 2.500000000000000000 ) ) ;
#27 =( LENGTH_UNIT ( ) NAMED_UNIT ( * ) SI_UNIT ( $, .METRE. ) );
#28 = ORIENTED_EDGE ( 'NONE', *, *, #110, .F. ) ;
#29 =( NAMED_UNIT ( * ) SI_UNIT ( $, .STERADIAN. ) SOLID_ANGLE_UNIT ( ) );
#30 = LENGTH_MEASURE_WITH_UNIT ( LENGTH_MEASURE( 0.02539999999999999897 ), #12 );
#31 = ORIENTED_EDGE ( 'NONE', *, *, #163, .F. ) ;
#32 = AXIS2_PLACEMENT_3D ( 'NONE', #182, #88, #156 ) ;
#33 = FILL_AREA_STYLE_COLOUR ( '', #248 ) ;
#34 = ORIENTED_EDGE ( 'NONE', *, *, #100, .T. ) ;
#35 = AXIS2_PLACEMENT_3D ( 'NONE', #239, #4, #216 ) ;
#36 = EDGE_LOOP ( 'NONE', ( #245, #23, #113, #68 ) ) ;
#37 = DIRECTION ( 'NONE',  ( 1.000000000000000000, 0.0000000000000000000, 0.0000000000000000000 ) ) ;
#38 = VERTEX_POINT ( 'NONE', #136 ) ;
#39 = AXIS2_PLACEMENT_3D ( 'NONE', #186, #48, #185 ) ;
#40 = ORIENTED_EDGE ( 'NONE', *, *, #200, .F. ) ;
#41 = EDGE_CURVE ( 'NONE', #58, #52, #148, .T. ) ;
#42 = LINE ( 'NONE', #25, #183 ) ;
#43 = SURFACE_STYLE_USAGE ( .BOTH. , #164 ) ;
#44 = AXIS2_PLACEMENT_3D ( 'NONE', #176, #246, #37 ) ;
#45 = ADVANCED_FACE ( 'NONE', ( #89 ), #201, .T. ) ;
#46 = DIRECTION ( 'NONE',  ( 1.000000000000000000, 0.0000000000000000000, 0.0000000000000000000 ) ) ;
#47 = CARTESIAN_POINT ( 'NONE',  ( -0.1250000000000000000, 0.0000000000000000000, 2.500000000000000000 ) ) ;
#48 = DIRECTION ( 'NONE',  ( -0.0000000000000000000, -0.0000000000000000000, -1.000000000000000000 ) ) ;
#49 = CYLINDRICAL_SURFACE ( 'NONE', #83, 0.1250000000000000000 ) ;
#50 = CONICAL_SURFACE ( 'NONE', #133, 0.02999999999999999889, 0.2617993877991502960 ) ;
#51 = SURFACE_STYLE_FILL_AREA ( #10 ) ;
#52 = VERTEX_POINT ( 'NONE', #157 ) ;
#53 = SHAPE_DEFINITION_REPRESENTATION ( #109, #198 ) ;
#54 = VERTEX_POINT ( 'NONE', #72 ) ;
#55 = DIRECTION ( 'NONE',  ( -0.0000000000000000000, -0.0000000000000000000, -1.000000000000000000 ) ) ;
#56 = CARTESIAN_POINT ( 'NONE',  ( 0.0000000000000000000, 0.0000000000000000000, 0.0000000000000000000 ) ) ;
#57 = EDGE_CURVE ( 'NONE', #215, #240, #111, .T. ) ;
#58 = VERTEX_POINT ( 'NONE', #135 ) ;
#59 = FACE_OUTER_BOUND ( 'NONE', #67, .T. ) ;
#60 = DIRECTION ( 'NONE',  ( 0.0000000000000000000, 0.0000000000000000000, 1.000000000000000000 ) ) ;
#61 = DIRECTION ( 'NONE',  ( -0.2588190451025216832, -3.169619151431776035E-17, -0.9659258262890679791 ) ) ;
#62 = CONICAL_SURFACE ( 'NONE', #44, 0.02999999999999999889, 0.2617993877991502960 ) ;
#63 = CARTESIAN_POINT ( 'NONE',  ( -0.1250000000000000000, 0.0000000000000000000, 2.145455173280958139 ) ) ;
#64 = EDGE_CURVE ( 'NONE', #233, #58, #177, .T. ) ;
#65 = LINE ( 'NONE', #47, #86 ) ;
#66 =( CONVERSION_BASED_UNIT ( 'INCH', #7 ) LENGTH_UNIT ( ) NAMED_UNIT ( #13 ) );
#67 = EDGE_LOOP ( 'NONE', ( #194, #34, #196, #28 ) ) ;
#68 = ORIENTED_EDGE ( 'NONE', *, *, #151, .F. ) ;
#69 = DIMENSIONAL_EXPONENTS ( 1.000000000000000000, 0.0000000000000000000, 0.0000000000000000000, 0.0000000000000000000, 0.0000000000000000000, 0.0000000000000000000, 0.0000000000000000000 ) ;
#70 = VECTOR ( 'NONE', #61, 39.37007874015748143 ) ;
#71 = DIRECTION ( 'NONE',  ( -1.000000000000000000, 0.0000000000000000000, 0.0000000000000000000 ) ) ;
#72 = CARTESIAN_POINT ( 'NONE',  ( -0.1250000000000000000, 0.0000000000000000000, 0.3545448267190419167 ) ) ;
#73 = FACE_OUTER_BOUND ( 'NONE', #205, .T. ) ;
#74 = EDGE_LOOP ( 'NONE', ( #225, #16, #98, #172 ) ) ;
#75 = CARTESIAN_POINT ( 'NONE',  ( 0.1250000000000000000, 1.530808498934191509E-17, 2.500000000000000000 ) ) ;
#76 = CARTESIAN_POINT ( 'NONE',  ( 0.02999999999999999889, 0.0000000000000000000, 0.0000000000000000000 ) ) ;
#77 =( NAMED_UNIT ( * ) PLANE_ANGLE_UNIT ( ) SI_UNIT ( $, .RADIAN. ) );
#78 = MECHANICAL_DESIGN_GEOMETRIC_PRESENTATION_REPRESENTATION (  '', ( #21 ), #165 ) ;
#79 = FACE_OUTER_BOUND ( 'NONE', #231, .T. ) ;
#80 = CARTESIAN_POINT ( 'NONE',  ( 0.0000000000000000000, 0.0000000000000000000, 2.500000000000000000 ) ) ;
#81 = DIRECTION ( 'NONE',  ( -0.0000000000000000000, -0.0000000000000000000, -1.000000000000000000 ) ) ;
#82 = APPLICATION_PROTOCOL_DEFINITION ( 'draft international standard', 'automotive_design', 1998, #130 ) ;
#83 = AXIS2_PLACEMENT_3D ( 'NONE', #103, #55, #15 ) ;
#84 = ADVANCED_FACE ( 'NONE', ( #212 ), #62, .T. ) ;
#85 = SURFACE_STYLE_USAGE ( .BOTH. , #125 ) ;
#86 = VECTOR ( 'NONE', #138, 39.37007874015748143 ) ;
#87 =( GEOMETRIC_REPRESENTATION_CONTEXT ( 3 ) GLOBAL_UNCERTAINTY_ASSIGNED_CONTEXT ( ( #96 ) ) GLOBAL_UNIT_ASSIGNED_CONTEXT ( ( #66, #77, #235 ) ) REPRESENTATION_CONTEXT ( 'NONE', 'WORKASPACE' ) );
#88 = DIRECTION ( 'NONE',  ( -0.0000000000000000000, -0.0000000000000000000, -1.000000000000000000 ) ) ;
#89 = FACE_OUTER_BOUND ( 'NONE', #74, .T. ) ;
#90 = DIRECTION ( 'NONE',  ( 0.0000000000000000000, 0.0000000000000000000, -1.000000000000000000 ) ) ;
#91 = VECTOR ( 'NONE', #161, 39.37007874015748143 ) ;
#92 = EDGE_LOOP ( 'NONE', ( #31, #192 ) ) ;
#93 = PLANE ( 'NONE',  #11 ) ;
#94 =( CONVERSION_BASED_UNIT ( 'INCH', #140 ) LENGTH_UNIT ( ) NAMED_UNIT ( #69 ) );
#95 = EDGE_CURVE ( 'NONE', #240, #38, #207, .T. ) ;
#96 = UNCERTAINTY_MEASURE_WITH_UNIT (LENGTH_MEASURE( 1.000000000000000082E-05 ), #66, 'distance_accuracy_value', 'NONE');
#97 = SURFACE_STYLE_FILL_AREA ( #222 ) ;
#98 = ORIENTED_EDGE ( 'NONE', *, *, #41, .T. ) ;
#99 = DIRECTION ( 'NONE',  ( -1.000000000000000000, 0.0000000000000000000, 0.0000000000000000000 ) ) ;
#100 = EDGE_CURVE ( 'NONE', #38, #52, #249, .T. ) ;
#101 = CONICAL_SURFACE ( 'NONE', #224, 0.02999999999999999889, 0.2617993877991502960 ) ;
#102 = AXIS2_PLACEMENT_3D ( 'NONE', #236, #81, #99 ) ;
#103 = CARTESIAN_POINT ( 'NONE',  ( 0.0000000000000000000, 0.0000000000000000000, 2.500000000000000000 ) ) ;
#104 = ORIENTED_EDGE ( 'NONE', *, *, #64, .F. ) ;
#105 =( CONVERSION_BASED_UNIT ( 'INCH', #30 ) LENGTH_UNIT ( ) NAMED_UNIT ( #168 ) );
#106 = ORIENTED_EDGE ( 'NONE', *, *, #41, .F. ) ;
#107 = LINE ( 'NONE', #9, #237 ) ;
#108 = CIRCLE ( 'NONE', #39, 0.02999999999999999889 ) ;
#109 = PRODUCT_DEFINITION_SHAPE ( 'NONE', 'NONE',  #247 ) ;
#110 = EDGE_CURVE ( 'NONE', #240, #54, #65, .T. ) ;
#111 = LINE ( 'NONE', #210, #70 ) ;
#112 = CARTESIAN_POINT ( 'NONE',  ( 0.0000000000000000000, 0.0000000000000000000, 2.500000000000000000 ) ) ;
#113 = ORIENTED_EDGE ( 'NONE', *, *, #110, .T. ) ;
#114 = DIRECTION ( 'NONE',  ( 0.0000000000000000000, 0.0000000000000000000, 1.000000000000000000 ) ) ;
#115 = ADVANCED_FACE ( 'NONE', ( #223 ), #101, .T. ) ;
#116 = CARTESIAN_POINT ( 'NONE',  ( 0.0000000000000000000, 0.0000000000000000000, 0.0000000000000000000 ) ) ;
#117 = ORIENTED_EDGE ( 'NONE', *, *, #189, .F. ) ;
#118 = ORIENTED_EDGE ( 'NONE', *, *, #208, .T. ) ;
#119 = AXIS2_PLACEMENT_3D ( 'NONE', #19, #1, #218 ) ;
#120 = DIRECTION ( 'NONE',  ( 0.0000000000000000000, 0.0000000000000000000, -1.000000000000000000 ) ) ;
#121 = VERTEX_POINT ( 'NONE', #26 ) ;
#122 = AXIS2_PLACEMENT_3D ( 'NONE', #155, #230, #193 ) ;
#123 = AXIS2_PLACEMENT_3D ( 'NONE', #149, #134, #71 ) ;
#124 = PRODUCT_DEFINITION_FORMATION_WITH_SPECIFIED_SOURCE ( 'ANY', '', #243, .NOT_KNOWN. ) ;
#125 = SURFACE_SIDE_STYLE ('',( #51 ) ) ;
#126 = ADVANCED_FACE ( 'NONE', ( #24 ), #49, .T. ) ;
#127 = DIRECTION ( 'NONE',  ( 1.000000000000000000, 0.0000000000000000000, 0.0000000000000000000 ) ) ;
#128 = PRESENTATION_STYLE_ASSIGNMENT (( #85 ) ) ;
#129 = EDGE_CURVE ( 'NONE', #215, #121, #234, .T. ) ;
#130 = APPLICATION_CONTEXT ( 'automotive_design' ) ;
#131 = DIRECTION ( 'NONE',  ( -0.0000000000000000000, -0.0000000000000000000, -1.000000000000000000 ) ) ;
#132 = ORIENTED_EDGE ( 'NONE', *, *, #64, .T. ) ;
#133 = AXIS2_PLACEMENT_3D ( 'NONE', #80, #162, #46 ) ;
#134 = DIRECTION ( 'NONE',  ( 0.0000000000000000000, 0.0000000000000000000, -1.000000000000000000 ) ) ;
#135 = CARTESIAN_POINT ( 'NONE',  ( 0.02999999999999999889, 0.0000000000000000000, 0.0000000000000000000 ) ) ;
#136 = CARTESIAN_POINT ( 'NONE',  ( 0.1250000000000000000, 1.530808498934191509E-17, 2.145455173280958139 ) ) ;
#137 = CARTESIAN_POINT ( 'NONE',  ( 0.0000000000000000000, 0.0000000000000000000, 0.0000000000000000000 ) ) ;
#138 = DIRECTION ( 'NONE',  ( -0.0000000000000000000, -0.0000000000000000000, -1.000000000000000000 ) ) ;
#139 = PRESENTATION_STYLE_ASSIGNMENT (( #43 ) ) ;
#140 = LENGTH_MEASURE_WITH_UNIT ( LENGTH_MEASURE( 0.02539999999999999897 ), #219 );
#141 = AXIS2_PLACEMENT_3D ( 'NONE', #169, #244, #127 ) ;
#142 =( NAMED_UNIT ( * ) PLANE_ANGLE_UNIT ( ) SI_UNIT ( $, .RADIAN. ) );
#143 = CIRCLE ( 'NONE', #35, 0.1250000000000000000 ) ;
#144 =( GEOMETRIC_REPRESENTATION_CONTEXT ( 3 ) GLOBAL_UNCERTAINTY_ASSIGNED_CONTEXT ( ( #3 ) ) GLOBAL_UNIT_ASSIGNED_CONTEXT ( ( #105, #142, #29 ) ) REPRESENTATION_CONTEXT ( 'NONE', 'WORKASPACE' ) );
#145 = APPLICATION_PROTOCOL_DEFINITION ( 'draft international standard', 'automotive_design', 1998, #175 ) ;
#146 = AXIS2_PLACEMENT_3D ( 'NONE', #56, #232, #154 ) ;
#147 = ADVANCED_FACE ( 'NONE', ( #195 ), #180, .T. ) ;
#148 = LINE ( 'NONE', #76, #153 ) ;
#149 = CARTESIAN_POINT ( 'NONE',  ( 0.0000000000000000000, 0.0000000000000000000, 2.500000000000000000 ) ) ;
#150 = ORIENTED_EDGE ( 'NONE', *, *, #57, .F. ) ;
#151 = EDGE_CURVE ( 'NONE', #52, #54, #241, .T. ) ;
#152 = DIRECTION ( 'NONE',  ( 1.000000000000000000, 0.0000000000000000000, -0.0000000000000000000 ) ) ;
#153 = VECTOR ( 'NONE', #174, 39.37007874015748143 ) ;
#154 = DIRECTION ( 'NONE',  ( 1.000000000000000000, 0.0000000000000000000, 0.0000000000000000000 ) ) ;
#155 = CARTESIAN_POINT ( 'NONE',  ( 0.0000000000000000000, 0.0000000000000000000, 0.3545448267190419167 ) ) ;
#156 = DIRECTION ( 'NONE',  ( -1.000000000000000000, 0.0000000000000000000, 0.0000000000000000000 ) ) ;
#157 = CARTESIAN_POINT ( 'NONE',  ( 0.1250000000000000000, 1.530808498934191509E-17, 0.3545448267190419167 ) ) ;
#158 = CARTESIAN_POINT ( 'NONE',  ( 0.0000000000000000000, 0.0000000000000000000, 2.500000000000000000 ) ) ;
#159 = PRODUCT_DEFINITION_CONTEXT ( 'detailed design', #175, 'design' ) ;
#160 =( NAMED_UNIT ( * ) SI_UNIT ( $, .STERADIAN. ) SOLID_ANGLE_UNIT ( ) );
#161 = DIRECTION ( 'NONE',  ( -0.0000000000000000000, -0.0000000000000000000, -1.000000000000000000 ) ) ;
#162 = DIRECTION ( 'NONE',  ( 0.0000000000000000000, 0.0000000000000000000, -1.000000000000000000 ) ) ;
#163 = EDGE_CURVE ( 'NONE', #121, #215, #229, .T. ) ;
#164 = SURFACE_SIDE_STYLE ('',( #97 ) ) ;
#165 =( GEOMETRIC_REPRESENTATION_CONTEXT ( 3 ) GLOBAL_UNCERTAINTY_ASSIGNED_CONTEXT ( ( #206 ) ) GLOBAL_UNIT_ASSIGNED_CONTEXT ( ( #94, #203, #160 ) ) REPRESENTATION_CONTEXT ( 'NONE', 'WORKASPACE' ) );
#166 = EDGE_LOOP ( 'NONE', ( #150, #8, #211, #227 ) ) ;
#167 = DIRECTION ( 'NONE',  ( 0.2588190451025216832, 0.0000000000000000000, -0.9659258262890679791 ) ) ;
#168 = DIMENSIONAL_EXPONENTS ( 1.000000000000000000, 0.0000000000000000000, 0.0000000000000000000, 0.0000000000000000000, 0.0000000000000000000, 0.0000000000000000000, 0.0000000000000000000 ) ;
#169 = CARTESIAN_POINT ( 'NONE',  ( 0.0000000000000000000, 0.0000000000000000000, 0.0000000000000000000 ) ) ;
#170 = CLOSED_SHELL ( 'NONE', ( #242, #84, #17, #126, #45, #6, #115, #147 ) ) ;
#171 = STYLED_ITEM ( 'NONE', ( #128 ), #198 ) ;
#172 = ORIENTED_EDGE ( 'NONE', *, *, #151, .T. ) ;
#173 = EDGE_CURVE ( 'NONE', #233, #54, #107, .T. ) ;
#174 = DIRECTION ( 'NONE',  ( 0.2588190451025216832, 0.0000000000000000000, 0.9659258262890679791 ) ) ;
#175 = APPLICATION_CONTEXT ( 'automotive_design' ) ;
#176 = CARTESIAN_POINT ( 'NONE',  ( 0.0000000000000000000, 0.0000000000000000000, 0.0000000000000000000 ) ) ;
#177 = CIRCLE ( 'NONE', #214, 0.02999999999999999889 ) ;
#178 = DIRECTION ( 'NONE',  ( -1.000000000000000000, 0.0000000000000000000, 0.0000000000000000000 ) ) ;
#179 = MANIFOLD_SOLID_BREP ( 'Mirror1', #170 ) ;
#180 = PLANE ( 'NONE',  #14 ) ;
#181 = EDGE_LOOP ( 'NONE', ( #104, #221, #197, #106 ) ) ;
#182 = CARTESIAN_POINT ( 'NONE',  ( 0.0000000000000000000, 0.0000000000000000000, 2.500000000000000000 ) ) ;
#183 = VECTOR ( 'NONE', #167, 39.37007874015748143 ) ;
#184 = CIRCLE ( 'NONE', #102, 0.1250000000000000000 ) ;
#185 = DIRECTION ( 'NONE',  ( -1.000000000000000000, 0.0000000000000000000, 0.0000000000000000000 ) ) ;
#186 = CARTESIAN_POINT ( 'NONE',  ( 0.0000000000000000000, 0.0000000000000000000, 0.0000000000000000000 ) ) ;
#187 = COLOUR_RGB ( '',0.7921568627450980005, 0.8196078431372548767, 0.9333333333333333481 ) ;
#188 = DIRECTION ( 'NONE',  ( -0.2588190451025216832, 3.169619151431776035E-17, 0.9659258262890679791 ) ) ;
#189 = EDGE_CURVE ( 'NONE', #38, #240, #143, .T. ) ;
#190 = PRESENTATION_LAYER_ASSIGNMENT (  '', '', ( #21 ) ) ;
#191 = DIRECTION ( 'NONE',  ( -1.000000000000000000, 0.0000000000000000000, 0.0000000000000000000 ) ) ;
#192 = ORIENTED_EDGE ( 'NONE', *, *, #129, .F. ) ;
#193 = DIRECTION ( 'NONE',  ( -1.000000000000000000, 0.0000000000000000000, 0.0000000000000000000 ) ) ;
#194 = ORIENTED_EDGE ( 'NONE', *, *, #95, .T. ) ;
#195 = FACE_OUTER_BOUND ( 'NONE', #92, .T. ) ;
#196 = ORIENTED_EDGE ( 'NONE', *, *, #217, .F. ) ;
#197 = ORIENTED_EDGE ( 'NONE', *, *, #217, .T. ) ;
#198 = ADVANCED_BREP_SHAPE_REPRESENTATION ( 'Micro_RTC-250-260', ( #179, #141 ), #87 ) ;
#199 = FILL_AREA_STYLE_COLOUR ( '', #187 ) ;
#200 = EDGE_CURVE ( 'NONE', #121, #38, #42, .T. ) ;
#201 = CONICAL_SURFACE ( 'NONE', #146, 0.02999999999999999889, 0.2617993877991502960 ) ;
#202 = MECHANICAL_DESIGN_GEOMETRIC_PRESENTATION_REPRESENTATION (  '', ( #171 ), #144 ) ;
#203 =( NAMED_UNIT ( * ) PLANE_ANGLE_UNIT ( ) SI_UNIT ( $, .RADIAN. ) );
#204 = DIRECTION ( 'NONE',  ( 1.000000000000000000, 0.0000000000000000000, 0.0000000000000000000 ) ) ;
#205 = EDGE_LOOP ( 'NONE', ( #118, #132 ) ) ;
#206 = UNCERTAINTY_MEASURE_WITH_UNIT (LENGTH_MEASURE( 1.000000000000000082E-05 ), #94, 'distance_accuracy_value', 'NONE');
#207 = CIRCLE ( 'NONE', #209, 0.1250000000000000000 ) ;
#208 = EDGE_CURVE ( 'NONE', #58, #233, #108, .T. ) ;
#209 = AXIS2_PLACEMENT_3D ( 'NONE', #20, #90, #178 ) ;
#210 = CARTESIAN_POINT ( 'NONE',  ( -0.02999999999999999889, -3.673940397442059190E-18, 2.500000000000000000 ) ) ;
#211 = ORIENTED_EDGE ( 'NONE', *, *, #200, .T. ) ;
#212 = FACE_OUTER_BOUND ( 'NONE', #181, .T. ) ;
#213 = PRODUCT_RELATED_PRODUCT_CATEGORY ( 'part', '', ( #243 ) ) ;
#214 = AXIS2_PLACEMENT_3D ( 'NONE', #116, #131, #191 ) ;
#215 = VERTEX_POINT ( 'NONE', #5 ) ;
#216 = DIRECTION ( 'NONE',  ( -1.000000000000000000, 0.0000000000000000000, 0.0000000000000000000 ) ) ;
#217 = EDGE_CURVE ( 'NONE', #54, #52, #184, .T. ) ;
#218 = DIRECTION ( 'NONE',  ( -1.000000000000000000, 0.0000000000000000000, 0.0000000000000000000 ) ) ;
#219 =( LENGTH_UNIT ( ) NAMED_UNIT ( * ) SI_UNIT ( $, .METRE. ) );
#220 = CARTESIAN_POINT ( 'NONE',  ( -0.02999999999999999889, 9.491012693391986370E-18, 0.0000000000000000000 ) ) ;
#221 = ORIENTED_EDGE ( 'NONE', *, *, #173, .T. ) ;
#222 = FILL_AREA_STYLE ('',( #199 ) ) ;
#223 = FACE_OUTER_BOUND ( 'NONE', #166, .T. ) ;
#224 = AXIS2_PLACEMENT_3D ( 'NONE', #158, #120, #204 ) ;
#225 = ORIENTED_EDGE ( 'NONE', *, *, #173, .F. ) ;
#226 = PRODUCT_CONTEXT ( 'NONE', #130, 'mechanical' ) ;
#227 = ORIENTED_EDGE ( 'NONE', *, *, #95, .F. ) ;
#228 = CYLINDRICAL_SURFACE ( 'NONE', #32, 0.1250000000000000000 ) ;
#229 = CIRCLE ( 'NONE', #119, 0.02999999999999999889 ) ;
#230 = DIRECTION ( 'NONE',  ( -0.0000000000000000000, -0.0000000000000000000, -1.000000000000000000 ) ) ;
#231 = EDGE_LOOP ( 'NONE', ( #18, #22, #117, #40 ) ) ;
#232 = DIRECTION ( 'NONE',  ( 0.0000000000000000000, 0.0000000000000000000, 1.000000000000000000 ) ) ;
#233 = VERTEX_POINT ( 'NONE', #220 ) ;
#234 = CIRCLE ( 'NONE', #123, 0.02999999999999999889 ) ;
#235 =( NAMED_UNIT ( * ) SI_UNIT ( $, .STERADIAN. ) SOLID_ANGLE_UNIT ( ) );
#236 = CARTESIAN_POINT ( 'NONE',  ( 0.0000000000000000000, 0.0000000000000000000, 0.3545448267190419167 ) ) ;
#237 = VECTOR ( 'NONE', #188, 39.37007874015748143 ) ;
#238 = PRESENTATION_LAYER_ASSIGNMENT (  '', '', ( #171 ) ) ;
#239 = CARTESIAN_POINT ( 'NONE',  ( 0.0000000000000000000, 0.0000000000000000000, 2.145455173280958139 ) ) ;
#240 = VERTEX_POINT ( 'NONE', #63 ) ;
#241 = CIRCLE ( 'NONE', #122, 0.1250000000000000000 ) ;
#242 = ADVANCED_FACE ( 'NONE', ( #79 ), #50, .T. ) ;
#243 = PRODUCT ( 'Micro_RTC-250-260', 'Micro_RTC-250-260', '', ( #226 ) ) ;
#244 = DIRECTION ( 'NONE',  ( 0.0000000000000000000, 0.0000000000000000000, 1.000000000000000000 ) ) ;
#245 = ORIENTED_EDGE ( 'NONE', *, *, #100, .F. ) ;
#246 = DIRECTION ( 'NONE',  ( 0.0000000000000000000, 0.0000000000000000000, 1.000000000000000000 ) ) ;
#247 = PRODUCT_DEFINITION ( 'UNKNOWN', '', #124, #159 ) ;
#248 = COLOUR_RGB ( '',0.7921568627450980005, 0.8196078431372548767, 0.9333333333333333481 ) ;
#249 = LINE ( 'NONE', #75, #91 ) ;
ENDSEC;
END-ISO-10303-21;
