ISO-10303-21;
HEADER;
FILE_DESCRIPTION (( 'STEP AP214' ),
    '1' );
FILE_NAME ('12107.STEP',
    '2023-06-30T21:50:52',
    ( '' ),
    ( '' ),
    'SwSTEP 2.0',
    'SolidWorks 2023',
    '' );
FILE_SCHEMA (( 'AUTOMOTIVE_DESIGN' ));
ENDSEC;

DATA;
#1 = DIRECTION ( 'NONE',  ( 0.000000000000000000, 0.000000000000000000, -1.000000000000000000 ) ) ;
#2 = EDGE_CURVE ( 'NONE', #323, #194, #260, .T. ) ;
#3 =( NAMED_UNIT ( * ) SI_UNIT ( $, .STERADIAN. ) SOLID_ANGLE_UNIT ( ) );
#4 =( NAMED_UNIT ( * ) PLANE_ANGLE_UNIT ( ) SI_UNIT ( $, .RADIAN. ) );
#5 = CARTESIAN_POINT ( 'NONE',  ( 0.000000000000000000, 0.3750000000000000555, 0.000000000000000000 ) ) ;
#6 = CARTESIAN_POINT ( 'NONE',  ( 1.530808498934191509E-17, 0.1250000000000000278, 0.1250000000000000000 ) ) ;
#7 = CARTESIAN_POINT ( 'NONE',  ( -1.530808498934191509E-17, 0.1250000000000000000, 0.000000000000000000 ) ) ;
#8 = UNCERTAINTY_MEASURE_WITH_UNIT (LENGTH_MEASURE( 1.000000000000000082E-05 ), #47, 'distance_accuracy_value', 'NONE');
#9 = CYLINDRICAL_SURFACE ( 'NONE', #342, 0.1249999999999999584 ) ;
#10 = VERTEX_POINT ( 'NONE', #356 ) ;
#11 = AXIS2_PLACEMENT_3D ( 'NONE', #7, #121, #234 ) ;
#12 = STYLED_ITEM ( 'NONE', ( #303 ), #263 ) ;
#13 = FILL_AREA_STYLE ('',( #157 ) ) ;
#14 = ORIENTED_EDGE ( 'NONE', *, *, #105, .F. ) ;
#15 = SURFACE_STYLE_FILL_AREA ( #191 ) ;
#16 = EDGE_CURVE ( 'NONE', #88, #269, #210, .T. ) ;
#17 = CARTESIAN_POINT ( 'NONE',  ( -0.1249999999999997224, 2.000000000000000000, 0.000000000000000000 ) ) ;
#18 = ORIENTED_EDGE ( 'NONE', *, *, #85, .F. ) ;
#19 = FILL_AREA_STYLE_COLOUR ( '', #70 ) ;
#20 = CLOSED_SHELL ( 'NONE', ( #23, #309, #263, #304, #315 ) ) ;
#21 = SURFACE_STYLE_FILL_AREA ( #216 ) ;
#22 = MECHANICAL_DESIGN_GEOMETRIC_PRESENTATION_REPRESENTATION (  '', ( #192 ), #336 ) ;
#23 = ADVANCED_FACE ( 'NONE', ( #170 ), #113, .T. ) ;
#24 = DIRECTION ( 'NONE',  ( 1.000000000000000000, 0.000000000000000000, 0.000000000000000000 ) ) ;
#25 = LENGTH_MEASURE_WITH_UNIT ( LENGTH_MEASURE( 0.02539999999999999897 ), #222 );
#26 = SURFACE_SIDE_STYLE ('',( #21 ) ) ;
#27 = ADVANCED_FACE ( 'NONE', ( #138 ), #287, .T. ) ;
#28 = SURFACE_STYLE_USAGE ( .BOTH. , #246 ) ;
#29 =( NAMED_UNIT ( * ) PLANE_ANGLE_UNIT ( ) SI_UNIT ( $, .RADIAN. ) );
#30 = EDGE_CURVE ( 'NONE', #269, #323, #223, .T. ) ;
#31 = CIRCLE ( 'NONE', #71, 0.1249999999999998751 ) ;
#32 = DIRECTION ( 'NONE',  ( 1.000000000000000000, 0.000000000000000000, -1.224646799147353207E-16 ) ) ;
#33 =( NAMED_UNIT ( * ) SI_UNIT ( $, .STERADIAN. ) SOLID_ANGLE_UNIT ( ) );
#34 = CYLINDRICAL_SURFACE ( 'NONE', #254, 0.1249999999999999584 ) ;
#35 = DIRECTION ( 'NONE',  ( 0.000000000000000000, 0.000000000000000000, -1.000000000000000000 ) ) ;
#36 = DIRECTION ( 'NONE',  ( -0.000000000000000000, -1.000000000000000000, -0.000000000000000000 ) ) ;
#37 = CARTESIAN_POINT ( 'NONE',  ( 6.123233995736766036E-17, 2.000000000000000000, 0.000000000000000000 ) ) ;
#38 = DIRECTION ( 'NONE',  ( 1.000000000000000000, 1.231882382905062056E-16, 0.000000000000000000 ) ) ;
#39 = VERTEX_POINT ( 'NONE', #257 ) ;
#40 = UNCERTAINTY_MEASURE_WITH_UNIT (LENGTH_MEASURE( 1.000000000000000082E-05 ), #249, 'distance_accuracy_value', 'NONE');
#41 = ORIENTED_EDGE ( 'NONE', *, *, #208, .T. ) ;
#42 = STYLED_ITEM ( 'NONE', ( #360 ), #168 ) ;
#43 = DIRECTION ( 'NONE',  ( -1.231882382905062056E-16, 1.000000000000000000, -0.000000000000000000 ) ) ;
#44 = ORIENTED_EDGE ( 'NONE', *, *, #2, .T. ) ;
#45 = DIRECTION ( 'NONE',  ( -1.000000000000000000, 0.000000000000000000, 0.000000000000000000 ) ) ;
#46 = EDGE_LOOP ( 'NONE', ( #14, #337, #98, #184, #239 ) ) ;
#47 =( CONVERSION_BASED_UNIT ( 'INCH', #136 ) LENGTH_UNIT ( ) NAMED_UNIT ( #240 ) );
#48 = ORIENTED_EDGE ( 'NONE', *, *, #365, .F. ) ;
#49 =( GEOMETRIC_REPRESENTATION_CONTEXT ( 3 ) GLOBAL_UNCERTAINTY_ASSIGNED_CONTEXT ( ( #324 ) ) GLOBAL_UNIT_ASSIGNED_CONTEXT ( ( #84, #150, #231 ) ) REPRESENTATION_CONTEXT ( 'NONE', 'WORKASPACE' ) );
#50 = FILL_AREA_STYLE_COLOUR ( '', #225 ) ;
#51 = DIRECTION ( 'NONE',  ( -1.231882382905062056E-16, 1.000000000000000000, -0.000000000000000000 ) ) ;
#52 = AXIS2_PLACEMENT_3D ( 'NONE', #160, #94, #24 ) ;
#53 = ADVANCED_FACE ( 'NONE', ( #109 ), #224, .F. ) ;
#54 = SURFACE_STYLE_FILL_AREA ( #200 ) ;
#55 = MECHANICAL_DESIGN_GEOMETRIC_PRESENTATION_REPRESENTATION (  '', ( #65 ), #280 ) ;
#56 = FILL_AREA_STYLE ('',( #146 ) ) ;
#57 = DIRECTION ( 'NONE',  ( -0.000000000000000000, -1.000000000000000000, -0.000000000000000000 ) ) ;
#58 = FILL_AREA_STYLE ('',( #122 ) ) ;
#59 = ADVANCED_FACE ( 'NONE', ( #355 ), #87, .F. ) ;
#60 = VECTOR ( 'NONE', #361, 39.37007874015748143 ) ;
#61 = UNCERTAINTY_MEASURE_WITH_UNIT (LENGTH_MEASURE( 1.000000000000000082E-05 ), #233, 'distance_accuracy_value', 'NONE');
#62 = LENGTH_MEASURE_WITH_UNIT ( LENGTH_MEASURE( 0.02539999999999999897 ), #143 );
#63 = CARTESIAN_POINT ( 'NONE',  ( 1.530808498934191201E-17, 0.000000000000000000, 0.1249999999999999584 ) ) ;
#64 = ORIENTED_EDGE ( 'NONE', *, *, #174, .T. ) ;
#65 = STYLED_ITEM ( 'NONE', ( #101 ), #315 ) ;
#66 = EDGE_LOOP ( 'NONE', ( #327, #75 ) ) ;
#67 =( NAMED_UNIT ( * ) SI_UNIT ( $, .STERADIAN. ) SOLID_ANGLE_UNIT ( ) );
#68 = ORIENTED_EDGE ( 'NONE', *, *, #174, .F. ) ;
#69 = FILL_AREA_STYLE_COLOUR ( '', #151 ) ;
#70 = COLOUR_RGB ( '',0.7921568627450980005, 0.8196078431372548767, 0.9333333333333333481 ) ;
#71 = AXIS2_PLACEMENT_3D ( 'NONE', #276, #321, #358 ) ;
#72 = ORIENTED_EDGE ( 'NONE', *, *, #30, .F. ) ;
#73 = CARTESIAN_POINT ( 'NONE',  ( 0.000000000000000000, 0.1250000000000000278, 0.000000000000000000 ) ) ;
#74 = DIRECTION ( 'NONE',  ( -0.000000000000000000, -1.000000000000000000, -0.000000000000000000 ) ) ;
#75 = ORIENTED_EDGE ( 'NONE', *, *, #253, .F. ) ;
#76 = PRODUCT_DEFINITION_FORMATION_WITH_SPECIFIED_SOURCE ( 'ANY', '', #142, .NOT_KNOWN. ) ;
#77 = AXIS2_PLACEMENT_3D ( 'NONE', #5, #186, #318 ) ;
#78 = DIRECTION ( 'NONE',  ( -1.000000000000000000, 0.000000000000000000, 0.000000000000000000 ) ) ;
#79 = DIRECTION ( 'NONE',  ( 0.000000000000000000, 0.000000000000000000, -1.000000000000000000 ) ) ;
#80 = EDGE_CURVE ( 'NONE', #10, #269, #228, .T. ) ;
#81 = PRESENTATION_LAYER_ASSIGNMENT (  '', '', ( #83 ) ) ;
#82 = AXIS2_PLACEMENT_3D ( 'NONE', #114, #90, #155 ) ;
#83 = STYLED_ITEM ( 'NONE', ( #230 ), #304 ) ;
#84 =( CONVERSION_BASED_UNIT ( 'INCH', #147 ) LENGTH_UNIT ( ) NAMED_UNIT ( #345 ) );
#85 = EDGE_CURVE ( 'NONE', #10, #194, #189, .T. ) ;
#86 = SURFACE_STYLE_FILL_AREA ( #13 ) ;
#87 = PLANE ( 'NONE',  #82 ) ;
#88 = VERTEX_POINT ( 'NONE', #326 ) ;
#89 = AXIS2_PLACEMENT_3D ( 'NONE', #322, #298, #32 ) ;
#90 = DIRECTION ( 'NONE',  ( -1.231882382905062056E-16, 1.000000000000000000, 0.000000000000000000 ) ) ;
#91 = ORIENTED_EDGE ( 'NONE', *, *, #292, .T. ) ;
#92 = ORIENTED_EDGE ( 'NONE', *, *, #30, .T. ) ;
#93 = FACE_OUTER_BOUND ( 'NONE', #66, .T. ) ;
#94 = DIRECTION ( 'NONE',  ( 0.000000000000000000, 0.000000000000000000, 1.000000000000000000 ) ) ;
#95 = EDGE_LOOP ( 'NONE', ( #68, #41, #302, #329 ) ) ;
#96 = CARTESIAN_POINT ( 'NONE',  ( 2.614132271794402599E-16, 0.3749999999999999445, 0.000000000000000000 ) ) ;
#97 = SURFACE_STYLE_USAGE ( .BOTH. , #26 ) ;
#98 = ORIENTED_EDGE ( 'NONE', *, *, #16, .T. ) ;
#99 = DIRECTION ( 'NONE',  ( 0.000000000000000000, 0.000000000000000000, -1.000000000000000000 ) ) ;
#100 = DIRECTION ( 'NONE',  ( 0.000000000000000000, 0.000000000000000000, -1.000000000000000000 ) ) ;
#101 = PRESENTATION_STYLE_ASSIGNMENT (( #97 ) ) ;
#102 = AXIS2_PLACEMENT_3D ( 'NONE', #344, #203, #38 ) ;
#103 =( GEOMETRIC_REPRESENTATION_CONTEXT ( 3 ) GLOBAL_UNCERTAINTY_ASSIGNED_CONTEXT ( ( #267 ) ) GLOBAL_UNIT_ASSIGNED_CONTEXT ( ( #300, #281, #67 ) ) REPRESENTATION_CONTEXT ( 'NONE', 'WORKASPACE' ) );
#104 =( LENGTH_UNIT ( ) NAMED_UNIT ( * ) SI_UNIT ( $, .METRE. ) );
#105 = EDGE_CURVE ( 'NONE', #128, #124, #123, .T. ) ;
#106 = FILL_AREA_STYLE_COLOUR ( '', #339 ) ;
#107 = PRESENTATION_LAYER_ASSIGNMENT (  '', '', ( #42 ) ) ;
#108 = VECTOR ( 'NONE', #328, 39.37007874015748143 ) ;
#109 = FACE_OUTER_BOUND ( 'NONE', #156, .T. ) ;
#110 = CIRCLE ( 'NONE', #126, 0.1250000000000000000 ) ;
#111 = PRODUCT_RELATED_PRODUCT_CATEGORY ( 'part', '', ( #142 ) ) ;
#112 = PRODUCT_CONTEXT ( 'NONE', #235, 'mechanical' ) ;
#113 = SPHERICAL_SURFACE ( 'NONE', #307, 0.1250000000000000000 ) ;
#114 = CARTESIAN_POINT ( 'NONE',  ( 2.614132271794402599E-16, 0.3750000000000000555, 0.000000000000000000 ) ) ;
#115 = CARTESIAN_POINT ( 'NONE',  ( 6.123233995736766036E-17, 2.000000000000000000, 0.000000000000000000 ) ) ;
#116 = STYLED_ITEM ( 'NONE', ( #369 ), #291 ) ;
#117 = DIMENSIONAL_EXPONENTS ( 1.000000000000000000, 0.000000000000000000, 0.000000000000000000, 0.000000000000000000, 0.000000000000000000, 0.000000000000000000, 0.000000000000000000 ) ;
#118 =( NAMED_UNIT ( * ) SI_UNIT ( $, .STERADIAN. ) SOLID_ANGLE_UNIT ( ) );
#119 = CIRCLE ( 'NONE', #272, 0.1250000000000000000 ) ;
#120 = LENGTH_MEASURE_WITH_UNIT ( LENGTH_MEASURE( 0.02539999999999999897 ), #265 );
#121 = DIRECTION ( 'NONE',  ( 0.000000000000000000, 0.000000000000000000, -1.000000000000000000 ) ) ;
#122 = FILL_AREA_STYLE_COLOUR ( '', #183 ) ;
#123 = LINE ( 'NONE', #63, #60 ) ;
#124 = VERTEX_POINT ( 'NONE', #6 ) ;
#125 = PRESENTATION_LAYER_ASSIGNMENT (  '', '', ( #181 ) ) ;
#126 = AXIS2_PLACEMENT_3D ( 'NONE', #73, #248, #100 ) ;
#127 =( LENGTH_UNIT ( ) NAMED_UNIT ( * ) SI_UNIT ( $, .METRE. ) );
#128 = VERTEX_POINT ( 'NONE', #294 ) ;
#129 = VERTEX_POINT ( 'NONE', #180 ) ;
#130 = SURFACE_SIDE_STYLE ('',( #15 ) ) ;
#131 = CARTESIAN_POINT ( 'NONE',  ( 6.123233995736766036E-17, 2.000000000000000000, 0.000000000000000000 ) ) ;
#132 = EDGE_LOOP ( 'NONE', ( #271, #333 ) ) ;
#133 = EDGE_CURVE ( 'NONE', #88, #128, #278, .T. ) ;
#134 = SURFACE_SIDE_STYLE ('',( #220 ) ) ;
#135 = CARTESIAN_POINT ( 'NONE',  ( 0.000000000000000000, 0.1250000000000000278, -0.1250000000000000000 ) ) ;
#136 = LENGTH_MEASURE_WITH_UNIT ( LENGTH_MEASURE( 0.02539999999999999897 ), #104 );
#137 = CIRCLE ( 'NONE', #331, 0.1249999999999998751 ) ;
#138 = FACE_OUTER_BOUND ( 'NONE', #95, .T. ) ;
#139 = PRESENTATION_STYLE_ASSIGNMENT (( #28 ) ) ;
#140 = DIRECTION ( 'NONE',  ( -0.000000000000000000, -1.000000000000000000, -0.000000000000000000 ) ) ;
#141 = DIRECTION ( 'NONE',  ( -1.000000000000000000, 0.000000000000000000, 0.000000000000000000 ) ) ;
#142 = PRODUCT ( '12107', '12107', '', ( #112 ) ) ;
#143 =( LENGTH_UNIT ( ) NAMED_UNIT ( * ) SI_UNIT ( $, .METRE. ) );
#144 =( LENGTH_UNIT ( ) NAMED_UNIT ( * ) SI_UNIT ( $, .METRE. ) );
#145 = DIMENSIONAL_EXPONENTS ( 1.000000000000000000, 0.000000000000000000, 0.000000000000000000, 0.000000000000000000, 0.000000000000000000, 0.000000000000000000, 0.000000000000000000 ) ;
#146 = FILL_AREA_STYLE_COLOUR ( '', #295 ) ;
#147 = LENGTH_MEASURE_WITH_UNIT ( LENGTH_MEASURE( 0.02539999999999999897 ), #127 );
#148 = DIMENSIONAL_EXPONENTS ( 1.000000000000000000, 0.000000000000000000, 0.000000000000000000, 0.000000000000000000, 0.000000000000000000, 0.000000000000000000, 0.000000000000000000 ) ;
#149 =( NAMED_UNIT ( * ) PLANE_ANGLE_UNIT ( ) SI_UNIT ( $, .RADIAN. ) );
#150 =( NAMED_UNIT ( * ) PLANE_ANGLE_UNIT ( ) SI_UNIT ( $, .RADIAN. ) );
#151 = COLOUR_RGB ( '',1.000000000000000000, 0.000000000000000000, 0.000000000000000000 ) ;
#152 = MECHANICAL_DESIGN_GEOMETRIC_PRESENTATION_REPRESENTATION (  '', ( #116 ), #252 ) ;
#153 = DIRECTION ( 'NONE',  ( 0.000000000000000000, 0.000000000000000000, -1.000000000000000000 ) ) ;
#154 =( NAMED_UNIT ( * ) SI_UNIT ( $, .STERADIAN. ) SOLID_ANGLE_UNIT ( ) );
#155 = DIRECTION ( 'NONE',  ( -1.000000000000000000, -1.231882382905062056E-16, 0.000000000000000000 ) ) ;
#156 = EDGE_LOOP ( 'NONE', ( #91, #217 ) ) ;
#157 = FILL_AREA_STYLE_COLOUR ( '', #348 ) ;
#158 = VERTEX_POINT ( 'NONE', #351 ) ;
#159 = DIRECTION ( 'NONE',  ( 0.000000000000000000, -0.000000000000000000, 1.000000000000000000 ) ) ;
#160 = CARTESIAN_POINT ( 'NONE',  ( -1.530808498934191509E-17, 0.1250000000000000000, 0.000000000000000000 ) ) ;
#161 = ORIENTED_EDGE ( 'NONE', *, *, #198, .T. ) ;
#162 = PRESENTATION_LAYER_ASSIGNMENT (  '', '', ( #65 ) ) ;
#163 = ADVANCED_BREP_SHAPE_REPRESENTATION ( '12107', ( #168, #291, #313 ), #171 ) ;
#164 = ORIENTED_EDGE ( 'NONE', *, *, #105, .T. ) ;
#165 = CARTESIAN_POINT ( 'NONE',  ( -7.654042494670957545E-18, 0.000000000000000000, 0.000000000000000000 ) ) ;
#166 =( NAMED_UNIT ( * ) SI_UNIT ( $, .STERADIAN. ) SOLID_ANGLE_UNIT ( ) );
#167 = CLOSED_SHELL ( 'NONE', ( #359, #59, #27, #53 ) ) ;
#168 = MANIFOLD_SOLID_BREP ( 'Revolve - Cutting Edge', #20 ) ;
#169 = PLANE ( 'NONE',  #311 ) ;
#170 = FACE_OUTER_BOUND ( 'NONE', #362, .T. ) ;
#171 =( GEOMETRIC_REPRESENTATION_CONTEXT ( 3 ) GLOBAL_UNCERTAINTY_ASSIGNED_CONTEXT ( ( #226 ) ) GLOBAL_UNIT_ASSIGNED_CONTEXT ( ( #202, #29, #310 ) ) REPRESENTATION_CONTEXT ( 'NONE', 'WORKASPACE' ) );
#172 = APPLICATION_PROTOCOL_DEFINITION ( 'draft international standard', 'automotive_design', 1998, #235 ) ;
#173 = PRESENTATION_LAYER_ASSIGNMENT (  '', '', ( #192 ) ) ;
#174 = EDGE_CURVE ( 'NONE', #39, #368, #213, .T. ) ;
#175 = CARTESIAN_POINT ( 'NONE',  ( -1.530808498934191509E-17, 0.1250000000000000000, 0.000000000000000000 ) ) ;
#176 = LENGTH_MEASURE_WITH_UNIT ( LENGTH_MEASURE( 0.02539999999999999897 ), #144 );
#177 = PRESENTATION_LAYER_ASSIGNMENT (  '', '', ( #116 ) ) ;
#178 = FACE_OUTER_BOUND ( 'NONE', #46, .T. ) ;
#179 = SURFACE_STYLE_USAGE ( .BOTH. , #325 ) ;
#180 = CARTESIAN_POINT ( 'NONE',  ( -0.1249999999999998057, 2.000000000000000000, 0.000000000000000000 ) ) ;
#181 = STYLED_ITEM ( 'NONE', ( #139 ), #23 ) ;
#182 = VECTOR ( 'NONE', #237, 39.37007874015748143 ) ;
#183 = COLOUR_RGB ( '',1.000000000000000000, 0.000000000000000000, 0.000000000000000000 ) ;
#184 = ORIENTED_EDGE ( 'NONE', *, *, #80, .F. ) ;
#185 = LENGTH_MEASURE_WITH_UNIT ( LENGTH_MEASURE( 0.02539999999999999897 ), #308 );
#186 = DIRECTION ( 'NONE',  ( -0.000000000000000000, -1.000000000000000000, -0.000000000000000000 ) ) ;
#187 = CARTESIAN_POINT ( 'NONE',  ( 0.000000000000000000, 0.3750000000000000555, 0.000000000000000000 ) ) ;
#188 = ORIENTED_EDGE ( 'NONE', *, *, #2, .F. ) ;
#189 = CIRCLE ( 'NONE', #89, 0.1250000000000000000 ) ;
#190 = EDGE_CURVE ( 'NONE', #368, #129, #137, .T. ) ;
#191 = FILL_AREA_STYLE ('',( #69 ) ) ;
#192 = STYLED_ITEM ( 'NONE', ( #349 ), #309 ) ;
#193 = DIRECTION ( 'NONE',  ( -1.231882382905062056E-16, 1.000000000000000000, -0.000000000000000000 ) ) ;
#194 = VERTEX_POINT ( 'NONE', #165 ) ;
#195 = DIRECTION ( 'NONE',  ( -1.000000000000000000, 0.000000000000000000, 0.000000000000000000 ) ) ;
#196 = ORIENTED_EDGE ( 'NONE', *, *, #85, .T. ) ;
#197 = CARTESIAN_POINT ( 'NONE',  ( 0.000000000000000000, 0.3750000000000000555, 0.000000000000000000 ) ) ;
#198 = EDGE_CURVE ( 'NONE', #158, #39, #255, .T. ) ;
#199 = CIRCLE ( 'NONE', #284, 0.1249999999999996808 ) ;
#200 = FILL_AREA_STYLE ('',( #106 ) ) ;
#201 = DIRECTION ( 'NONE',  ( 0.000000000000000000, 0.000000000000000000, 1.000000000000000000 ) ) ;
#202 =( CONVERSION_BASED_UNIT ( 'INCH', #176 ) LENGTH_UNIT ( ) NAMED_UNIT ( #238 ) );
#203 = DIRECTION ( 'NONE',  ( 1.231882382905062056E-16, -1.000000000000000000, 0.000000000000000000 ) ) ;
#204 = AXIS2_PLACEMENT_3D ( 'NONE', #314, #57, #35 ) ;
#205 = SURFACE_STYLE_FILL_AREA ( #56 ) ;
#206 = CIRCLE ( 'NONE', #340, 0.1249999999999999445 ) ;
#207 = UNCERTAINTY_MEASURE_WITH_UNIT (LENGTH_MEASURE( 1.000000000000000082E-05 ), #317, 'distance_accuracy_value', 'NONE');
#208 = EDGE_CURVE ( 'NONE', #39, #158, #199, .T. ) ;
#209 = MECHANICAL_DESIGN_GEOMETRIC_PRESENTATION_REPRESENTATION (  '', ( #12 ), #103 ) ;
#210 = LINE ( 'NONE', #296, #182 ) ;
#211 = MECHANICAL_DESIGN_GEOMETRIC_PRESENTATION_REPRESENTATION (  '', ( #83 ), #285 ) ;
#212 = EDGE_LOOP ( 'NONE', ( #161, #64, #242, #266 ) ) ;
#213 = LINE ( 'NONE', #366, #283 ) ;
#214 = EDGE_LOOP ( 'NONE', ( #18, #305, #92, #44 ) ) ;
#215 = DIRECTION ( 'NONE',  ( -1.231882382905062056E-16, 1.000000000000000000, -0.000000000000000000 ) ) ;
#216 = FILL_AREA_STYLE ('',( #50 ) ) ;
#217 = ORIENTED_EDGE ( 'NONE', *, *, #190, .T. ) ;
#218 = ORIENTED_EDGE ( 'NONE', *, *, #16, .F. ) ;
#219 = DIRECTION ( 'NONE',  ( -0.000000000000000000, -1.000000000000000000, -0.000000000000000000 ) ) ;
#220 = SURFACE_STYLE_FILL_AREA ( #330 ) ;
#221 = CARTESIAN_POINT ( 'NONE',  ( 0.1250000000000000000, 0.1250000000000000278, 0.000000000000000000 ) ) ;
#222 =( LENGTH_UNIT ( ) NAMED_UNIT ( * ) SI_UNIT ( $, .METRE. ) );
#223 = CIRCLE ( 'NONE', #268, 0.1250000000000000000 ) ;
#224 = PLANE ( 'NONE',  #102 ) ;
#225 = COLOUR_RGB ( '',1.000000000000000000, 0.000000000000000000, 0.000000000000000000 ) ;
#226 = UNCERTAINTY_MEASURE_WITH_UNIT (LENGTH_MEASURE( 1.000000000000000082E-05 ), #202, 'distance_accuracy_value', 'NONE');
#227 = SHAPE_DEFINITION_REPRESENTATION ( #288, #163 ) ;
#228 = CIRCLE ( 'NONE', #204, 0.1250000000000000000 ) ;
#229 = FACE_OUTER_BOUND ( 'NONE', #364, .T. ) ;
#230 = PRESENTATION_STYLE_ASSIGNMENT (( #297 ) ) ;
#231 =( NAMED_UNIT ( * ) SI_UNIT ( $, .STERADIAN. ) SOLID_ANGLE_UNIT ( ) );
#232 =( NAMED_UNIT ( * ) PLANE_ANGLE_UNIT ( ) SI_UNIT ( $, .RADIAN. ) );
#233 =( CONVERSION_BASED_UNIT ( 'INCH', #120 ) LENGTH_UNIT ( ) NAMED_UNIT ( #289 ) );
#234 = DIRECTION ( 'NONE',  ( -1.000000000000000000, 0.000000000000000000, 0.000000000000000000 ) ) ;
#235 = APPLICATION_CONTEXT ( 'automotive_design' ) ;
#236 = SURFACE_STYLE_USAGE ( .BOTH. , #350 ) ;
#237 = DIRECTION ( 'NONE',  ( -0.000000000000000000, -1.000000000000000000, -0.000000000000000000 ) ) ;
#238 = DIMENSIONAL_EXPONENTS ( 1.000000000000000000, 0.000000000000000000, 0.000000000000000000, 0.000000000000000000, 0.000000000000000000, 0.000000000000000000, 0.000000000000000000 ) ;
#239 = ORIENTED_EDGE ( 'NONE', *, *, #282, .F. ) ;
#240 = DIMENSIONAL_EXPONENTS ( 1.000000000000000000, 0.000000000000000000, 0.000000000000000000, 0.000000000000000000, 0.000000000000000000, 0.000000000000000000, 0.000000000000000000 ) ;
#241 = ORIENTED_EDGE ( 'NONE', *, *, #133, .T. ) ;
#242 = ORIENTED_EDGE ( 'NONE', *, *, #292, .F. ) ;
#243 =( GEOMETRIC_REPRESENTATION_CONTEXT ( 3 ) GLOBAL_UNCERTAINTY_ASSIGNED_CONTEXT ( ( #40 ) ) GLOBAL_UNIT_ASSIGNED_CONTEXT ( ( #249, #232, #33 ) ) REPRESENTATION_CONTEXT ( 'NONE', 'WORKASPACE' ) );
#244 = SURFACE_STYLE_USAGE ( .BOTH. , #134 ) ;
#245 = DIRECTION ( 'NONE',  ( -0.000000000000000000, -1.000000000000000000, -0.000000000000000000 ) ) ;
#246 = SURFACE_SIDE_STYLE ('',( #54 ) ) ;
#247 = EDGE_CURVE ( 'NONE', #158, #129, #338, .T. ) ;
#248 = DIRECTION ( 'NONE',  ( -0.000000000000000000, -1.000000000000000000, -0.000000000000000000 ) ) ;
#249 =( CONVERSION_BASED_UNIT ( 'INCH', #25 ) LENGTH_UNIT ( ) NAMED_UNIT ( #145 ) );
#250 = SURFACE_STYLE_USAGE ( .BOTH. , #130 ) ;
#251 =( NAMED_UNIT ( * ) PLANE_ANGLE_UNIT ( ) SI_UNIT ( $, .RADIAN. ) );
#252 =( GEOMETRIC_REPRESENTATION_CONTEXT ( 3 ) GLOBAL_UNCERTAINTY_ASSIGNED_CONTEXT ( ( #353 ) ) GLOBAL_UNIT_ASSIGNED_CONTEXT ( ( #354, #149, #118 ) ) REPRESENTATION_CONTEXT ( 'NONE', 'WORKASPACE' ) );
#253 = EDGE_CURVE ( 'NONE', #128, #88, #206, .T. ) ;
#254 = AXIS2_PLACEMENT_3D ( 'NONE', #335, #245, #79 ) ;
#255 = CIRCLE ( 'NONE', #357, 0.1249999999999996808 ) ;
#256 = APPLICATION_PROTOCOL_DEFINITION ( 'draft international standard', 'automotive_design', 1998, #264 ) ;
#257 = CARTESIAN_POINT ( 'NONE',  ( 0.1249999999999999306, 0.3749999999999999445, 1.530808498934189352E-17 ) ) ;
#258 = DIMENSIONAL_EXPONENTS ( 1.000000000000000000, 0.000000000000000000, 0.000000000000000000, 0.000000000000000000, 0.000000000000000000, 0.000000000000000000, 0.000000000000000000 ) ;
#259 = SURFACE_STYLE_FILL_AREA ( #58 ) ;
#260 = CIRCLE ( 'NONE', #11, 0.1250000000000000000 ) ;
#261 = PRESENTATION_LAYER_ASSIGNMENT (  '', '', ( #12 ) ) ;
#262 = DIRECTION ( 'NONE',  ( 1.000000000000000000, 0.000000000000000000, 0.000000000000000000 ) ) ;
#263 = ADVANCED_FACE ( 'NONE', ( #93 ), #169, .T. ) ;
#264 = APPLICATION_CONTEXT ( 'automotive_design' ) ;
#265 =( LENGTH_UNIT ( ) NAMED_UNIT ( * ) SI_UNIT ( $, .METRE. ) );
#266 = ORIENTED_EDGE ( 'NONE', *, *, #247, .F. ) ;
#267 = UNCERTAINTY_MEASURE_WITH_UNIT (LENGTH_MEASURE( 1.000000000000000082E-05 ), #300, 'distance_accuracy_value', 'NONE');
#268 = AXIS2_PLACEMENT_3D ( 'NONE', #319, #140, #1 ) ;
#269 = VERTEX_POINT ( 'NONE', #135 ) ;
#270 = DIRECTION ( 'NONE',  ( -1.231882382905062056E-16, 1.000000000000000000, -0.000000000000000000 ) ) ;
#271 = ORIENTED_EDGE ( 'NONE', *, *, #198, .F. ) ;
#272 = AXIS2_PLACEMENT_3D ( 'NONE', #274, #74, #277 ) ;
#273 = LENGTH_MEASURE_WITH_UNIT ( LENGTH_MEASURE( 0.02539999999999999897 ), #371 );
#274 = CARTESIAN_POINT ( 'NONE',  ( 0.000000000000000000, 0.1250000000000000278, 0.000000000000000000 ) ) ;
#275 = ORIENTED_EDGE ( 'NONE', *, *, #365, .T. ) ;
#276 = CARTESIAN_POINT ( 'NONE',  ( 6.123233995736766036E-17, 2.000000000000000000, 0.000000000000000000 ) ) ;
#277 = DIRECTION ( 'NONE',  ( 0.000000000000000000, 0.000000000000000000, -1.000000000000000000 ) ) ;
#278 = CIRCLE ( 'NONE', #77, 0.1249999999999999445 ) ;
#279 = DIRECTION ( 'NONE',  ( 0.000000000000000000, 1.000000000000000000, 0.000000000000000000 ) ) ;
#280 =( GEOMETRIC_REPRESENTATION_CONTEXT ( 3 ) GLOBAL_UNCERTAINTY_ASSIGNED_CONTEXT ( ( #8 ) ) GLOBAL_UNIT_ASSIGNED_CONTEXT ( ( #47, #251, #166 ) ) REPRESENTATION_CONTEXT ( 'NONE', 'WORKASPACE' ) );
#281 =( NAMED_UNIT ( * ) PLANE_ANGLE_UNIT ( ) SI_UNIT ( $, .RADIAN. ) );
#282 = EDGE_CURVE ( 'NONE', #124, #10, #110, .T. ) ;
#283 = VECTOR ( 'NONE', #51, 39.37007874015748143 ) ;
#284 = AXIS2_PLACEMENT_3D ( 'NONE', #363, #43, #195 ) ;
#285 =( GEOMETRIC_REPRESENTATION_CONTEXT ( 3 ) GLOBAL_UNCERTAINTY_ASSIGNED_CONTEXT ( ( #207 ) ) GLOBAL_UNIT_ASSIGNED_CONTEXT ( ( #317, #4, #154 ) ) REPRESENTATION_CONTEXT ( 'NONE', 'WORKASPACE' ) );
#286 = CARTESIAN_POINT ( 'NONE',  ( 0.000000000000000000, 0.000000000000000000, 0.000000000000000000 ) ) ;
#287 = CYLINDRICAL_SURFACE ( 'NONE', #372, 0.1249999999999997918 ) ;
#288 = PRODUCT_DEFINITION_SHAPE ( 'NONE', 'NONE',  #312 ) ;
#289 = DIMENSIONAL_EXPONENTS ( 1.000000000000000000, 0.000000000000000000, 0.000000000000000000, 0.000000000000000000, 0.000000000000000000, 0.000000000000000000, 0.000000000000000000 ) ;
#290 = DIRECTION ( 'NONE',  ( 0.000000000000000000, 0.000000000000000000, 1.000000000000000000 ) ) ;
#291 = MANIFOLD_SOLID_BREP ( 'Revolve - Tool Body (Straight Shanked)', #167 ) ;
#292 = EDGE_CURVE ( 'NONE', #129, #368, #31, .T. ) ;
#293 = CARTESIAN_POINT ( 'NONE',  ( 0.000000000000000000, 0.000000000000000000, 0.000000000000000000 ) ) ;
#294 = CARTESIAN_POINT ( 'NONE',  ( 1.530808498934190893E-17, 0.3750000000000000555, 0.1249999999999999445 ) ) ;
#295 = COLOUR_RGB ( '',1.000000000000000000, 0.000000000000000000, 0.000000000000000000 ) ;
#296 = CARTESIAN_POINT ( 'NONE',  ( 0.000000000000000000, 0.000000000000000000, -0.1249999999999999584 ) ) ;
#297 = SURFACE_STYLE_USAGE ( .BOTH. , #316 ) ;
#298 = DIRECTION ( 'NONE',  ( 1.224646799147353207E-16, -0.000000000000000000, 1.000000000000000000 ) ) ;
#299 = ORIENTED_EDGE ( 'NONE', *, *, #282, .T. ) ;
#300 =( CONVERSION_BASED_UNIT ( 'INCH', #273 ) LENGTH_UNIT ( ) NAMED_UNIT ( #148 ) );
#301 = SPHERICAL_SURFACE ( 'NONE', #52, 0.1250000000000000000 ) ;
#302 = ORIENTED_EDGE ( 'NONE', *, *, #247, .T. ) ;
#303 = PRESENTATION_STYLE_ASSIGNMENT (( #250 ) ) ;
#304 = ADVANCED_FACE ( 'NONE', ( #178 ), #9, .T. ) ;
#305 = ORIENTED_EDGE ( 'NONE', *, *, #80, .T. ) ;
#306 = FACE_OUTER_BOUND ( 'NONE', #214, .T. ) ;
#307 = AXIS2_PLACEMENT_3D ( 'NONE', #175, #290, #262 ) ;
#308 =( LENGTH_UNIT ( ) NAMED_UNIT ( * ) SI_UNIT ( $, .METRE. ) );
#309 = ADVANCED_FACE ( 'NONE', ( #229 ), #34, .T. ) ;
#310 =( NAMED_UNIT ( * ) SI_UNIT ( $, .STERADIAN. ) SOLID_ANGLE_UNIT ( ) );
#311 = AXIS2_PLACEMENT_3D ( 'NONE', #187, #279, #159 ) ;
#312 = PRODUCT_DEFINITION ( 'UNKNOWN', '', #76, #334 ) ;
#313 = AXIS2_PLACEMENT_3D ( 'NONE', #286, #201, #343 ) ;
#314 = CARTESIAN_POINT ( 'NONE',  ( 0.000000000000000000, 0.1250000000000000278, 0.000000000000000000 ) ) ;
#315 = ADVANCED_FACE ( 'NONE', ( #306 ), #301, .T. ) ;
#316 = SURFACE_SIDE_STYLE ('',( #205 ) ) ;
#317 =( CONVERSION_BASED_UNIT ( 'INCH', #62 ) LENGTH_UNIT ( ) NAMED_UNIT ( #117 ) );
#318 = DIRECTION ( 'NONE',  ( 0.000000000000000000, 0.000000000000000000, -1.000000000000000000 ) ) ;
#319 = CARTESIAN_POINT ( 'NONE',  ( 0.000000000000000000, 0.1250000000000000278, 0.000000000000000000 ) ) ;
#320 = MECHANICAL_DESIGN_GEOMETRIC_PRESENTATION_REPRESENTATION (  '', ( #42 ), #49 ) ;
#321 = DIRECTION ( 'NONE',  ( -1.231882382905062056E-16, 1.000000000000000000, -0.000000000000000000 ) ) ;
#322 = CARTESIAN_POINT ( 'NONE',  ( -1.530808498934191509E-17, 0.1250000000000000000, 0.000000000000000000 ) ) ;
#323 = VERTEX_POINT ( 'NONE', #221 ) ;
#324 = UNCERTAINTY_MEASURE_WITH_UNIT (LENGTH_MEASURE( 1.000000000000000082E-05 ), #84, 'distance_accuracy_value', 'NONE');
#325 = SURFACE_SIDE_STYLE ('',( #259 ) ) ;
#326 = CARTESIAN_POINT ( 'NONE',  ( 0.000000000000000000, 0.3750000000000000555, -0.1249999999999999445 ) ) ;
#327 = ORIENTED_EDGE ( 'NONE', *, *, #133, .F. ) ;
#328 = DIRECTION ( 'NONE',  ( -1.231882382905062056E-16, 1.000000000000000000, -0.000000000000000000 ) ) ;
#329 = ORIENTED_EDGE ( 'NONE', *, *, #190, .F. ) ;
#330 = FILL_AREA_STYLE ('',( #19 ) ) ;
#331 = AXIS2_PLACEMENT_3D ( 'NONE', #37, #270, #370 ) ;
#332 = FACE_OUTER_BOUND ( 'NONE', #212, .T. ) ;
#333 = ORIENTED_EDGE ( 'NONE', *, *, #208, .F. ) ;
#334 = PRODUCT_DEFINITION_CONTEXT ( 'detailed design', #264, 'design' ) ;
#335 = CARTESIAN_POINT ( 'NONE',  ( 0.000000000000000000, 0.000000000000000000, 0.000000000000000000 ) ) ;
#336 =( GEOMETRIC_REPRESENTATION_CONTEXT ( 3 ) GLOBAL_UNCERTAINTY_ASSIGNED_CONTEXT ( ( #61 ) ) GLOBAL_UNIT_ASSIGNED_CONTEXT ( ( #233, #346, #3 ) ) REPRESENTATION_CONTEXT ( 'NONE', 'WORKASPACE' ) );
#337 = ORIENTED_EDGE ( 'NONE', *, *, #253, .T. ) ;
#338 = LINE ( 'NONE', #17, #108 ) ;
#339 = COLOUR_RGB ( '',1.000000000000000000, 0.000000000000000000, 0.000000000000000000 ) ;
#340 = AXIS2_PLACEMENT_3D ( 'NONE', #197, #219, #99 ) ;
#341 = CYLINDRICAL_SURFACE ( 'NONE', #373, 0.1249999999999997918 ) ;
#342 = AXIS2_PLACEMENT_3D ( 'NONE', #293, #36, #153 ) ;
#343 = DIRECTION ( 'NONE',  ( 1.000000000000000000, 0.000000000000000000, 0.000000000000000000 ) ) ;
#344 = CARTESIAN_POINT ( 'NONE',  ( 0.1249999999999999445, 2.000000000000000000, 0.000000000000000000 ) ) ;
#345 = DIMENSIONAL_EXPONENTS ( 1.000000000000000000, 0.000000000000000000, 0.000000000000000000, 0.000000000000000000, 0.000000000000000000, 0.000000000000000000, 0.000000000000000000 ) ;
#346 =( NAMED_UNIT ( * ) PLANE_ANGLE_UNIT ( ) SI_UNIT ( $, .RADIAN. ) );
#347 = CARTESIAN_POINT ( 'NONE',  ( 0.1249999999999999445, 2.000000000000000000, 1.530808498934189660E-17 ) ) ;
#348 = COLOUR_RGB ( '',0.7921568627450980005, 0.8196078431372548767, 0.9333333333333333481 ) ;
#349 = PRESENTATION_STYLE_ASSIGNMENT (( #179 ) ) ;
#350 = SURFACE_SIDE_STYLE ('',( #86 ) ) ;
#351 = CARTESIAN_POINT ( 'NONE',  ( -0.1249999999999994171, 0.3749999999999999445, 0.000000000000000000 ) ) ;
#352 = DIRECTION ( 'NONE',  ( -1.231882382905062056E-16, 1.000000000000000000, -0.000000000000000000 ) ) ;
#353 = UNCERTAINTY_MEASURE_WITH_UNIT (LENGTH_MEASURE( 1.000000000000000082E-05 ), #354, 'distance_accuracy_value', 'NONE');
#354 =( CONVERSION_BASED_UNIT ( 'INCH', #185 ) LENGTH_UNIT ( ) NAMED_UNIT ( #258 ) );
#355 = FACE_OUTER_BOUND ( 'NONE', #132, .T. ) ;
#356 = CARTESIAN_POINT ( 'NONE',  ( -0.1250000000000000000, 0.1250000000000000278, 1.530808498934191201E-17 ) ) ;
#357 = AXIS2_PLACEMENT_3D ( 'NONE', #96, #215, #78 ) ;
#358 = DIRECTION ( 'NONE',  ( -1.000000000000000000, 0.000000000000000000, 0.000000000000000000 ) ) ;
#359 = ADVANCED_FACE ( 'NONE', ( #332 ), #341, .T. ) ;
#360 = PRESENTATION_STYLE_ASSIGNMENT (( #236 ) ) ;
#361 = DIRECTION ( 'NONE',  ( -0.000000000000000000, -1.000000000000000000, -0.000000000000000000 ) ) ;
#362 = EDGE_LOOP ( 'NONE', ( #299, #196, #188, #275 ) ) ;
#363 = CARTESIAN_POINT ( 'NONE',  ( 2.614132271794402599E-16, 0.3749999999999999445, 0.000000000000000000 ) ) ;
#364 = EDGE_LOOP ( 'NONE', ( #241, #164, #48, #72, #218 ) ) ;
#365 = EDGE_CURVE ( 'NONE', #323, #124, #119, .T. ) ;
#366 = CARTESIAN_POINT ( 'NONE',  ( 0.1249999999999998612, 2.000000000000000000, 1.530808498934189044E-17 ) ) ;
#367 = MECHANICAL_DESIGN_GEOMETRIC_PRESENTATION_REPRESENTATION (  '', ( #181 ), #243 ) ;
#368 = VERTEX_POINT ( 'NONE', #347 ) ;
#369 = PRESENTATION_STYLE_ASSIGNMENT (( #244 ) ) ;
#370 = DIRECTION ( 'NONE',  ( -1.000000000000000000, 0.000000000000000000, 0.000000000000000000 ) ) ;
#371 =( LENGTH_UNIT ( ) NAMED_UNIT ( * ) SI_UNIT ( $, .METRE. ) );
#372 = AXIS2_PLACEMENT_3D ( 'NONE', #115, #352, #141 ) ;
#373 = AXIS2_PLACEMENT_3D ( 'NONE', #131, #193, #45 ) ;
ENDSEC;
END-ISO-10303-21;
