ISO-10303-21;
HEADER;
FILE_DESCRIPTION (( 'STEP AP214' ),
    '1' );
FILE_NAME ('Micro_BMRM-010-2X.STEP',
    '2021-09-03T14:22:59',
    ( '' ),
    ( '' ),
    'SwSTEP 2.0',
    'SolidWorks 2020',
    '' );
FILE_SCHEMA (( 'AUTOMOTIVE_DESIGN' ));
ENDSEC;

DATA;
#1 = DIRECTION ( 'NONE',  ( -0.0000000000000000000, -0.0000000000000000000, -1.000000000000000000 ) ) ;
#2 = VERTEX_POINT ( 'NONE', #109 ) ;
#3 = ORIENTED_EDGE ( 'NONE', *, *, #25, .F. ) ;
#4 = CIRCLE ( 'NONE', #47, 0.07874000000000000443 ) ;
#5 = DIRECTION ( 'NONE',  ( -1.000000000000000000, 0.0000000000000000000, 0.0000000000000000000 ) ) ;
#6 = CYLINDRICAL_SURFACE ( 'NONE', #21, 0.01966531500000000265 ) ;
#7 = ORIENTED_EDGE ( 'NONE', *, *, #39, .T. ) ;
#8 = UNCERTAINTY_MEASURE_WITH_UNIT (LENGTH_MEASURE( 1.000000000000000082E-05 ), #275, 'distance_accuracy_value', 'NONE');
#9 = ORIENTED_EDGE ( 'NONE', *, *, #45, .T. ) ;
#10 = VECTOR ( 'NONE', #265, 39.37007874015748143 ) ;
#11 = FACE_OUTER_BOUND ( 'NONE', #233, .T. ) ;
#12 = FACE_OUTER_BOUND ( 'NONE', #303, .T. ) ;
#13 = CARTESIAN_POINT ( 'NONE',  ( -0.07874000000000000443, 0.0000000000000000000, 1.968503999999999809 ) ) ;
#14 = SPHERICAL_SURFACE ( 'NONE', #28, 0.01966531499999999918 ) ;
#15 = CARTESIAN_POINT ( 'NONE',  ( 3.612459760346164074E-18, 0.0000000000000000000, 0.0000000000000000000 ) ) ;
#16 = CIRCLE ( 'NONE', #157, 0.06374000000000018540 ) ;
#17 = CARTESIAN_POINT ( 'NONE',  ( 2.408306506897442716E-18, 0.0000000000000000000, 0.01966531499999999918 ) ) ;
#18 = ORIENTED_EDGE ( 'NONE', *, *, #296, .F. ) ;
#19 = CARTESIAN_POINT ( 'NONE',  ( 0.0000000000000000000, 0.0000000000000000000, 1.968503999999999809 ) ) ;
#20 = DIRECTION ( 'NONE',  ( -1.000000000000000000, 0.0000000000000000000, 0.0000000000000000000 ) ) ;
#21 = AXIS2_PLACEMENT_3D ( 'NONE', #59, #106, #203 ) ;
#22 = STYLED_ITEM ( 'NONE', ( #114 ), #243 ) ;
#23 = FACE_OUTER_BOUND ( 'NONE', #30, .T. ) ;
#24 = ORIENTED_EDGE ( 'NONE', *, *, #214, .T. ) ;
#25 = EDGE_CURVE ( 'NONE', #306, #2, #278, .T. ) ;
#26 = CYLINDRICAL_SURFACE ( 'NONE', #254, 0.07874000000000000443 ) ;
#27 = CARTESIAN_POINT ( 'NONE',  ( 2.408306506897442716E-18, 0.0000000000000000000, 0.01966531499999999918 ) ) ;
#28 = AXIS2_PLACEMENT_3D ( 'NONE', #116, #188, #290 ) ;
#29 = UNCERTAINTY_MEASURE_WITH_UNIT (LENGTH_MEASURE( 1.000000000000000082E-05 ), #174, 'distance_accuracy_value', 'NONE');
#30 = EDGE_LOOP ( 'NONE', ( #201, #7, #146, #79 ) ) ;
#31 = ORIENTED_EDGE ( 'NONE', *, *, #131, .F. ) ;
#32 = ADVANCED_FACE ( 'NONE', ( #230 ), #6, .T. ) ;
#33 = DIRECTION ( 'NONE',  ( 1.000000000000000000, 0.0000000000000000000, 0.0000000000000000000 ) ) ;
#34 = AXIS2_PLACEMENT_3D ( 'NONE', #266, #84, #286 ) ;
#35 = AXIS2_PLACEMENT_3D ( 'NONE', #196, #74, #294 ) ;
#36 = CARTESIAN_POINT ( 'NONE',  ( 5.549354549769427352E-17, 0.0000000000000000000, 0.4531391870401411670 ) ) ;
#37 = DIRECTION ( 'NONE',  ( 0.0000000000000000000, 0.0000000000000000000, -1.000000000000000000 ) ) ;
#38 = DIRECTION ( 'NONE',  ( 1.000000000000000000, 0.0000000000000000000, 0.0000000000000000000 ) ) ;
#39 = EDGE_CURVE ( 'NONE', #232, #276, #67, .T. ) ;
#40 = LINE ( 'NONE', #132, #240 ) ;
#41 = AXIS2_PLACEMENT_3D ( 'NONE', #140, #247, #119 ) ;
#42 =( CONVERSION_BASED_UNIT ( 'INCH', #96 ) LENGTH_UNIT ( ) NAMED_UNIT ( #248 ) );
#43 = PRODUCT_DEFINITION_CONTEXT ( 'detailed design', #322, 'design' ) ;
#44 = DIRECTION ( 'NONE',  ( 1.000000000000000000, 0.0000000000000000000, 0.0000000000000000000 ) ) ;
#45 = EDGE_CURVE ( 'NONE', #181, #2, #40, .T. ) ;
#46 = CARTESIAN_POINT ( 'NONE',  ( 0.01966531500000001306, 0.0000000000000000000, 0.1181100000000000066 ) ) ;
#47 = AXIS2_PLACEMENT_3D ( 'NONE', #288, #211, #38 ) ;
#48 = PRESENTATION_STYLE_ASSIGNMENT (( #98 ) ) ;
#49 = FILL_AREA_STYLE_COLOUR ( '', #180 ) ;
#50 = LENGTH_MEASURE_WITH_UNIT ( LENGTH_MEASURE( 0.02539999999999999897 ), #150 );
#51 = CIRCLE ( 'NONE', #287, 0.07874000000000000443 ) ;
#52 = AXIS2_PLACEMENT_3D ( 'NONE', #210, #236, #5 ) ;
#53 = ORIENTED_EDGE ( 'NONE', *, *, #161, .F. ) ;
#54 = ORIENTED_EDGE ( 'NONE', *, *, #199, .T. ) ;
#55 = ORIENTED_EDGE ( 'NONE', *, *, #218, .T. ) ;
#56 = CONICAL_SURFACE ( 'NONE', #41, 0.06374000000000018540, 0.7853981633974522758 ) ;
#57 = DIRECTION ( 'NONE',  ( -1.000000000000000000, 0.0000000000000000000, 0.0000000000000000000 ) ) ;
#58 = ORIENTED_EDGE ( 'NONE', *, *, #296, .T. ) ;
#59 = CARTESIAN_POINT ( 'NONE',  ( 0.0000000000000000000, 0.0000000000000000000, 0.0000000000000000000 ) ) ;
#60 = CYLINDRICAL_SURFACE ( 'NONE', #105, 0.01966531500000000265 ) ;
#61 = CIRCLE ( 'NONE', #52, 0.01966531500000000265 ) ;
#62 = CARTESIAN_POINT ( 'NONE',  ( 0.06374000000000018540, 8.724383797125754882E-18, 1.968503999999999809 ) ) ;
#63 = EDGE_CURVE ( 'NONE', #276, #80, #184, .T. ) ;
#64 = CARTESIAN_POINT ( 'NONE',  ( -0.01966531499999998878, 6.025587701691850612E-18, 0.1181100000000000066 ) ) ;
#65 = DIRECTION ( 'NONE',  ( 1.000000000000000000, 0.0000000000000000000, 0.0000000000000000000 ) ) ;
#66 = DIRECTION ( 'NONE',  ( 0.0000000000000000000, 1.000000000000000000, 0.0000000000000000000 ) ) ;
#67 = CIRCLE ( 'NONE', #323, 0.07874000000000000443 ) ;
#68 = PRESENTATION_LAYER_ASSIGNMENT (  '', '', ( #308 ) ) ;
#69 = CARTESIAN_POINT ( 'NONE',  ( 0.01966531500000000612, 2.408306506897443486E-18, 0.01966531499999999225 ) ) ;
#70 = FILL_AREA_STYLE ('',( #49 ) ) ;
#71 = AXIS2_PLACEMENT_3D ( 'NONE', #17, #143, #122 ) ;
#72 = EDGE_LOOP ( 'NONE', ( #3, #54, #226 ) ) ;
#73 = CONICAL_SURFACE ( 'NONE', #35, 0.06374000000000018540, 0.7853981633974522758 ) ;
#74 = DIRECTION ( 'NONE',  ( 0.0000000000000000000, 0.0000000000000000000, -1.000000000000000000 ) ) ;
#75 = FILL_AREA_STYLE ('',( #102 ) ) ;
#76 = ORIENTED_EDGE ( 'NONE', *, *, #152, .T. ) ;
#77 = VECTOR ( 'NONE', #299, 39.37007874015747433 ) ;
#78 = ORIENTED_EDGE ( 'NONE', *, *, #161, .T. ) ;
#79 = ORIENTED_EDGE ( 'NONE', *, *, #177, .F. ) ;
#80 = VERTEX_POINT ( 'NONE', #316 ) ;
#81 = MECHANICAL_DESIGN_GEOMETRIC_PRESENTATION_REPRESENTATION (  '', ( #308 ), #200 ) ;
#82 = ORIENTED_EDGE ( 'NONE', *, *, #227, .F. ) ;
#83 = CARTESIAN_POINT ( 'NONE',  ( 1.446430334472939084E-17, 0.0000000000000000000, 0.1181100000000000066 ) ) ;
#84 = DIRECTION ( 'NONE',  ( 1.224646799147353207E-16, 0.0000000000000000000, 1.000000000000000000 ) ) ;
#85 = PRODUCT ( 'Micro_BMRM-010-2X', 'Micro_BMRM-010-2X', '', ( #125 ) ) ;
#86 = VECTOR ( 'NONE', #163, 39.37007874015748854 ) ;
#87 = CARTESIAN_POINT ( 'NONE',  ( 0.0000000000000000000, 0.0000000000000000000, 1.968503999999999809 ) ) ;
#88 = DIRECTION ( 'NONE',  ( -0.7071067811865502373, 0.0000000000000000000, -0.7071067811865446862 ) ) ;
#89 = DIRECTION ( 'NONE',  ( -1.224646799147353207E-16, -0.0000000000000000000, -1.000000000000000000 ) ) ;
#90 = ADVANCED_FACE ( 'NONE', ( #310 ), #136, .T. ) ;
#91 = CONICAL_SURFACE ( 'NONE', #224, 0.01966531500000000265, 0.1745329251994338915 ) ;
#92 = CARTESIAN_POINT ( 'NONE',  ( 1.446430334472939084E-17, 0.0000000000000000000, 0.1181100000000000066 ) ) ;
#93 =( GEOMETRIC_REPRESENTATION_CONTEXT ( 3 ) GLOBAL_UNCERTAINTY_ASSIGNED_CONTEXT ( ( #29 ) ) GLOBAL_UNIT_ASSIGNED_CONTEXT ( ( #174, #145, #148 ) ) REPRESENTATION_CONTEXT ( 'NONE', 'WORKASPACE' ) );
#94 = DIRECTION ( 'NONE',  ( 1.000000000000000000, 0.0000000000000000000, -0.0000000000000000000 ) ) ;
#95 = CARTESIAN_POINT ( 'NONE',  ( 0.06374000000000018540, 7.805898697765251255E-18, 1.968503999999999809 ) ) ;
#96 = LENGTH_MEASURE_WITH_UNIT ( LENGTH_MEASURE( 0.02539999999999999897 ), #223 );
#97 = ADVANCED_FACE ( 'NONE', ( #187 ), #91, .T. ) ;
#98 = SURFACE_STYLE_USAGE ( .BOTH. , #120 ) ;
#99 = ADVANCED_FACE ( 'NONE', ( #284 ), #60, .T. ) ;
#100 =( NAMED_UNIT ( * ) PLANE_ANGLE_UNIT ( ) SI_UNIT ( $, .RADIAN. ) );
#101 = ORIENTED_EDGE ( 'NONE', *, *, #177, .T. ) ;
#102 = FILL_AREA_STYLE_COLOUR ( '', #258 ) ;
#103 = EDGE_CURVE ( 'NONE', #301, #195, #289, .T. ) ;
#104 = ORIENTED_EDGE ( 'NONE', *, *, #218, .F. ) ;
#105 = AXIS2_PLACEMENT_3D ( 'NONE', #155, #89, #263 ) ;
#106 = DIRECTION ( 'NONE',  ( -1.224646799147353207E-16, -0.0000000000000000000, -1.000000000000000000 ) ) ;
#107 = LENGTH_MEASURE_WITH_UNIT ( LENGTH_MEASURE( 0.02539999999999999897 ), #231 );
#108 = ORIENTED_EDGE ( 'NONE', *, *, #256, .T. ) ;
#109 = CARTESIAN_POINT ( 'NONE',  ( -0.01966531499999999918, 0.0000000000000000000, 0.01966531500000000265 ) ) ;
#110 = AXIS2_PLACEMENT_3D ( 'NONE', #36, #314, #234 ) ;
#111 = PRESENTATION_LAYER_ASSIGNMENT (  '', '', ( #22 ) ) ;
#112 = DIRECTION ( 'NONE',  ( -1.000000000000000000, 0.0000000000000000000, 2.170579261049421609E-16 ) ) ;
#113 = CARTESIAN_POINT ( 'NONE',  ( 0.01966531500000000265, 2.408306506897443486E-18, -2.408306506897443486E-18 ) ) ;
#114 = PRESENTATION_STYLE_ASSIGNMENT (( #135 ) ) ;
#115 = PLANE ( 'NONE',  #269 ) ;
#116 = CARTESIAN_POINT ( 'NONE',  ( 2.408306506897442716E-18, 0.0000000000000000000, 0.01966531499999999918 ) ) ;
#117 =( NAMED_UNIT ( * ) SI_UNIT ( $, .STERADIAN. ) SOLID_ANGLE_UNIT ( ) );
#118 = SURFACE_STYLE_FILL_AREA ( #70 ) ;
#119 = DIRECTION ( 'NONE',  ( -1.000000000000000000, 0.0000000000000000000, 0.0000000000000000000 ) ) ;
#120 = SURFACE_SIDE_STYLE ('',( #118 ) ) ;
#121 = PRODUCT_RELATED_PRODUCT_CATEGORY ( 'part', '', ( #85 ) ) ;
#122 = DIRECTION ( 'NONE',  ( 0.0000000000000000000, 0.0000000000000000000, -1.000000000000000000 ) ) ;
#123 = EDGE_LOOP ( 'NONE', ( #153, #104, #259, #101 ) ) ;
#124 = ORIENTED_EDGE ( 'NONE', *, *, #152, .F. ) ;
#125 = PRODUCT_CONTEXT ( 'NONE', #222, 'mechanical' ) ;
#126 = DIRECTION ( 'NONE',  ( 1.224646799147353207E-16, 1.000000000000000000, -0.0000000000000000000 ) ) ;
#127 = DIRECTION ( 'NONE',  ( 0.0000000000000000000, 0.0000000000000000000, 1.000000000000000000 ) ) ;
#128 = EDGE_CURVE ( 'NONE', #262, #276, #134, .T. ) ;
#129 = EDGE_LOOP ( 'NONE', ( #257, #18, #280, #204 ) ) ;
#130 = ORIENTED_EDGE ( 'NONE', *, *, #199, .F. ) ;
#131 = EDGE_CURVE ( 'NONE', #80, #195, #252, .T. ) ;
#132 = CARTESIAN_POINT ( 'NONE',  ( -0.01966531500000000265, 0.0000000000000000000, 2.408306506897443486E-18 ) ) ;
#133 = CIRCLE ( 'NONE', #324, 0.01966531500000000265 ) ;
#134 = LINE ( 'NONE', #162, #185 ) ;
#135 = SURFACE_STYLE_USAGE ( .BOTH. , #171 ) ;
#136 = SPHERICAL_SURFACE ( 'NONE', #206, 0.01966531499999999918 ) ;
#137 = DIRECTION ( 'NONE',  ( 1.224646799147353207E-16, 0.0000000000000000000, 1.000000000000000000 ) ) ;
#138 = CARTESIAN_POINT ( 'NONE',  ( 2.408306506897442716E-18, 0.0000000000000000000, 0.01966531499999999918 ) ) ;
#139 = PRODUCT_DEFINITION ( 'UNKNOWN', '', #302, #43 ) ;
#140 = CARTESIAN_POINT ( 'NONE',  ( 0.0000000000000000000, 0.0000000000000000000, 1.968503999999999809 ) ) ;
#141 = FACE_OUTER_BOUND ( 'NONE', #175, .T. ) ;
#142 = ORIENTED_EDGE ( 'NONE', *, *, #63, .F. ) ;
#143 = DIRECTION ( 'NONE',  ( 0.0000000000000000000, -1.000000000000000000, 0.0000000000000000000 ) ) ;
#144 = AXIS2_PLACEMENT_3D ( 'NONE', #215, #235, #112 ) ;
#145 =( NAMED_UNIT ( * ) PLANE_ANGLE_UNIT ( ) SI_UNIT ( $, .RADIAN. ) );
#146 = ORIENTED_EDGE ( 'NONE', *, *, #63, .T. ) ;
#147 = CLOSED_SHELL ( 'NONE', ( #156, #99, #164, #307, #260, #311, #192, #238, #97, #32, #90 ) ) ;
#148 =( NAMED_UNIT ( * ) SI_UNIT ( $, .STERADIAN. ) SOLID_ANGLE_UNIT ( ) );
#149 = ORIENTED_EDGE ( 'NONE', *, *, #103, .F. ) ;
#150 =( LENGTH_UNIT ( ) NAMED_UNIT ( * ) SI_UNIT ( $, .METRE. ) );
#151 = ORIENTED_EDGE ( 'NONE', *, *, #320, .T. ) ;
#152 = EDGE_CURVE ( 'NONE', #221, #2, #291, .T. ) ;
#153 = ORIENTED_EDGE ( 'NONE', *, *, #244, .F. ) ;
#154 = ORIENTED_EDGE ( 'NONE', *, *, #45, .F. ) ;
#155 = CARTESIAN_POINT ( 'NONE',  ( 0.0000000000000000000, 0.0000000000000000000, 0.0000000000000000000 ) ) ;
#156 = ADVANCED_FACE ( 'NONE', ( #11 ), #14, .T. ) ;
#157 = AXIS2_PLACEMENT_3D ( 'NONE', #325, #190, #318 ) ;
#158 = CARTESIAN_POINT ( 'NONE',  ( 5.549354549769427352E-17, 0.0000000000000000000, 0.4531391870401411670 ) ) ;
#159 = DIRECTION ( 'NONE',  ( 0.1736481776669313859, 0.0000000000000000000, 0.9848077530122077983 ) ) ;
#160 = DIRECTION ( 'NONE',  ( 1.000000000000000000, 0.0000000000000000000, 0.0000000000000000000 ) ) ;
#161 = EDGE_CURVE ( 'NONE', #301, #221, #208, .T. ) ;
#162 = CARTESIAN_POINT ( 'NONE',  ( -0.06374000000000018540, 0.0000000000000000000, 1.968503999999999809 ) ) ;
#163 = DIRECTION ( 'NONE',  ( 0.7071067811865502373, 8.659560562354966138E-17, -0.7071067811865446862 ) ) ;
#164 = ADVANCED_FACE ( 'NONE', ( #209 ), #317, .T. ) ;
#165 = EDGE_CURVE ( 'NONE', #2, #221, #212, .T. ) ;
#166 = CIRCLE ( 'NONE', #71, 0.01966531499999999918 ) ;
#167 = LINE ( 'NONE', #95, #86 ) ;
#168 = CIRCLE ( 'NONE', #207, 0.06374000000000018540 ) ;
#169 = EDGE_LOOP ( 'NONE', ( #53, #55, #9, #277 ) ) ;
#170 = DIRECTION ( 'NONE',  ( -1.000000000000000000, 0.0000000000000000000, 0.0000000000000000000 ) ) ;
#171 = SURFACE_SIDE_STYLE ('',( #279 ) ) ;
#172 = AXIS2_PLACEMENT_3D ( 'NONE', #312, #137, #65 ) ;
#173 = VERTEX_POINT ( 'NONE', #62 ) ;
#174 =( CONVERSION_BASED_UNIT ( 'INCH', #50 ) LENGTH_UNIT ( ) NAMED_UNIT ( #292 ) );
#175 = EDGE_LOOP ( 'NONE', ( #82, #24, #321, #251 ) ) ;
#176 = CARTESIAN_POINT ( 'NONE',  ( 0.0000000000000000000, 0.0000000000000000000, 1.953504000000000129 ) ) ;
#177 = EDGE_CURVE ( 'NONE', #195, #80, #51, .T. ) ;
#178 = EDGE_LOOP ( 'NONE', ( #228, #108, #31, #142 ) ) ;
#179 = VECTOR ( 'NONE', #183, 39.37007874015748143 ) ;
#180 = COLOUR_RGB ( '',0.7921568627450980005, 0.8196078431372548767, 0.9333333333333333481 ) ;
#181 = VERTEX_POINT ( 'NONE', #64 ) ;
#182 = EDGE_CURVE ( 'NONE', #276, #232, #4, .T. ) ;
#183 = DIRECTION ( 'NONE',  ( -0.0000000000000000000, -0.0000000000000000000, -1.000000000000000000 ) ) ;
#184 = LINE ( 'NONE', #13, #179 ) ;
#185 = VECTOR ( 'NONE', #88, 39.37007874015748854 ) ;
#186 = DIRECTION ( 'NONE',  ( 0.0000000000000000000, 0.0000000000000000000, 1.000000000000000000 ) ) ;
#187 = FACE_OUTER_BOUND ( 'NONE', #123, .T. ) ;
#188 = DIRECTION ( 'NONE',  ( 0.0000000000000000000, 1.000000000000000000, 0.0000000000000000000 ) ) ;
#189 =( GEOMETRIC_REPRESENTATION_CONTEXT ( 3 ) GLOBAL_UNCERTAINTY_ASSIGNED_CONTEXT ( ( #8 ) ) GLOBAL_UNIT_ASSIGNED_CONTEXT ( ( #275, #100, #300 ) ) REPRESENTATION_CONTEXT ( 'NONE', 'WORKASPACE' ) );
#190 = DIRECTION ( 'NONE',  ( 0.0000000000000000000, 0.0000000000000000000, 1.000000000000000000 ) ) ;
#191 = DIRECTION ( 'NONE',  ( -1.224646799147353207E-16, -0.0000000000000000000, -1.000000000000000000 ) ) ;
#192 = ADVANCED_FACE ( 'NONE', ( #12 ), #115, .T. ) ;
#193 = CARTESIAN_POINT ( 'NONE',  ( -0.01966531499999998878, 2.408306506897443486E-18, 0.1181100000000000066 ) ) ;
#194 = DIMENSIONAL_EXPONENTS ( 1.000000000000000000, 0.0000000000000000000, 0.0000000000000000000, 0.0000000000000000000, 0.0000000000000000000, 0.0000000000000000000, 0.0000000000000000000 ) ;
#195 = VERTEX_POINT ( 'NONE', #220 ) ;
#196 = CARTESIAN_POINT ( 'NONE',  ( 0.0000000000000000000, 0.0000000000000000000, 1.968503999999999809 ) ) ;
#197 = AXIS2_PLACEMENT_3D ( 'NONE', #19, #250, #20 ) ;
#198 = ORIENTED_EDGE ( 'NONE', *, *, #25, .T. ) ;
#199 = EDGE_CURVE ( 'NONE', #306, #221, #166, .T. ) ;
#200 =( GEOMETRIC_REPRESENTATION_CONTEXT ( 3 ) GLOBAL_UNCERTAINTY_ASSIGNED_CONTEXT ( ( #305 ) ) GLOBAL_UNIT_ASSIGNED_CONTEXT ( ( #42, #297, #117 ) ) REPRESENTATION_CONTEXT ( 'NONE', 'WORKASPACE' ) );
#201 = ORIENTED_EDGE ( 'NONE', *, *, #256, .F. ) ;
#202 = DIRECTION ( 'NONE',  ( 1.000000000000000000, 0.0000000000000000000, 0.0000000000000000000 ) ) ;
#203 = DIRECTION ( 'NONE',  ( -1.000000000000000000, 0.0000000000000000000, 1.224646799147353207E-16 ) ) ;
#204 = ORIENTED_EDGE ( 'NONE', *, *, #39, .F. ) ;
#205 = DIRECTION ( 'NONE',  ( -1.000000000000000000, 1.224646799147352961E-16, 0.0000000000000000000 ) ) ;
#206 = AXIS2_PLACEMENT_3D ( 'NONE', #138, #66, #160 ) ;
#207 = AXIS2_PLACEMENT_3D ( 'NONE', #249, #216, #44 ) ;
#208 = LINE ( 'NONE', #113, #10 ) ;
#209 = FACE_OUTER_BOUND ( 'NONE', #282, .T. ) ;
#210 = CARTESIAN_POINT ( 'NONE',  ( 1.446430334472939084E-17, 0.0000000000000000000, 0.1181100000000000066 ) ) ;
#211 = DIRECTION ( 'NONE',  ( 0.0000000000000000000, 0.0000000000000000000, -1.000000000000000000 ) ) ;
#212 = CIRCLE ( 'NONE', #34, 0.01966531500000000265 ) ;
#213 = DIRECTION ( 'NONE',  ( 1.224646799147353207E-16, 0.0000000000000000000, 1.000000000000000000 ) ) ;
#214 = EDGE_CURVE ( 'NONE', #173, #232, #167, .T. ) ;
#215 = CARTESIAN_POINT ( 'NONE',  ( 2.408306506897442716E-18, 0.0000000000000000000, 0.01966531499999999918 ) ) ;
#216 = DIRECTION ( 'NONE',  ( 0.0000000000000000000, 0.0000000000000000000, 1.000000000000000000 ) ) ;
#217 = MECHANICAL_DESIGN_GEOMETRIC_PRESENTATION_REPRESENTATION (  '', ( #22 ), #93 ) ;
#218 = EDGE_CURVE ( 'NONE', #301, #181, #133, .T. ) ;
#219 = CYLINDRICAL_SURFACE ( 'NONE', #197, 0.07874000000000000443 ) ;
#220 = CARTESIAN_POINT ( 'NONE',  ( 0.07874000000000004607, 9.642868896486264672E-18, 0.4531391870401411670 ) ) ;
#221 = VERTEX_POINT ( 'NONE', #69 ) ;
#222 = APPLICATION_CONTEXT ( 'automotive_design' ) ;
#223 =( LENGTH_UNIT ( ) NAMED_UNIT ( * ) SI_UNIT ( $, .METRE. ) );
#224 = AXIS2_PLACEMENT_3D ( 'NONE', #83, #213, #33 ) ;
#225 = CARTESIAN_POINT ( 'NONE',  ( -0.06374000000000018540, 0.0000000000000000000, 1.968503999999999809 ) ) ;
#226 = ORIENTED_EDGE ( 'NONE', *, *, #165, .F. ) ;
#227 = EDGE_CURVE ( 'NONE', #173, #262, #16, .T. ) ;
#228 = ORIENTED_EDGE ( 'NONE', *, *, #182, .T. ) ;
#229 = SHAPE_DEFINITION_REPRESENTATION ( #285, #243 ) ;
#230 = FACE_OUTER_BOUND ( 'NONE', #169, .T. ) ;
#231 =( LENGTH_UNIT ( ) NAMED_UNIT ( * ) SI_UNIT ( $, .METRE. ) );
#232 = VERTEX_POINT ( 'NONE', #319 ) ;
#233 = EDGE_LOOP ( 'NONE', ( #130, #198, #124 ) ) ;
#234 = DIRECTION ( 'NONE',  ( 1.000000000000000000, 0.0000000000000000000, 0.0000000000000000000 ) ) ;
#235 = DIRECTION ( 'NONE',  ( 1.224646799147353207E-16, 0.0000000000000000000, 1.000000000000000000 ) ) ;
#236 = DIRECTION ( 'NONE',  ( -1.224646799147353207E-16, -0.0000000000000000000, -1.000000000000000000 ) ) ;
#237 = DIRECTION ( 'NONE',  ( 1.000000000000000000, 0.0000000000000000000, 0.0000000000000000000 ) ) ;
#238 = ADVANCED_FACE ( 'NONE', ( #268 ), #73, .T. ) ;
#239 = DIRECTION ( 'NONE',  ( 1.000000000000000000, 0.0000000000000000000, 0.0000000000000000000 ) ) ;
#240 = VECTOR ( 'NONE', #315, 39.37007874015748143 ) ;
#241 = AXIS2_PLACEMENT_3D ( 'NONE', #281, #127, #202 ) ;
#242 = CARTESIAN_POINT ( 'NONE',  ( 0.01966531500000001306, 0.0000000000000000000, 0.1181100000000000066 ) ) ;
#243 = ADVANCED_BREP_SHAPE_REPRESENTATION ( 'Micro_BMRM-010-2X', ( #298, #241 ), #189 ) ;
#244 = EDGE_CURVE ( 'NONE', #181, #80, #293, .T. ) ;
#245 = CARTESIAN_POINT ( 'NONE',  ( 0.07874000000000000443, 9.642868896486258509E-18, 1.968503999999999809 ) ) ;
#246 = AXIS2_PLACEMENT_3D ( 'NONE', #27, #126, #205 ) ;
#247 = DIRECTION ( 'NONE',  ( 0.0000000000000000000, 0.0000000000000000000, -1.000000000000000000 ) ) ;
#248 = DIMENSIONAL_EXPONENTS ( 1.000000000000000000, 0.0000000000000000000, 0.0000000000000000000, 0.0000000000000000000, 0.0000000000000000000, 0.0000000000000000000, 0.0000000000000000000 ) ;
#249 = CARTESIAN_POINT ( 'NONE',  ( 0.0000000000000000000, 0.0000000000000000000, 1.968503999999999809 ) ) ;
#250 = DIRECTION ( 'NONE',  ( -0.0000000000000000000, -0.0000000000000000000, -1.000000000000000000 ) ) ;
#251 = ORIENTED_EDGE ( 'NONE', *, *, #128, .F. ) ;
#252 = CIRCLE ( 'NONE', #110, 0.07874000000000000443 ) ;
#253 = APPLICATION_PROTOCOL_DEFINITION ( 'draft international standard', 'automotive_design', 1998, #322 ) ;
#254 = AXIS2_PLACEMENT_3D ( 'NONE', #272, #1, #57 ) ;
#255 = EDGE_LOOP ( 'NONE', ( #151, #78, #76, #154 ) ) ;
#256 = EDGE_CURVE ( 'NONE', #232, #195, #267, .T. ) ;
#257 = ORIENTED_EDGE ( 'NONE', *, *, #214, .F. ) ;
#258 = COLOUR_RGB ( '',0.7921568627450980005, 0.8196078431372548767, 0.9333333333333333481 ) ;
#259 = ORIENTED_EDGE ( 'NONE', *, *, #103, .T. ) ;
#260 = ADVANCED_FACE ( 'NONE', ( #270 ), #219, .T. ) ;
#261 = ORIENTED_EDGE ( 'NONE', *, *, #244, .T. ) ;
#262 = VERTEX_POINT ( 'NONE', #225 ) ;
#263 = DIRECTION ( 'NONE',  ( -1.000000000000000000, 0.0000000000000000000, 1.224646799147353207E-16 ) ) ;
#264 = DIRECTION ( 'NONE',  ( -1.224646799147353207E-16, -0.0000000000000000000, -1.000000000000000000 ) ) ;
#265 = DIRECTION ( 'NONE',  ( -1.224646799147353207E-16, -0.0000000000000000000, -1.000000000000000000 ) ) ;
#266 = CARTESIAN_POINT ( 'NONE',  ( 2.408306506897442716E-18, 0.0000000000000000000, 0.01966531499999999918 ) ) ;
#267 = LINE ( 'NONE', #245, #274 ) ;
#268 = FACE_OUTER_BOUND ( 'NONE', #129, .T. ) ;
#269 = AXIS2_PLACEMENT_3D ( 'NONE', #87, #186, #94 ) ;
#270 = FACE_OUTER_BOUND ( 'NONE', #178, .T. ) ;
#271 = CARTESIAN_POINT ( 'NONE',  ( -0.07874000000000000443, 0.0000000000000000000, 1.953504000000000129 ) ) ;
#272 = CARTESIAN_POINT ( 'NONE',  ( 0.0000000000000000000, 0.0000000000000000000, 1.968503999999999809 ) ) ;
#273 = VECTOR ( 'NONE', #159, 39.37007874015748143 ) ;
#274 = VECTOR ( 'NONE', #295, 39.37007874015748143 ) ;
#275 =( CONVERSION_BASED_UNIT ( 'INCH', #107 ) LENGTH_UNIT ( ) NAMED_UNIT ( #194 ) );
#276 = VERTEX_POINT ( 'NONE', #271 ) ;
#277 = ORIENTED_EDGE ( 'NONE', *, *, #165, .T. ) ;
#278 = CIRCLE ( 'NONE', #246, 0.01966531499999999918 ) ;
#279 = SURFACE_STYLE_FILL_AREA ( #75 ) ;
#280 = ORIENTED_EDGE ( 'NONE', *, *, #128, .T. ) ;
#281 = CARTESIAN_POINT ( 'NONE',  ( 0.0000000000000000000, 0.0000000000000000000, 0.0000000000000000000 ) ) ;
#282 = EDGE_LOOP ( 'NONE', ( #283, #261, #304, #149 ) ) ;
#283 = ORIENTED_EDGE ( 'NONE', *, *, #320, .F. ) ;
#284 = FACE_OUTER_BOUND ( 'NONE', #255, .T. ) ;
#285 = PRODUCT_DEFINITION_SHAPE ( 'NONE', 'NONE',  #139 ) ;
#286 = DIRECTION ( 'NONE',  ( -1.000000000000000000, 0.0000000000000000000, 2.170579261049421609E-16 ) ) ;
#287 = AXIS2_PLACEMENT_3D ( 'NONE', #158, #264, #237 ) ;
#288 = CARTESIAN_POINT ( 'NONE',  ( 0.0000000000000000000, 0.0000000000000000000, 1.953504000000000129 ) ) ;
#289 = LINE ( 'NONE', #242, #273 ) ;
#290 = DIRECTION ( 'NONE',  ( 1.000000000000000000, 0.0000000000000000000, 0.0000000000000000000 ) ) ;
#291 = CIRCLE ( 'NONE', #144, 0.01966531500000000265 ) ;
#292 = DIMENSIONAL_EXPONENTS ( 1.000000000000000000, 0.0000000000000000000, 0.0000000000000000000, 0.0000000000000000000, 0.0000000000000000000, 0.0000000000000000000, 0.0000000000000000000 ) ;
#293 = LINE ( 'NONE', #193, #77 ) ;
#294 = DIRECTION ( 'NONE',  ( -1.000000000000000000, 0.0000000000000000000, 0.0000000000000000000 ) ) ;
#295 = DIRECTION ( 'NONE',  ( -0.0000000000000000000, -0.0000000000000000000, -1.000000000000000000 ) ) ;
#296 = EDGE_CURVE ( 'NONE', #262, #173, #168, .T. ) ;
#297 =( NAMED_UNIT ( * ) PLANE_ANGLE_UNIT ( ) SI_UNIT ( $, .RADIAN. ) );
#298 = MANIFOLD_SOLID_BREP ( 'Fillet1', #147 ) ;
#299 = DIRECTION ( 'NONE',  ( -0.1736481776669311916, 2.126576849575783316E-17, 0.9848077530122080203 ) ) ;
#300 =( NAMED_UNIT ( * ) SI_UNIT ( $, .STERADIAN. ) SOLID_ANGLE_UNIT ( ) );
#301 = VERTEX_POINT ( 'NONE', #46 ) ;
#302 = PRODUCT_DEFINITION_FORMATION_WITH_SPECIFIED_SOURCE ( 'ANY', '', #85, .NOT_KNOWN. ) ;
#303 = EDGE_LOOP ( 'NONE', ( #58, #309 ) ) ;
#304 = ORIENTED_EDGE ( 'NONE', *, *, #131, .T. ) ;
#305 = UNCERTAINTY_MEASURE_WITH_UNIT (LENGTH_MEASURE( 1.000000000000000082E-05 ), #42, 'distance_accuracy_value', 'NONE');
#306 = VERTEX_POINT ( 'NONE', #15 ) ;
#307 = ADVANCED_FACE ( 'NONE', ( #141 ), #56, .T. ) ;
#308 = STYLED_ITEM ( 'NONE', ( #48 ), #298 ) ;
#309 = ORIENTED_EDGE ( 'NONE', *, *, #227, .T. ) ;
#310 = FACE_OUTER_BOUND ( 'NONE', #72, .T. ) ;
#311 = ADVANCED_FACE ( 'NONE', ( #23 ), #26, .T. ) ;
#312 = CARTESIAN_POINT ( 'NONE',  ( 1.446430334472939084E-17, 0.0000000000000000000, 0.1181100000000000066 ) ) ;
#313 = APPLICATION_PROTOCOL_DEFINITION ( 'draft international standard', 'automotive_design', 1998, #222 ) ;
#314 = DIRECTION ( 'NONE',  ( -1.224646799147353207E-16, -0.0000000000000000000, -1.000000000000000000 ) ) ;
#315 = DIRECTION ( 'NONE',  ( -1.224646799147353207E-16, -0.0000000000000000000, -1.000000000000000000 ) ) ;
#316 = CARTESIAN_POINT ( 'NONE',  ( -0.07873999999999994892, 0.0000000000000000000, 0.4531391870401411670 ) ) ;
#317 = CONICAL_SURFACE ( 'NONE', #172, 0.01966531500000000265, 0.1745329251994338915 ) ;
#318 = DIRECTION ( 'NONE',  ( 1.000000000000000000, 0.0000000000000000000, 0.0000000000000000000 ) ) ;
#319 = CARTESIAN_POINT ( 'NONE',  ( 0.07874000000000000443, 9.642868896486258509E-18, 1.953504000000000129 ) ) ;
#320 = EDGE_CURVE ( 'NONE', #181, #301, #61, .T. ) ;
#321 = ORIENTED_EDGE ( 'NONE', *, *, #182, .F. ) ;
#322 = APPLICATION_CONTEXT ( 'automotive_design' ) ;
#323 = AXIS2_PLACEMENT_3D ( 'NONE', #176, #37, #239 ) ;
#324 = AXIS2_PLACEMENT_3D ( 'NONE', #92, #191, #170 ) ;
#325 = CARTESIAN_POINT ( 'NONE',  ( 0.0000000000000000000, 0.0000000000000000000, 1.968503999999999809 ) ) ;
ENDSEC;
END-ISO-10303-21;
