ISO-10303-21;
HEADER;
FILE_DESCRIPTION (( 'STEP AP214' ),
    '1' );
FILE_NAME ('Micro_SBMM-030-421X.STEP',
    '2021-09-02T17:08:25',
    ( '' ),
    ( '' ),
    'SwSTEP 2.0',
    'SolidWorks 2020',
    '' );
FILE_SCHEMA (( 'AUTOMOTIVE_DESIGN' ));
ENDSEC;

DATA;
#1 =( CONVERSION_BASED_UNIT ( 'INCH', #193 ) LENGTH_UNIT ( ) NAMED_UNIT ( #206 ) );
#2 =( LENGTH_UNIT ( ) NAMED_UNIT ( * ) SI_UNIT ( $, .METRE. ) );
#3 = AXIS2_PLACEMENT_3D ( 'NONE', #247, #38, #228 ) ;
#4 = DIRECTION ( 'NONE',  ( 1.000000000000000000, 0.0000000000000000000, 0.0000000000000000000 ) ) ;
#5 = UNCERTAINTY_MEASURE_WITH_UNIT (LENGTH_MEASURE( 1.000000000000000082E-05 ), #126, 'distance_accuracy_value', 'NONE');
#6 = EDGE_CURVE ( 'NONE', #94, #250, #293, .T. ) ;
#7 = CARTESIAN_POINT ( 'NONE',  ( -0.1181100000000000344, 0.0000000000000000000, 2.952755999999999936 ) ) ;
#8 = CARTESIAN_POINT ( 'NONE',  ( 0.0000000000000000000, 0.0000000000000000000, 2.937755999999999368 ) ) ;
#9 = AXIS2_PLACEMENT_3D ( 'NONE', #65, #269, #119 ) ;
#10 = CARTESIAN_POINT ( 'NONE',  ( 0.03936999999999990507, 0.0000000000000000000, 0.8267719999999999514 ) ) ;
#11 = CARTESIAN_POINT ( 'NONE',  ( 0.0000000000000000000, 0.0000000000000000000, 0.8267719999999999514 ) ) ;
#12 =( NAMED_UNIT ( * ) SI_UNIT ( $, .STERADIAN. ) SOLID_ANGLE_UNIT ( ) );
#13 = EDGE_CURVE ( 'NONE', #186, #183, #280, .T. ) ;
#14 = ORIENTED_EDGE ( 'NONE', *, *, #134, .T. ) ;
#15 = CIRCLE ( 'NONE', #99, 0.1031099999999991745 ) ;
#16 = CARTESIAN_POINT ( 'NONE',  ( 0.0000000000000000000, 0.0000000000000000000, 0.0000000000000000000 ) ) ;
#17 = ORIENTED_EDGE ( 'NONE', *, *, #330, .F. ) ;
#18 = CARTESIAN_POINT ( 'NONE',  ( 0.0000000000000000000, 0.0000000000000000000, 0.1030719981370833843 ) ) ;
#19 = EDGE_LOOP ( 'NONE', ( #177, #14, #67, #159 ) ) ;
#20 = ORIENTED_EDGE ( 'NONE', *, *, #50, .F. ) ;
#21 = CIRCLE ( 'NONE', #64, 0.03936999999999990507 ) ;
#22 = CIRCLE ( 'NONE', #156, 0.05905499999999998945 ) ;
#23 = EDGE_CURVE ( 'NONE', #180, #255, #21, .T. ) ;
#24 =( NAMED_UNIT ( * ) PLANE_ANGLE_UNIT ( ) SI_UNIT ( $, .RADIAN. ) );
#25 = EDGE_CURVE ( 'NONE', #272, #328, #256, .T. ) ;
#26 = DIRECTION ( 'NONE',  ( -0.0000000000000000000, -0.0000000000000000000, -1.000000000000000000 ) ) ;
#27 = CARTESIAN_POINT ( 'NONE',  ( 0.0000000000000000000, 0.0000000000000000000, 2.952755999999999936 ) ) ;
#28 = DIRECTION ( 'NONE',  ( 1.000000000000000000, 0.0000000000000000000, 0.0000000000000000000 ) ) ;
#29 = DIRECTION ( 'NONE',  ( -0.0000000000000000000, -0.0000000000000000000, -1.000000000000000000 ) ) ;
#30 = EDGE_CURVE ( 'NONE', #328, #68, #113, .T. ) ;
#31 = CYLINDRICAL_SURFACE ( 'NONE', #201, 0.03936999999999993977 ) ;
#32 = DIRECTION ( 'NONE',  ( 1.000000000000000000, 0.0000000000000000000, 0.0000000000000000000 ) ) ;
#33 = AXIS2_PLACEMENT_3D ( 'NONE', #8, #59, #168 ) ;
#34 = DIRECTION ( 'NONE',  ( 1.000000000000000000, 0.0000000000000000000, -0.0000000000000000000 ) ) ;
#35 = EDGE_LOOP ( 'NONE', ( #102, #45, #154, #205 ) ) ;
#36 = DIRECTION ( 'NONE',  ( -0.0000000000000000000, -0.0000000000000000000, -1.000000000000000000 ) ) ;
#37 = ADVANCED_BREP_SHAPE_REPRESENTATION ( 'Micro_SBMM-030-421X', ( #103, #257 ), #52 ) ;
#38 = DIRECTION ( 'NONE',  ( -0.0000000000000000000, -0.0000000000000000000, -1.000000000000000000 ) ) ;
#39 = DIRECTION ( 'NONE',  ( -1.000000000000000000, 0.0000000000000000000, 0.0000000000000000000 ) ) ;
#40 = VERTEX_POINT ( 'NONE', #190 ) ;
#41 = DIRECTION ( 'NONE',  ( -0.0000000000000000000, -0.0000000000000000000, -1.000000000000000000 ) ) ;
#42 = AXIS2_PLACEMENT_3D ( 'NONE', #165, #260, #242 ) ;
#43 = ORIENTED_EDGE ( 'NONE', *, *, #90, .F. ) ;
#44 = COLOUR_RGB ( '',0.7921568627450980005, 0.8196078431372548767, 0.9333333333333333481 ) ;
#45 = ORIENTED_EDGE ( 'NONE', *, *, #173, .T. ) ;
#46 = EDGE_LOOP ( 'NONE', ( #157, #274, #338, #230 ) ) ;
#47 = EDGE_LOOP ( 'NONE', ( #331, #308, #234, #204, #75 ) ) ;
#48 = CIRCLE ( 'NONE', #86, 0.05905499999999999639 ) ;
#49 = AXIS2_PLACEMENT_3D ( 'NONE', #178, #216, #313 ) ;
#50 = EDGE_CURVE ( 'NONE', #180, #328, #191, .T. ) ;
#51 = CARTESIAN_POINT ( 'NONE',  ( 0.0000000000000000000, 0.0000000000000000000, 1.822834149999997599 ) ) ;
#52 =( GEOMETRIC_REPRESENTATION_CONTEXT ( 3 ) GLOBAL_UNCERTAINTY_ASSIGNED_CONTEXT ( ( #5 ) ) GLOBAL_UNIT_ASSIGNED_CONTEXT ( ( #126, #306, #95 ) ) REPRESENTATION_CONTEXT ( 'NONE', 'WORKASPACE' ) );
#53 = APPLICATION_CONTEXT ( 'automotive_design' ) ;
#54 = CARTESIAN_POINT ( 'NONE',  ( 0.0000000000000000000, 0.0000000000000000000, 2.952755999999999936 ) ) ;
#55 = EDGE_CURVE ( 'NONE', #180, #94, #239, .T. ) ;
#56 = CARTESIAN_POINT ( 'NONE',  ( 4.821434448243127714E-18, -0.03936999999999998140, 0.1030719981370833843 ) ) ;
#57 = LINE ( 'NONE', #265, #149 ) ;
#58 = STYLED_ITEM ( 'NONE', ( #105 ), #103 ) ;
#59 = DIRECTION ( 'NONE',  ( 0.0000000000000000000, 0.0000000000000000000, -1.000000000000000000 ) ) ;
#60 = DIRECTION ( 'NONE',  ( -1.000000000000000000, 0.0000000000000000000, 0.0000000000000000000 ) ) ;
#61 = ADVANCED_FACE ( 'NONE', ( #111 ), #106, .T. ) ;
#62 = CARTESIAN_POINT ( 'NONE',  ( -0.1181100000000000344, 0.0000000000000000000, 1.692913000000000334 ) ) ;
#63 = DIMENSIONAL_EXPONENTS ( 1.000000000000000000, 0.0000000000000000000, 0.0000000000000000000, 0.0000000000000000000, 0.0000000000000000000, 0.0000000000000000000, 0.0000000000000000000 ) ;
#64 = AXIS2_PLACEMENT_3D ( 'NONE', #122, #41, #309 ) ;
#65 = CARTESIAN_POINT ( 'NONE',  ( 0.0000000000000000000, 0.0000000000000000000, 2.952755999999999936 ) ) ;
#66 = MECHANICAL_DESIGN_GEOMETRIC_PRESENTATION_REPRESENTATION (  '', ( #182 ), #202 ) ;
#67 = ORIENTED_EDGE ( 'NONE', *, *, #6, .T. ) ;
#68 = VERTEX_POINT ( 'NONE', #56 ) ;
#69 = ADVANCED_FACE ( 'NONE', ( #219 ), #311, .T. ) ;
#70 =( NAMED_UNIT ( * ) PLANE_ANGLE_UNIT ( ) SI_UNIT ( $, .RADIAN. ) );
#71 = CARTESIAN_POINT ( 'NONE',  ( 0.0000000000000000000, 0.0000000000000000000, 1.692913000000000334 ) ) ;
#72 = SURFACE_STYLE_USAGE ( .BOTH. , #135 ) ;
#73 = CIRCLE ( 'NONE', #261, 0.03936999999999990507 ) ;
#74 = ORIENTED_EDGE ( 'NONE', *, *, #90, .T. ) ;
#75 = ORIENTED_EDGE ( 'NONE', *, *, #115, .F. ) ;
#76 = ORIENTED_EDGE ( 'NONE', *, *, #25, .T. ) ;
#77 = DIRECTION ( 'NONE',  ( -1.000000000000000000, 0.0000000000000000000, 0.0000000000000000000 ) ) ;
#78 = AXIS2_PLACEMENT_3D ( 'NONE', #252, #249, #207 ) ;
#79 = CARTESIAN_POINT ( 'NONE',  ( 0.0000000000000000000, 0.0000000000000000000, 0.1030719981370833843 ) ) ;
#80 = SURFACE_SIDE_STYLE ('',( #213 ) ) ;
#81 = AXIS2_PLACEMENT_3D ( 'NONE', #54, #26, #286 ) ;
#82 = FACE_OUTER_BOUND ( 'NONE', #19, .T. ) ;
#83 = SHAPE_DEFINITION_REPRESENTATION ( #104, #37 ) ;
#84 = DIRECTION ( 'NONE',  ( 0.0000000000000000000, 0.0000000000000000000, 1.000000000000000000 ) ) ;
#85 = DIRECTION ( 'NONE',  ( 0.0000000000000000000, 0.0000000000000000000, -1.000000000000000000 ) ) ;
#86 = AXIS2_PLACEMENT_3D ( 'NONE', #118, #245, #296 ) ;
#87 = ADVANCED_FACE ( 'NONE', ( #82 ), #167, .T. ) ;
#88 = DIRECTION ( 'NONE',  ( -1.000000000000000000, 0.0000000000000000000, 0.0000000000000000000 ) ) ;
#89 = FACE_OUTER_BOUND ( 'NONE', #185, .T. ) ;
#90 = EDGE_CURVE ( 'NONE', #186, #98, #15, .T. ) ;
#91 = CARTESIAN_POINT ( 'NONE',  ( -0.1031099999999991745, 0.0000000000000000000, 2.952755999999999936 ) ) ;
#92 = CARTESIAN_POINT ( 'NONE',  ( 0.03936999999999998140, 4.821434448243128484E-18, 0.1030719981370833843 ) ) ;
#93 = CONICAL_SURFACE ( 'NONE', #49, 0.1031099999999991745, 0.7853981633974500554 ) ;
#94 = VERTEX_POINT ( 'NONE', #109 ) ;
#95 =( NAMED_UNIT ( * ) SI_UNIT ( $, .STERADIAN. ) SOLID_ANGLE_UNIT ( ) );
#96 = EDGE_LOOP ( 'NONE', ( #158, #336, #208, #302 ) ) ;
#97 = SPHERICAL_SURFACE ( 'NONE', #78, 0.05905499999999999639 ) ;
#98 = VERTEX_POINT ( 'NONE', #284 ) ;
#99 = AXIS2_PLACEMENT_3D ( 'NONE', #27, #136, #220 ) ;
#100 = VERTEX_POINT ( 'NONE', #342 ) ;
#101 = AXIS2_PLACEMENT_3D ( 'NONE', #144, #36, #39 ) ;
#102 = ORIENTED_EDGE ( 'NONE', *, *, #189, .F. ) ;
#103 = MANIFOLD_SOLID_BREP ( 'Cut-Revolve3', #160 ) ;
#104 = PRODUCT_DEFINITION_SHAPE ( 'NONE', 'NONE',  #300 ) ;
#105 = PRESENTATION_STYLE_ASSIGNMENT (( #316 ) ) ;
#106 = CONICAL_SURFACE ( 'NONE', #344, 0.1299209999999998144, 0.09065978310229558246 ) ;
#107 = PRESENTATION_LAYER_ASSIGNMENT (  '', '', ( #58 ) ) ;
#108 =( CONVERSION_BASED_UNIT ( 'INCH', #123 ) LENGTH_UNIT ( ) NAMED_UNIT ( #63 ) );
#109 = CARTESIAN_POINT ( 'NONE',  ( 0.1181100000000000344, 1.446430334472939084E-17, 1.692913000000000334 ) ) ;
#110 = DIRECTION ( 'NONE',  ( -0.0000000000000000000, -0.0000000000000000000, -1.000000000000000000 ) ) ;
#111 = FACE_OUTER_BOUND ( 'NONE', #278, .T. ) ;
#112 = ADVANCED_FACE ( 'NONE', ( #287 ), #31, .T. ) ;
#113 = CIRCLE ( 'NONE', #192, 0.03936999999999998140 ) ;
#114 = DIRECTION ( 'NONE',  ( 0.7071067811865486830, 8.659560562354947649E-17, -0.7071067811865462405 ) ) ;
#115 = EDGE_CURVE ( 'NONE', #255, #40, #163, .T. ) ;
#116 = CARTESIAN_POINT ( 'NONE',  ( -0.1181100000000000344, 0.0000000000000000000, 2.937755999999999368 ) ) ;
#117 = DIRECTION ( 'NONE',  ( -0.0000000000000000000, -0.0000000000000000000, -1.000000000000000000 ) ) ;
#118 = CARTESIAN_POINT ( 'NONE',  ( 0.0000000000000000000, 0.0000000000000000000, 0.05905500000000000332 ) ) ;
#119 = DIRECTION ( 'NONE',  ( -1.000000000000000000, 0.0000000000000000000, 0.0000000000000000000 ) ) ;
#120 = LENGTH_MEASURE_WITH_UNIT ( LENGTH_MEASURE( 0.02539999999999999897 ), #337 );
#121 = EDGE_CURVE ( 'NONE', #68, #100, #48, .T. ) ;
#122 = CARTESIAN_POINT ( 'NONE',  ( 0.0000000000000000000, 0.0000000000000000000, 0.8267719999999999514 ) ) ;
#123 = LENGTH_MEASURE_WITH_UNIT ( LENGTH_MEASURE( 0.02539999999999999897 ), #176 );
#124 = VECTOR ( 'NONE', #320, 39.37007874015748143 ) ;
#125 = ORIENTED_EDGE ( 'NONE', *, *, #330, .T. ) ;
#126 =( CONVERSION_BASED_UNIT ( 'INCH', #120 ) LENGTH_UNIT ( ) NAMED_UNIT ( #329 ) );
#127 = ORIENTED_EDGE ( 'NONE', *, *, #283, .T. ) ;
#128 = EDGE_CURVE ( 'NONE', #98, #186, #276, .T. ) ;
#129 = DIRECTION ( 'NONE',  ( 0.0000000000000000000, 0.0000000000000000000, 1.000000000000000000 ) ) ;
#130 = EDGE_LOOP ( 'NONE', ( #266, #127, #340, #125 ) ) ;
#131 = ORIENTED_EDGE ( 'NONE', *, *, #288, .F. ) ;
#132 = DIRECTION ( 'NONE',  ( 1.000000000000000000, 0.0000000000000000000, 0.0000000000000000000 ) ) ;
#133 = DIRECTION ( 'NONE',  ( -0.0000000000000000000, -0.0000000000000000000, -1.000000000000000000 ) ) ;
#134 = EDGE_CURVE ( 'NONE', #319, #94, #57, .T. ) ;
#135 = SURFACE_SIDE_STYLE ('',( #335 ) ) ;
#136 = DIRECTION ( 'NONE',  ( 0.0000000000000000000, 0.0000000000000000000, 1.000000000000000000 ) ) ;
#137 = AXIS2_PLACEMENT_3D ( 'NONE', #291, #227, #32 ) ;
#138 = CIRCLE ( 'NONE', #324, 0.1181100000000000344 ) ;
#139 = PRODUCT_CONTEXT ( 'NONE', #341, 'mechanical' ) ;
#140 = EDGE_CURVE ( 'NONE', #183, #319, #232, .T. ) ;
#141 = DIRECTION ( 'NONE',  ( -1.000000000000000000, 0.0000000000000000000, 0.0000000000000000000 ) ) ;
#142 = FACE_OUTER_BOUND ( 'NONE', #145, .T. ) ;
#143 = PRODUCT_DEFINITION_CONTEXT ( 'detailed design', #53, 'design' ) ;
#144 = CARTESIAN_POINT ( 'NONE',  ( 0.0000000000000000000, 0.0000000000000000000, 0.1030719981370833843 ) ) ;
#145 = EDGE_LOOP ( 'NONE', ( #76, #301, #304, #131 ) ) ;
#146 = APPLICATION_PROTOCOL_DEFINITION ( 'draft international standard', 'automotive_design', 1998, #53 ) ;
#147 = CARTESIAN_POINT ( 'NONE',  ( -0.03936999999999990507, 9.642868896486255427E-18, 0.8267719999999999514 ) ) ;
#148 = LINE ( 'NONE', #326, #169 ) ;
#149 = VECTOR ( 'NONE', #222, 39.37007874015748143 ) ;
#150 = CARTESIAN_POINT ( 'NONE',  ( 0.0000000000000000000, 0.0000000000000000000, 2.937755999999999368 ) ) ;
#151 = ADVANCED_FACE ( 'NONE', ( #243 ), #322, .T. ) ;
#152 = ORIENTED_EDGE ( 'NONE', *, *, #13, .T. ) ;
#153 = DIRECTION ( 'NONE',  ( -0.0000000000000000000, -0.0000000000000000000, -1.000000000000000000 ) ) ;
#154 = ORIENTED_EDGE ( 'NONE', *, *, #6, .F. ) ;
#155 = VECTOR ( 'NONE', #29, 39.37007874015748143 ) ;
#156 = AXIS2_PLACEMENT_3D ( 'NONE', #248, #88, #297 ) ;
#157 = ORIENTED_EDGE ( 'NONE', *, *, #121, .F. ) ;
#158 = ORIENTED_EDGE ( 'NONE', *, *, #128, .F. ) ;
#159 = ORIENTED_EDGE ( 'NONE', *, *, #281, .F. ) ;
#160 = CLOSED_SHELL ( 'NONE', ( #112, #264, #69, #327, #87, #217, #187, #151, #61, #339, #290 ) ) ;
#161 = CARTESIAN_POINT ( 'NONE',  ( -0.1031099999999991745, 0.0000000000000000000, 2.952755999999999936 ) ) ;
#162 = PRODUCT_DEFINITION_FORMATION_WITH_SPECIFIED_SOURCE ( 'ANY', '', #315, .NOT_KNOWN. ) ;
#163 = LINE ( 'NONE', #343, #240 ) ;
#164 = FILL_AREA_STYLE_COLOUR ( '', #44 ) ;
#165 = CARTESIAN_POINT ( 'NONE',  ( 0.0000000000000000000, 0.0000000000000000000, 1.822834149999997599 ) ) ;
#166 =( NAMED_UNIT ( * ) SI_UNIT ( $, .STERADIAN. ) SOLID_ANGLE_UNIT ( ) );
#167 = CYLINDRICAL_SURFACE ( 'NONE', #81, 0.1181100000000000344 ) ;
#168 = DIRECTION ( 'NONE',  ( 1.000000000000000000, 0.0000000000000000000, 0.0000000000000000000 ) ) ;
#169 = VECTOR ( 'NONE', #114, 39.37007874015748854 ) ;
#170 = FACE_OUTER_BOUND ( 'NONE', #235, .T. ) ;
#171 = DIRECTION ( 'NONE',  ( 0.0000000000000000000, 1.000000000000000000, 0.0000000000000000000 ) ) ;
#172 = LINE ( 'NONE', #198, #196 ) ;
#173 = EDGE_CURVE ( 'NONE', #255, #250, #172, .T. ) ;
#174 =( GEOMETRIC_REPRESENTATION_CONTEXT ( 3 ) GLOBAL_UNCERTAINTY_ASSIGNED_CONTEXT ( ( #292 ) ) GLOBAL_UNIT_ASSIGNED_CONTEXT ( ( #1, #24, #166 ) ) REPRESENTATION_CONTEXT ( 'NONE', 'WORKASPACE' ) );
#175 = AXIS2_PLACEMENT_3D ( 'NONE', #150, #200, #4 ) ;
#176 =( LENGTH_UNIT ( ) NAMED_UNIT ( * ) SI_UNIT ( $, .METRE. ) );
#177 = ORIENTED_EDGE ( 'NONE', *, *, #140, .T. ) ;
#178 = CARTESIAN_POINT ( 'NONE',  ( 0.0000000000000000000, 0.0000000000000000000, 2.952755999999999936 ) ) ;
#179 = DIRECTION ( 'NONE',  ( 1.000000000000000000, 0.0000000000000000000, 0.0000000000000000000 ) ) ;
#180 = VERTEX_POINT ( 'NONE', #10 ) ;
#181 = AXIS2_PLACEMENT_3D ( 'NONE', #295, #85, #318 ) ;
#182 = STYLED_ITEM ( 'NONE', ( #273 ), #37 ) ;
#183 = VERTEX_POINT ( 'NONE', #116 ) ;
#184 = FACE_OUTER_BOUND ( 'NONE', #46, .T. ) ;
#185 = EDGE_LOOP ( 'NONE', ( #74, #282 ) ) ;
#186 = VERTEX_POINT ( 'NONE', #91 ) ;
#187 = ADVANCED_FACE ( 'NONE', ( #89 ), #294, .T. ) ;
#188 = FILL_AREA_STYLE ('',( #262 ) ) ;
#189 = EDGE_CURVE ( 'NONE', #255, #180, #73, .T. ) ;
#190 = CARTESIAN_POINT ( 'NONE',  ( -0.03936999999999998140, 0.0000000000000000000, 0.1030719981370833843 ) ) ;
#191 = LINE ( 'NONE', #285, #155 ) ;
#192 = AXIS2_PLACEMENT_3D ( 'NONE', #79, #133, #238 ) ;
#193 = LENGTH_MEASURE_WITH_UNIT ( LENGTH_MEASURE( 0.02539999999999999897 ), #2 );
#194 = DIRECTION ( 'NONE',  ( -0.09053564237157933625, 1.108741846391041270E-17, 0.9958932158923291533 ) ) ;
#195 = SPHERICAL_SURFACE ( 'NONE', #197, 0.05905499999999999639 ) ;
#196 = VECTOR ( 'NONE', #194, 39.37007874015748854 ) ;
#197 = AXIS2_PLACEMENT_3D ( 'NONE', #224, #246, #171 ) ;
#198 = CARTESIAN_POINT ( 'NONE',  ( -0.1299209999999998144, 1.591073367920230651E-17, 1.822834149999997599 ) ) ;
#199 = CYLINDRICAL_SURFACE ( 'NONE', #9, 0.1181100000000000344 ) ;
#200 = DIRECTION ( 'NONE',  ( 0.0000000000000000000, 0.0000000000000000000, -1.000000000000000000 ) ) ;
#201 = AXIS2_PLACEMENT_3D ( 'NONE', #314, #289, #141 ) ;
#202 =( GEOMETRIC_REPRESENTATION_CONTEXT ( 3 ) GLOBAL_UNCERTAINTY_ASSIGNED_CONTEXT ( ( #321 ) ) GLOBAL_UNIT_ASSIGNED_CONTEXT ( ( #108, #70, #12 ) ) REPRESENTATION_CONTEXT ( 'NONE', 'WORKASPACE' ) );
#203 = CARTESIAN_POINT ( 'NONE',  ( 0.0000000000000000000, 0.0000000000000000000, 1.692913000000000334 ) ) ;
#204 = ORIENTED_EDGE ( 'NONE', *, *, #310, .F. ) ;
#205 = ORIENTED_EDGE ( 'NONE', *, *, #55, .F. ) ;
#206 = DIMENSIONAL_EXPONENTS ( 1.000000000000000000, 0.0000000000000000000, 0.0000000000000000000, 0.0000000000000000000, 0.0000000000000000000, 0.0000000000000000000, 0.0000000000000000000 ) ;
#207 = DIRECTION ( 'NONE',  ( 0.0000000000000000000, 1.000000000000000000, 0.0000000000000000000 ) ) ;
#208 = ORIENTED_EDGE ( 'NONE', *, *, #140, .F. ) ;
#209 = VECTOR ( 'NONE', #258, 39.37007874015748854 ) ;
#210 = DIRECTION ( 'NONE',  ( -1.000000000000000000, 0.0000000000000000000, 0.0000000000000000000 ) ) ;
#211 = ORIENTED_EDGE ( 'NONE', *, *, #115, .T. ) ;
#212 = ORIENTED_EDGE ( 'NONE', *, *, #173, .F. ) ;
#213 = SURFACE_STYLE_FILL_AREA ( #188 ) ;
#214 = COLOUR_RGB ( '',0.7921568627450980005, 0.8196078431372548767, 0.9333333333333333481 ) ;
#215 = DIRECTION ( 'NONE',  ( -0.0000000000000000000, -0.0000000000000000000, -1.000000000000000000 ) ) ;
#216 = DIRECTION ( 'NONE',  ( 0.0000000000000000000, 0.0000000000000000000, -1.000000000000000000 ) ) ;
#217 = ADVANCED_FACE ( 'NONE', ( #325 ), #199, .T. ) ;
#218 = DIRECTION ( 'NONE',  ( 0.0000000000000000000, 0.0000000000000000000, 1.000000000000000000 ) ) ;
#219 = FACE_OUTER_BOUND ( 'NONE', #35, .T. ) ;
#220 = DIRECTION ( 'NONE',  ( 1.000000000000000000, 0.0000000000000000000, 0.0000000000000000000 ) ) ;
#221 = PRESENTATION_LAYER_ASSIGNMENT (  '', '', ( #182 ) ) ;
#222 = DIRECTION ( 'NONE',  ( -0.0000000000000000000, -0.0000000000000000000, -1.000000000000000000 ) ) ;
#223 = ORIENTED_EDGE ( 'NONE', *, *, #283, .F. ) ;
#224 = CARTESIAN_POINT ( 'NONE',  ( 0.0000000000000000000, 0.0000000000000000000, 0.05905500000000000332 ) ) ;
#225 = LINE ( 'NONE', #7, #124 ) ;
#226 = AXIS2_PLACEMENT_3D ( 'NONE', #270, #84, #34 ) ;
#227 = DIRECTION ( 'NONE',  ( 0.0000000000000000000, 0.0000000000000000000, 1.000000000000000000 ) ) ;
#228 = DIRECTION ( 'NONE',  ( -1.000000000000000000, 0.0000000000000000000, 0.0000000000000000000 ) ) ;
#229 = FACE_OUTER_BOUND ( 'NONE', #96, .T. ) ;
#230 = ORIENTED_EDGE ( 'NONE', *, *, #288, .T. ) ;
#231 = EDGE_CURVE ( 'NONE', #68, #40, #305, .T. ) ;
#232 = CIRCLE ( 'NONE', #33, 0.1181100000000000344 ) ;
#233 = ORIENTED_EDGE ( 'NONE', *, *, #30, .F. ) ;
#234 = ORIENTED_EDGE ( 'NONE', *, *, #25, .F. ) ;
#235 = EDGE_LOOP ( 'NONE', ( #20, #254, #211, #334, #233 ) ) ;
#236 = VECTOR ( 'NONE', #263, 39.37007874015748854 ) ;
#237 = EDGE_LOOP ( 'NONE', ( #298, #43, #152, #223 ) ) ;
#238 = DIRECTION ( 'NONE',  ( -1.000000000000000000, 0.0000000000000000000, 0.0000000000000000000 ) ) ;
#239 = LINE ( 'NONE', #345, #236 ) ;
#240 = VECTOR ( 'NONE', #215, 39.37007874015748143 ) ;
#241 = CIRCLE ( 'NONE', #175, 0.1181100000000000344 ) ;
#242 = DIRECTION ( 'NONE',  ( 1.000000000000000000, 0.0000000000000000000, 0.0000000000000000000 ) ) ;
#243 = FACE_OUTER_BOUND ( 'NONE', #237, .T. ) ;
#244 = CIRCLE ( 'NONE', #277, 0.03936999999999998140 ) ;
#245 = DIRECTION ( 'NONE',  ( 1.000000000000000000, 1.224646799147353207E-16, -0.0000000000000000000 ) ) ;
#246 = DIRECTION ( 'NONE',  ( 1.000000000000000000, 0.0000000000000000000, 0.0000000000000000000 ) ) ;
#247 = CARTESIAN_POINT ( 'NONE',  ( 0.0000000000000000000, 0.0000000000000000000, 0.0000000000000000000 ) ) ;
#248 = CARTESIAN_POINT ( 'NONE',  ( 0.0000000000000000000, 0.0000000000000000000, 0.05905500000000000332 ) ) ;
#249 = DIRECTION ( 'NONE',  ( 1.000000000000000000, 0.0000000000000000000, 0.0000000000000000000 ) ) ;
#250 = VERTEX_POINT ( 'NONE', #62 ) ;
#251 = AXIS2_PLACEMENT_3D ( 'NONE', #71, #307, #179 ) ;
#252 = CARTESIAN_POINT ( 'NONE',  ( 0.0000000000000000000, 0.0000000000000000000, 0.05905500000000000332 ) ) ;
#253 = ORIENTED_EDGE ( 'NONE', *, *, #55, .T. ) ;
#254 = ORIENTED_EDGE ( 'NONE', *, *, #23, .T. ) ;
#255 = VERTEX_POINT ( 'NONE', #147 ) ;
#256 = CIRCLE ( 'NONE', #332, 0.03936999999999998140 ) ;
#257 = AXIS2_PLACEMENT_3D ( 'NONE', #16, #218, #28 ) ;
#258 = DIRECTION ( 'NONE',  ( -0.7071067811865486830, 0.0000000000000000000, -0.7071067811865462405 ) ) ;
#259 = FILL_AREA_STYLE ('',( #164 ) ) ;
#260 = DIRECTION ( 'NONE',  ( 0.0000000000000000000, 0.0000000000000000000, 1.000000000000000000 ) ) ;
#261 = AXIS2_PLACEMENT_3D ( 'NONE', #11, #117, #60 ) ;
#262 = FILL_AREA_STYLE_COLOUR ( '', #214 ) ;
#263 = DIRECTION ( 'NONE',  ( 0.09053564237157933625, 0.0000000000000000000, 0.9958932158923291533 ) ) ;
#264 = ADVANCED_FACE ( 'NONE', ( #142 ), #195, .T. ) ;
#265 = CARTESIAN_POINT ( 'NONE',  ( 0.1181100000000000344, 1.446430334472939084E-17, 2.952755999999999936 ) ) ;
#266 = ORIENTED_EDGE ( 'NONE', *, *, #134, .F. ) ;
#267 = CYLINDRICAL_SURFACE ( 'NONE', #3, 0.03936999999999993977 ) ;
#268 = PRODUCT_RELATED_PRODUCT_CATEGORY ( 'part', '', ( #315 ) ) ;
#269 = DIRECTION ( 'NONE',  ( -0.0000000000000000000, -0.0000000000000000000, -1.000000000000000000 ) ) ;
#270 = CARTESIAN_POINT ( 'NONE',  ( 0.0000000000000000000, 0.0000000000000000000, 2.952755999999999936 ) ) ;
#271 = DIRECTION ( 'NONE',  ( 1.000000000000000000, 0.0000000000000000000, 0.0000000000000000000 ) ) ;
#272 = VERTEX_POINT ( 'NONE', #323 ) ;
#273 = PRESENTATION_STYLE_ASSIGNMENT (( #72 ) ) ;
#274 = ORIENTED_EDGE ( 'NONE', *, *, #231, .T. ) ;
#275 = ORIENTED_EDGE ( 'NONE', *, *, #23, .F. ) ;
#276 = CIRCLE ( 'NONE', #137, 0.1031099999999991745 ) ;
#277 = AXIS2_PLACEMENT_3D ( 'NONE', #18, #153, #210 ) ;
#278 = EDGE_LOOP ( 'NONE', ( #212, #275, #253, #17 ) ) ;
#279 = APPLICATION_PROTOCOL_DEFINITION ( 'draft international standard', 'automotive_design', 1998, #341 ) ;
#280 = LINE ( 'NONE', #161, #209 ) ;
#281 = EDGE_CURVE ( 'NONE', #183, #250, #225, .T. ) ;
#282 = ORIENTED_EDGE ( 'NONE', *, *, #128, .T. ) ;
#283 = EDGE_CURVE ( 'NONE', #319, #183, #241, .T. ) ;
#284 = CARTESIAN_POINT ( 'NONE',  ( 0.1031099999999991745, 1.354581824536882559E-17, 2.952755999999999936 ) ) ;
#285 = CARTESIAN_POINT ( 'NONE',  ( 0.03936999999999993977, 4.821434448243122321E-18, 0.0000000000000000000 ) ) ;
#286 = DIRECTION ( 'NONE',  ( -1.000000000000000000, 0.0000000000000000000, 0.0000000000000000000 ) ) ;
#287 = FACE_OUTER_BOUND ( 'NONE', #47, .T. ) ;
#288 = EDGE_CURVE ( 'NONE', #272, #100, #22, .T. ) ;
#289 = DIRECTION ( 'NONE',  ( -0.0000000000000000000, -0.0000000000000000000, -1.000000000000000000 ) ) ;
#290 = ADVANCED_FACE ( 'NONE', ( #170 ), #267, .T. ) ;
#291 = CARTESIAN_POINT ( 'NONE',  ( 0.0000000000000000000, 0.0000000000000000000, 2.952755999999999936 ) ) ;
#292 = UNCERTAINTY_MEASURE_WITH_UNIT (LENGTH_MEASURE( 1.000000000000000082E-05 ), #1, 'distance_accuracy_value', 'NONE');
#293 = CIRCLE ( 'NONE', #251, 0.1181100000000000344 ) ;
#294 = PLANE ( 'NONE',  #226 ) ;
#295 = CARTESIAN_POINT ( 'NONE',  ( 0.0000000000000000000, 0.0000000000000000000, 2.952755999999999936 ) ) ;
#296 = DIRECTION ( 'NONE',  ( -1.224646799147353207E-16, 1.000000000000000000, 0.0000000000000000000 ) ) ;
#297 = DIRECTION ( 'NONE',  ( 0.0000000000000000000, 0.0000000000000000000, 1.000000000000000000 ) ) ;
#298 = ORIENTED_EDGE ( 'NONE', *, *, #303, .F. ) ;
#299 = MECHANICAL_DESIGN_GEOMETRIC_PRESENTATION_REPRESENTATION (  '', ( #58 ), #174 ) ;
#300 = PRODUCT_DEFINITION ( 'UNKNOWN', '', #162, #143 ) ;
#301 = ORIENTED_EDGE ( 'NONE', *, *, #30, .T. ) ;
#302 = ORIENTED_EDGE ( 'NONE', *, *, #13, .F. ) ;
#303 = EDGE_CURVE ( 'NONE', #98, #319, #148, .T. ) ;
#304 = ORIENTED_EDGE ( 'NONE', *, *, #121, .T. ) ;
#305 = CIRCLE ( 'NONE', #101, 0.03936999999999998140 ) ;
#306 =( NAMED_UNIT ( * ) PLANE_ANGLE_UNIT ( ) SI_UNIT ( $, .RADIAN. ) );
#307 = DIRECTION ( 'NONE',  ( 0.0000000000000000000, 0.0000000000000000000, 1.000000000000000000 ) ) ;
#308 = ORIENTED_EDGE ( 'NONE', *, *, #50, .T. ) ;
#309 = DIRECTION ( 'NONE',  ( -1.000000000000000000, 0.0000000000000000000, 0.0000000000000000000 ) ) ;
#310 = EDGE_CURVE ( 'NONE', #40, #272, #244, .T. ) ;
#311 = CONICAL_SURFACE ( 'NONE', #42, 0.1299209999999998144, 0.09065978310229558246 ) ;
#312 = CARTESIAN_POINT ( 'NONE',  ( 0.0000000000000000000, 0.0000000000000000000, 0.1030719981370833843 ) ) ;
#313 = DIRECTION ( 'NONE',  ( -1.000000000000000000, 0.0000000000000000000, 0.0000000000000000000 ) ) ;
#314 = CARTESIAN_POINT ( 'NONE',  ( 0.0000000000000000000, 0.0000000000000000000, 0.0000000000000000000 ) ) ;
#315 = PRODUCT ( 'Micro_SBMM-030-421X', 'Micro_SBMM-030-421X', '', ( #139 ) ) ;
#316 = SURFACE_STYLE_USAGE ( .BOTH. , #80 ) ;
#317 = DIRECTION ( 'NONE',  ( 0.0000000000000000000, 0.0000000000000000000, 1.000000000000000000 ) ) ;
#318 = DIRECTION ( 'NONE',  ( -1.000000000000000000, 0.0000000000000000000, 0.0000000000000000000 ) ) ;
#319 = VERTEX_POINT ( 'NONE', #333 ) ;
#320 = DIRECTION ( 'NONE',  ( -0.0000000000000000000, -0.0000000000000000000, -1.000000000000000000 ) ) ;
#321 = UNCERTAINTY_MEASURE_WITH_UNIT (LENGTH_MEASURE( 1.000000000000000082E-05 ), #108, 'distance_accuracy_value', 'NONE');
#322 = CONICAL_SURFACE ( 'NONE', #181, 0.1031099999999991745, 0.7853981633974500554 ) ;
#323 = CARTESIAN_POINT ( 'NONE',  ( 0.0000000000000000000, 0.03936999999999998140, 0.1030719981370833843 ) ) ;
#324 = AXIS2_PLACEMENT_3D ( 'NONE', #203, #129, #271 ) ;
#325 = FACE_OUTER_BOUND ( 'NONE', #130, .T. ) ;
#326 = CARTESIAN_POINT ( 'NONE',  ( 0.1031099999999991745, 1.262733314600825725E-17, 2.952755999999999936 ) ) ;
#327 = ADVANCED_FACE ( 'NONE', ( #229 ), #93, .T. ) ;
#328 = VERTEX_POINT ( 'NONE', #92 ) ;
#329 = DIMENSIONAL_EXPONENTS ( 1.000000000000000000, 0.0000000000000000000, 0.0000000000000000000, 0.0000000000000000000, 0.0000000000000000000, 0.0000000000000000000, 0.0000000000000000000 ) ;
#330 = EDGE_CURVE ( 'NONE', #250, #94, #138, .T. ) ;
#331 = ORIENTED_EDGE ( 'NONE', *, *, #189, .T. ) ;
#332 = AXIS2_PLACEMENT_3D ( 'NONE', #312, #110, #77 ) ;
#333 = CARTESIAN_POINT ( 'NONE',  ( 0.1181100000000000344, 1.446430334472939084E-17, 2.937755999999999368 ) ) ;
#334 = ORIENTED_EDGE ( 'NONE', *, *, #231, .F. ) ;
#335 = SURFACE_STYLE_FILL_AREA ( #259 ) ;
#336 = ORIENTED_EDGE ( 'NONE', *, *, #303, .T. ) ;
#337 =( LENGTH_UNIT ( ) NAMED_UNIT ( * ) SI_UNIT ( $, .METRE. ) );
#338 = ORIENTED_EDGE ( 'NONE', *, *, #310, .T. ) ;
#339 = ADVANCED_FACE ( 'NONE', ( #184 ), #97, .T. ) ;
#340 = ORIENTED_EDGE ( 'NONE', *, *, #281, .T. ) ;
#341 = APPLICATION_CONTEXT ( 'automotive_design' ) ;
#342 = CARTESIAN_POINT ( 'NONE',  ( 0.0000000000000000000, 3.616075836182346941E-18, 8.537024980200822558E-18 ) ) ;
#343 = CARTESIAN_POINT ( 'NONE',  ( -0.03936999999999993977, 0.0000000000000000000, 0.0000000000000000000 ) ) ;
#344 = AXIS2_PLACEMENT_3D ( 'NONE', #51, #317, #132 ) ;
#345 = CARTESIAN_POINT ( 'NONE',  ( 0.1299209999999998144, 0.0000000000000000000, 1.822834149999997599 ) ) ;
ENDSEC;
END-ISO-10303-21;
